ISO-10303-21;
HEADER;
FILE_DESCRIPTION (( 'STEP AP214' ),
    '1' );
FILE_NAME ('Micro_GEMM-060-3.STEP',
    '2021-09-01T21:42:46',
    ( '' ),
    ( '' ),
    'SwSTEP 2.0',
    'SolidWorks 2020',
    '' );
FILE_SCHEMA (( 'AUTOMOTIVE_DESIGN' ));
ENDSEC;

DATA;
#1 = DIRECTION ( 'NONE',  ( -0.1736481776669311639, 2.126576849575783008E-17, 0.9848077530122080203 ) ) ;
#2 = EDGE_CURVE ( 'NONE', #55, #11, #222, .T. ) ;
#3 = STYLED_ITEM ( 'NONE', ( #148 ), #239 ) ;
#4 = ORIENTED_EDGE ( 'NONE', *, *, #296, .F. ) ;
#5 = DIRECTION ( 'NONE',  ( -1.000000000000000000, 0.0000000000000000000, 0.0000000000000000000 ) ) ;
#6 = DIRECTION ( 'NONE',  ( -1.224646799147353207E-16, -0.0000000000000000000, -1.000000000000000000 ) ) ;
#7 = ORIENTED_EDGE ( 'NONE', *, *, #19, .F. ) ;
#8 = PRODUCT_DEFINITION ( 'UNKNOWN', '', #263, #227 ) ;
#9 = EDGE_LOOP ( 'NONE', ( #75, #71, #76, #24 ) ) ;
#10 =( NAMED_UNIT ( * ) SI_UNIT ( $, .STERADIAN. ) SOLID_ANGLE_UNIT ( ) );
#11 = VERTEX_POINT ( 'NONE', #60 ) ;
#12 = MECHANICAL_DESIGN_GEOMETRIC_PRESENTATION_REPRESENTATION (  '', ( #3 ), #154 ) ;
#13 = DIRECTION ( 'NONE',  ( -1.224646799147353207E-16, -0.0000000000000000000, -1.000000000000000000 ) ) ;
#14 = ORIENTED_EDGE ( 'NONE', *, *, #29, .T. ) ;
#15 = SURFACE_SIDE_STYLE ('',( #217 ) ) ;
#16 = ADVANCED_FACE ( 'NONE', ( #89 ), #266, .T. ) ;
#17 = DIRECTION ( 'NONE',  ( 1.000000000000000000, 0.0000000000000000000, 0.0000000000000000000 ) ) ;
#18 = CIRCLE ( 'NONE', #178, 0.1179918900000000159 ) ;
#19 = EDGE_CURVE ( 'NONE', #260, #169, #66, .T. ) ;
#20 = VECTOR ( 'NONE', #49, 39.37007874015748854 ) ;
#21 = DIRECTION ( 'NONE',  ( -0.0000000000000000000, -0.0000000000000000000, -1.000000000000000000 ) ) ;
#22 = CARTESIAN_POINT ( 'NONE',  ( -0.1179918899999999882, 0.0000000000000000000, 2.889967808276931875E-17 ) ) ;
#23 = DIRECTION ( 'NONE',  ( 1.224646799147353207E-16, 0.0000000000000000000, 1.000000000000000000 ) ) ;
#24 = ORIENTED_EDGE ( 'NONE', *, *, #126, .F. ) ;
#25 = LINE ( 'NONE', #107, #139 ) ;
#26 = CIRCLE ( 'NONE', #267, 0.1179918899999999882 ) ;
#27 = ORIENTED_EDGE ( 'NONE', *, *, #86, .T. ) ;
#28 = CARTESIAN_POINT ( 'NONE',  ( 0.1181100000000000066, 1.446430334472939084E-17, 2.229093999999999465 ) ) ;
#29 = EDGE_CURVE ( 'NONE', #51, #255, #194, .T. ) ;
#30 = ORIENTED_EDGE ( 'NONE', *, *, #105, .F. ) ;
#31 = DIRECTION ( 'NONE',  ( 0.0000000000000000000, 0.0000000000000000000, 1.000000000000000000 ) ) ;
#32 = ORIENTED_EDGE ( 'NONE', *, *, #57, .T. ) ;
#33 = CARTESIAN_POINT ( 'NONE',  ( 0.0000000000000000000, 0.0000000000000000000, 2.244094000000000033 ) ) ;
#34 = CARTESIAN_POINT ( 'NONE',  ( 1.769594913022618037E-33, 0.0000000000000000000, 1.444983904138465938E-17 ) ) ;
#35 = DIRECTION ( 'NONE',  ( 1.000000000000000000, 0.0000000000000000000, -0.0000000000000000000 ) ) ;
#36 = SURFACE_SIDE_STYLE ('',( #218 ) ) ;
#37 = DIRECTION ( 'NONE',  ( -1.224646799147353207E-16, -0.0000000000000000000, -1.000000000000000000 ) ) ;
#38 = AXIS2_PLACEMENT_3D ( 'NONE', #33, #147, #123 ) ;
#39 = AXIS2_PLACEMENT_3D ( 'NONE', #135, #129, #210 ) ;
#40 = ADVANCED_FACE ( 'NONE', ( #200 ), #174, .T. ) ;
#41 = CARTESIAN_POINT ( 'NONE',  ( 0.0000000000000000000, 0.0000000000000000000, 0.0000000000000000000 ) ) ;
#42 = CARTESIAN_POINT ( 'NONE',  ( 4.829649808770360457E-17, 0.0000000000000000000, 0.3943708350957150222 ) ) ;
#43 = DIRECTION ( 'NONE',  ( 0.0000000000000000000, 0.0000000000000000000, 1.000000000000000000 ) ) ;
#44 = COLOUR_RGB ( '',0.7921568627450980005, 0.8196078431372548767, 0.9333333333333333481 ) ;
#45 = DIRECTION ( 'NONE',  ( 0.1736481776669313581, 0.0000000000000000000, 0.9848077530122077983 ) ) ;
#46 = DIRECTION ( 'NONE',  ( 1.000000000000000000, 0.0000000000000000000, 0.0000000000000000000 ) ) ;
#47 = FACE_OUTER_BOUND ( 'NONE', #140, .T. ) ;
#48 =( GEOMETRIC_REPRESENTATION_CONTEXT ( 3 ) GLOBAL_UNCERTAINTY_ASSIGNED_CONTEXT ( ( #130 ) ) GLOBAL_UNIT_ASSIGNED_CONTEXT ( ( #172, #146, #285 ) ) REPRESENTATION_CONTEXT ( 'NONE', 'WORKASPACE' ) );
#49 = DIRECTION ( 'NONE',  ( 0.7071067811865358044, 8.659560562354788645E-17, -0.7071067811865590080 ) ) ;
#50 = CARTESIAN_POINT ( 'NONE',  ( 0.0000000000000000000, 0.0000000000000000000, 0.0000000000000000000 ) ) ;
#51 = VERTEX_POINT ( 'NONE', #85 ) ;
#52 = DIRECTION ( 'NONE',  ( 1.000000000000000000, 0.0000000000000000000, 0.0000000000000000000 ) ) ;
#53 = ORIENTED_EDGE ( 'NONE', *, *, #2, .F. ) ;
#54 = ORIENTED_EDGE ( 'NONE', *, *, #80, .T. ) ;
#55 = VERTEX_POINT ( 'NONE', #271 ) ;
#56 = CARTESIAN_POINT ( 'NONE',  ( 0.0000000000000000000, 0.0000000000000000000, 2.244094000000000033 ) ) ;
#57 = EDGE_CURVE ( 'NONE', #11, #230, #132, .T. ) ;
#58 = CIRCLE ( 'NONE', #202, 0.1181100000000000066 ) ;
#59 =( CONVERSION_BASED_UNIT ( 'INCH', #83 ) LENGTH_UNIT ( ) NAMED_UNIT ( #216 ) );
#60 = CARTESIAN_POINT ( 'NONE',  ( 0.1181100000000000622, 1.446430334472939701E-17, 0.3943708350957150222 ) ) ;
#61 = ADVANCED_FACE ( 'NONE', ( #295 ), #181, .T. ) ;
#62 = AXIS2_PLACEMENT_3D ( 'NONE', #42, #6, #168 ) ;
#63 = DIRECTION ( 'NONE',  ( -1.224646799147353207E-16, -0.0000000000000000000, -1.000000000000000000 ) ) ;
#64 = DIRECTION ( 'NONE',  ( 0.0000000000000000000, 0.0000000000000000000, -1.000000000000000000 ) ) ;
#65 = FILL_AREA_STYLE_COLOUR ( '', #244 ) ;
#66 = LINE ( 'NONE', #213, #127 ) ;
#67 = VECTOR ( 'NONE', #45, 39.37007874015748143 ) ;
#68 = CARTESIAN_POINT ( 'NONE',  ( 0.1181100000000000066, 1.446430334472939084E-17, 2.244094000000000033 ) ) ;
#69 = ORIENTED_EDGE ( 'NONE', *, *, #184, .T. ) ;
#70 = CARTESIAN_POINT ( 'NONE',  ( 4.821446694711121291E-17, 0.0000000000000000000, 0.3937009999999999676 ) ) ;
#71 = ORIENTED_EDGE ( 'NONE', *, *, #80, .F. ) ;
#72 = CIRCLE ( 'NONE', #152, 0.1179918899999999882 ) ;
#73 = ORIENTED_EDGE ( 'NONE', *, *, #173, .T. ) ;
#74 =( LENGTH_UNIT ( ) NAMED_UNIT ( * ) SI_UNIT ( $, .METRE. ) );
#75 = ORIENTED_EDGE ( 'NONE', *, *, #112, .F. ) ;
#76 = ORIENTED_EDGE ( 'NONE', *, *, #204, .T. ) ;
#77 = LENGTH_MEASURE_WITH_UNIT ( LENGTH_MEASURE( 0.02539999999999999897 ), #264 );
#78 = VECTOR ( 'NONE', #161, 39.37007874015748143 ) ;
#79 = DIRECTION ( 'NONE',  ( -1.224646799147353207E-16, -0.0000000000000000000, -1.000000000000000000 ) ) ;
#80 = EDGE_CURVE ( 'NONE', #255, #51, #144, .T. ) ;
#81 = AXIS2_PLACEMENT_3D ( 'NONE', #56, #101, #241 ) ;
#82 = AXIS2_PLACEMENT_3D ( 'NONE', #41, #43, #17 ) ;
#83 = LENGTH_MEASURE_WITH_UNIT ( LENGTH_MEASURE( 0.02539999999999999897 ), #177 );
#84 = FACE_OUTER_BOUND ( 'NONE', #280, .T. ) ;
#85 = CARTESIAN_POINT ( 'NONE',  ( 0.1031100000000002570, 1.354581824536888722E-17, 2.244094000000000033 ) ) ;
#86 = EDGE_CURVE ( 'NONE', #230, #11, #201, .T. ) ;
#87 = DIRECTION ( 'NONE',  ( 0.0000000000000000000, 0.0000000000000000000, -1.000000000000000000 ) ) ;
#88 = LINE ( 'NONE', #183, #91 ) ;
#89 = FACE_OUTER_BOUND ( 'NONE', #282, .T. ) ;
#90 = CARTESIAN_POINT ( 'NONE',  ( -0.1179918899999999604, 1.445707119305702357E-17, 0.3937009999999999676 ) ) ;
#91 = VECTOR ( 'NONE', #1, 39.37007874015747433 ) ;
#92 = FACE_OUTER_BOUND ( 'NONE', #286, .T. ) ;
#93 = ORIENTED_EDGE ( 'NONE', *, *, #277, .F. ) ;
#94 = ORIENTED_EDGE ( 'NONE', *, *, #128, .T. ) ;
#95 =( NAMED_UNIT ( * ) PLANE_ANGLE_UNIT ( ) SI_UNIT ( $, .RADIAN. ) );
#96 = AXIS2_PLACEMENT_3D ( 'NONE', #115, #23, #52 ) ;
#97 = ORIENTED_EDGE ( 'NONE', *, *, #289, .T. ) ;
#98 = DIRECTION ( 'NONE',  ( -1.000000000000000000, 0.0000000000000000000, 1.224646799147353454E-16 ) ) ;
#99 = DIRECTION ( 'NONE',  ( 1.000000000000000000, 0.0000000000000000000, 0.0000000000000000000 ) ) ;
#100 = ORIENTED_EDGE ( 'NONE', *, *, #2, .T. ) ;
#101 = DIRECTION ( 'NONE',  ( -0.0000000000000000000, -0.0000000000000000000, -1.000000000000000000 ) ) ;
#102 = CONICAL_SURFACE ( 'NONE', #96, 0.1179918900000000159, 0.1745329251994338637 ) ;
#103 = PRODUCT_CONTEXT ( 'NONE', #191, 'mechanical' ) ;
#104 = ADVANCED_FACE ( 'NONE', ( #84 ), #208, .T. ) ;
#105 = EDGE_CURVE ( 'NONE', #55, #237, #180, .T. ) ;
#106 = ADVANCED_BREP_SHAPE_REPRESENTATION ( 'Micro_GEMM-060-3', ( #239, #82 ), #48 ) ;
#107 = CARTESIAN_POINT ( 'NONE',  ( -0.1031100000000002570, 0.0000000000000000000, 2.244094000000000033 ) ) ;
#108 = LINE ( 'NONE', #251, #221 ) ;
#109 = CYLINDRICAL_SURFACE ( 'NONE', #113, 0.1181100000000000066 ) ;
#110 = ORIENTED_EDGE ( 'NONE', *, *, #57, .F. ) ;
#111 = DIRECTION ( 'NONE',  ( -1.224646799147353207E-16, -0.0000000000000000000, -1.000000000000000000 ) ) ;
#112 = EDGE_CURVE ( 'NONE', #51, #121, #155, .T. ) ;
#113 = AXIS2_PLACEMENT_3D ( 'NONE', #224, #21, #250 ) ;
#114 = ORIENTED_EDGE ( 'NONE', *, *, #233, .F. ) ;
#115 = CARTESIAN_POINT ( 'NONE',  ( 4.821446694711121291E-17, 0.0000000000000000000, 0.3937009999999999676 ) ) ;
#116 = DIRECTION ( 'NONE',  ( -1.224646799147353207E-16, -0.0000000000000000000, -1.000000000000000000 ) ) ;
#117 = FILL_AREA_STYLE_COLOUR ( '', #44 ) ;
#118 =( CONVERSION_BASED_UNIT ( 'INCH', #166 ) LENGTH_UNIT ( ) NAMED_UNIT ( #153 ) );
#119 = CLOSED_SHELL ( 'NONE', ( #104, #165, #124, #269, #199, #40, #160, #16, #61, #219 ) ) ;
#120 = DIRECTION ( 'NONE',  ( 1.000000000000000000, 0.0000000000000000000, 0.0000000000000000000 ) ) ;
#121 = VERTEX_POINT ( 'NONE', #28 ) ;
#122 = CYLINDRICAL_SURFACE ( 'NONE', #81, 0.1181100000000000066 ) ;
#123 = DIRECTION ( 'NONE',  ( 1.000000000000000000, 0.0000000000000000000, 0.0000000000000000000 ) ) ;
#124 = ADVANCED_FACE ( 'NONE', ( #203 ), #283, .T. ) ;
#125 = AXIS2_PLACEMENT_3D ( 'NONE', #247, #188, #46 ) ;
#126 = EDGE_CURVE ( 'NONE', #121, #209, #58, .T. ) ;
#127 = VECTOR ( 'NONE', #116, 39.37007874015748143 ) ;
#128 = EDGE_CURVE ( 'NONE', #121, #11, #159, .T. ) ;
#129 = DIRECTION ( 'NONE',  ( -1.224646799147353207E-16, -0.0000000000000000000, -1.000000000000000000 ) ) ;
#130 = UNCERTAINTY_MEASURE_WITH_UNIT (LENGTH_MEASURE( 1.000000000000000082E-05 ), #172, 'distance_accuracy_value', 'NONE');
#131 = APPLICATION_CONTEXT ( 'automotive_design' ) ;
#132 = CIRCLE ( 'NONE', #62, 0.1181100000000000066 ) ;
#133 = CARTESIAN_POINT ( 'NONE',  ( 0.0000000000000000000, 0.0000000000000000000, 2.244094000000000033 ) ) ;
#134 = DIRECTION ( 'NONE',  ( 1.224646799147353207E-16, 0.0000000000000000000, 1.000000000000000000 ) ) ;
#135 = CARTESIAN_POINT ( 'NONE',  ( 4.829649808770360457E-17, 0.0000000000000000000, 0.3943708350957150222 ) ) ;
#136 = PRODUCT_DEFINITION_SHAPE ( 'NONE', 'NONE',  #8 ) ;
#137 = CARTESIAN_POINT ( 'NONE',  ( 0.1179918900000000159, 1.444983904138465938E-17, -1.444983904138465938E-17 ) ) ;
#138 = DIRECTION ( 'NONE',  ( -1.224646799147353207E-16, -0.0000000000000000000, -1.000000000000000000 ) ) ;
#139 = VECTOR ( 'NONE', #272, 39.37007874015748854 ) ;
#140 = EDGE_LOOP ( 'NONE', ( #196, #278 ) ) ;
#141 = EDGE_LOOP ( 'NONE', ( #211, #195, #248, #110 ) ) ;
#142 = DIRECTION ( 'NONE',  ( -1.000000000000000000, 0.0000000000000000000, 0.0000000000000000000 ) ) ;
#143 = EDGE_LOOP ( 'NONE', ( #54, #14 ) ) ;
#144 = CIRCLE ( 'NONE', #293, 0.1031100000000002570 ) ;
#145 = EDGE_LOOP ( 'NONE', ( #73, #94, #171, #192 ) ) ;
#146 =( NAMED_UNIT ( * ) PLANE_ANGLE_UNIT ( ) SI_UNIT ( $, .RADIAN. ) );
#147 = DIRECTION ( 'NONE',  ( 0.0000000000000000000, 0.0000000000000000000, 1.000000000000000000 ) ) ;
#148 = PRESENTATION_STYLE_ASSIGNMENT (( #281 ) ) ;
#149 = CARTESIAN_POINT ( 'NONE',  ( 0.0000000000000000000, 0.0000000000000000000, 2.244094000000000033 ) ) ;
#150 = DIRECTION ( 'NONE',  ( -1.224646799147353207E-16, -0.0000000000000000000, -1.000000000000000000 ) ) ;
#151 = ORIENTED_EDGE ( 'NONE', *, *, #233, .T. ) ;
#152 = AXIS2_PLACEMENT_3D ( 'NONE', #34, #79, #98 ) ;
#153 = DIMENSIONAL_EXPONENTS ( 1.000000000000000000, 0.0000000000000000000, 0.0000000000000000000, 0.0000000000000000000, 0.0000000000000000000, 0.0000000000000000000, 0.0000000000000000000 ) ;
#154 =( GEOMETRIC_REPRESENTATION_CONTEXT ( 3 ) GLOBAL_UNCERTAINTY_ASSIGNED_CONTEXT ( ( #246 ) ) GLOBAL_UNIT_ASSIGNED_CONTEXT ( ( #118, #95, #10 ) ) REPRESENTATION_CONTEXT ( 'NONE', 'WORKASPACE' ) );
#155 = LINE ( 'NONE', #186, #20 ) ;
#156 = CARTESIAN_POINT ( 'NONE',  ( 0.0000000000000000000, 0.0000000000000000000, 2.229093999999999465 ) ) ;
#157 = UNCERTAINTY_MEASURE_WITH_UNIT (LENGTH_MEASURE( 1.000000000000000082E-05 ), #59, 'distance_accuracy_value', 'NONE');
#158 = PRESENTATION_LAYER_ASSIGNMENT (  '', '', ( #3 ) ) ;
#159 = LINE ( 'NONE', #68, #78 ) ;
#160 = ADVANCED_FACE ( 'NONE', ( #299 ), #274, .T. ) ;
#161 = DIRECTION ( 'NONE',  ( -0.0000000000000000000, -0.0000000000000000000, -1.000000000000000000 ) ) ;
#162 = EDGE_LOOP ( 'NONE', ( #259, #287, #257, #252 ) ) ;
#163 = DIRECTION ( 'NONE',  ( 0.0000000000000000000, 0.0000000000000000000, -1.000000000000000000 ) ) ;
#164 = EDGE_LOOP ( 'NONE', ( #30, #97, #189, #4 ) ) ;
#165 = ADVANCED_FACE ( 'NONE', ( #92 ), #102, .T. ) ;
#166 = LENGTH_MEASURE_WITH_UNIT ( LENGTH_MEASURE( 0.02539999999999999897 ), #74 );
#167 = AXIS2_PLACEMENT_3D ( 'NONE', #50, #111, #232 ) ;
#168 = DIRECTION ( 'NONE',  ( 1.000000000000000000, 0.0000000000000000000, 0.0000000000000000000 ) ) ;
#169 = VERTEX_POINT ( 'NONE', #22 ) ;
#170 = ORIENTED_EDGE ( 'NONE', *, *, #184, .F. ) ;
#171 = ORIENTED_EDGE ( 'NONE', *, *, #86, .F. ) ;
#172 =( CONVERSION_BASED_UNIT ( 'INCH', #77 ) LENGTH_UNIT ( ) NAMED_UNIT ( #265 ) );
#173 = EDGE_CURVE ( 'NONE', #209, #121, #249, .T. ) ;
#174 = PLANE ( 'NONE',  #207 ) ;
#175 = PRODUCT ( 'Micro_GEMM-060-3', 'Micro_GEMM-060-3', '', ( #103 ) ) ;
#176 = MECHANICAL_DESIGN_GEOMETRIC_PRESENTATION_REPRESENTATION (  '', ( #294 ), #214 ) ;
#177 =( LENGTH_UNIT ( ) NAMED_UNIT ( * ) SI_UNIT ( $, .METRE. ) );
#178 = AXIS2_PLACEMENT_3D ( 'NONE', #193, #37, #142 ) ;
#179 = CARTESIAN_POINT ( 'NONE',  ( 0.1179918900000000576, 0.0000000000000000000, 0.3937009999999999676 ) ) ;
#180 = LINE ( 'NONE', #137, #231 ) ;
#181 = CYLINDRICAL_SURFACE ( 'NONE', #242, 0.1179918900000000159 ) ;
#182 = DIRECTION ( 'NONE',  ( 0.0000000000000000000, 0.0000000000000000000, 1.000000000000000000 ) ) ;
#183 = CARTESIAN_POINT ( 'NONE',  ( -0.1179918899999999604, 1.444983904138465938E-17, 0.3937009999999999676 ) ) ;
#184 = EDGE_CURVE ( 'NONE', #260, #55, #225, .T. ) ;
#185 = AXIS2_PLACEMENT_3D ( 'NONE', #279, #163, #253 ) ;
#186 = CARTESIAN_POINT ( 'NONE',  ( 0.1031100000000002570, 1.262733314600838667E-17, 2.244094000000000033 ) ) ;
#187 = PRESENTATION_LAYER_ASSIGNMENT (  '', '', ( #294 ) ) ;
#188 = DIRECTION ( 'NONE',  ( 0.0000000000000000000, 0.0000000000000000000, -1.000000000000000000 ) ) ;
#189 = ORIENTED_EDGE ( 'NONE', *, *, #19, .T. ) ;
#190 = APPLICATION_PROTOCOL_DEFINITION ( 'draft international standard', 'automotive_design', 1998, #191 ) ;
#191 = APPLICATION_CONTEXT ( 'automotive_design' ) ;
#192 = ORIENTED_EDGE ( 'NONE', *, *, #223, .F. ) ;
#193 = CARTESIAN_POINT ( 'NONE',  ( 4.821446694711121291E-17, 0.0000000000000000000, 0.3937009999999999676 ) ) ;
#194 = CIRCLE ( 'NONE', #38, 0.1031100000000002570 ) ;
#195 = ORIENTED_EDGE ( 'NONE', *, *, #126, .T. ) ;
#196 = ORIENTED_EDGE ( 'NONE', *, *, #277, .T. ) ;
#197 = SURFACE_STYLE_USAGE ( .BOTH. , #15 ) ;
#198 = AXIS2_PLACEMENT_3D ( 'NONE', #275, #134, #99 ) ;
#199 = ADVANCED_FACE ( 'NONE', ( #276 ), #109, .T. ) ;
#200 = FACE_OUTER_BOUND ( 'NONE', #143, .T. ) ;
#201 = CIRCLE ( 'NONE', #39, 0.1181100000000000066 ) ;
#202 = AXIS2_PLACEMENT_3D ( 'NONE', #156, #87, #245 ) ;
#203 = FACE_OUTER_BOUND ( 'NONE', #162, .T. ) ;
#204 = EDGE_CURVE ( 'NONE', #255, #209, #25, .T. ) ;
#205 = DIRECTION ( 'NONE',  ( -0.0000000000000000000, -0.0000000000000000000, -1.000000000000000000 ) ) ;
#206 = PLANE ( 'NONE',  #262 ) ;
#207 = AXIS2_PLACEMENT_3D ( 'NONE', #149, #291, #35 ) ;
#208 = CYLINDRICAL_SURFACE ( 'NONE', #167, 0.1179918900000000159 ) ;
#209 = VERTEX_POINT ( 'NONE', #298 ) ;
#210 = DIRECTION ( 'NONE',  ( 1.000000000000000000, 0.0000000000000000000, 0.0000000000000000000 ) ) ;
#211 = ORIENTED_EDGE ( 'NONE', *, *, #128, .F. ) ;
#212 = FILL_AREA_STYLE ('',( #117 ) ) ;
#213 = CARTESIAN_POINT ( 'NONE',  ( -0.1179918900000000159, 0.0000000000000000000, 1.444983904138465938E-17 ) ) ;
#214 =( GEOMETRIC_REPRESENTATION_CONTEXT ( 3 ) GLOBAL_UNCERTAINTY_ASSIGNED_CONTEXT ( ( #157 ) ) GLOBAL_UNIT_ASSIGNED_CONTEXT ( ( #59, #243, #292 ) ) REPRESENTATION_CONTEXT ( 'NONE', 'WORKASPACE' ) );
#215 = ORIENTED_EDGE ( 'NONE', *, *, #289, .F. ) ;
#216 = DIMENSIONAL_EXPONENTS ( 1.000000000000000000, 0.0000000000000000000, 0.0000000000000000000, 0.0000000000000000000, 0.0000000000000000000, 0.0000000000000000000, 0.0000000000000000000 ) ;
#217 = SURFACE_STYLE_FILL_AREA ( #212 ) ;
#218 = SURFACE_STYLE_FILL_AREA ( #261 ) ;
#219 = ADVANCED_FACE ( 'NONE', ( #47 ), #206, .F. ) ;
#220 = APPLICATION_PROTOCOL_DEFINITION ( 'draft international standard', 'automotive_design', 1998, #131 ) ;
#221 = VECTOR ( 'NONE', #205, 39.37007874015748143 ) ;
#222 = LINE ( 'NONE', #179, #67 ) ;
#223 = EDGE_CURVE ( 'NONE', #209, #230, #108, .T. ) ;
#224 = CARTESIAN_POINT ( 'NONE',  ( 0.0000000000000000000, 0.0000000000000000000, 2.244094000000000033 ) ) ;
#225 = CIRCLE ( 'NONE', #297, 0.1179918900000000159 ) ;
#226 = DIRECTION ( 'NONE',  ( 1.000000000000000000, 0.0000000000000000000, -0.0000000000000000000 ) ) ;
#227 = PRODUCT_DEFINITION_CONTEXT ( 'detailed design', #131, 'design' ) ;
#228 = CARTESIAN_POINT ( 'NONE',  ( 0.0000000000000000000, 0.0000000000000000000, 0.0000000000000000000 ) ) ;
#229 = CARTESIAN_POINT ( 'NONE',  ( -0.1181099999999999650, 0.0000000000000000000, 0.3943708350957150222 ) ) ;
#230 = VERTEX_POINT ( 'NONE', #229 ) ;
#231 = VECTOR ( 'NONE', #63, 39.37007874015748143 ) ;
#232 = DIRECTION ( 'NONE',  ( -1.000000000000000000, 0.0000000000000000000, 1.224646799147352961E-16 ) ) ;
#233 = EDGE_CURVE ( 'NONE', #260, #230, #88, .T. ) ;
#234 = DIRECTION ( 'NONE',  ( -1.000000000000000000, 0.0000000000000000000, 1.224646799147353454E-16 ) ) ;
#235 = ORIENTED_EDGE ( 'NONE', *, *, #105, .T. ) ;
#236 = CARTESIAN_POINT ( 'NONE',  ( -0.1031100000000002570, 0.0000000000000000000, 2.244094000000000033 ) ) ;
#237 = VERTEX_POINT ( 'NONE', #273 ) ;
#238 = AXIS2_PLACEMENT_3D ( 'NONE', #133, #64, #5 ) ;
#239 = MANIFOLD_SOLID_BREP ( 'Cut-Revolve1', #119 ) ;
#240 = CARTESIAN_POINT ( 'NONE',  ( 0.0000000000000000000, 0.0000000000000000000, 0.0000000000000000000 ) ) ;
#241 = DIRECTION ( 'NONE',  ( -1.000000000000000000, 0.0000000000000000000, 0.0000000000000000000 ) ) ;
#242 = AXIS2_PLACEMENT_3D ( 'NONE', #240, #150, #268 ) ;
#243 =( NAMED_UNIT ( * ) PLANE_ANGLE_UNIT ( ) SI_UNIT ( $, .RADIAN. ) );
#244 = COLOUR_RGB ( '',0.7921568627450980005, 0.8196078431372548767, 0.9333333333333333481 ) ;
#245 = DIRECTION ( 'NONE',  ( 1.000000000000000000, 0.0000000000000000000, 0.0000000000000000000 ) ) ;
#246 = UNCERTAINTY_MEASURE_WITH_UNIT (LENGTH_MEASURE( 1.000000000000000082E-05 ), #118, 'distance_accuracy_value', 'NONE');
#247 = CARTESIAN_POINT ( 'NONE',  ( 0.0000000000000000000, 0.0000000000000000000, 2.229093999999999465 ) ) ;
#248 = ORIENTED_EDGE ( 'NONE', *, *, #223, .T. ) ;
#249 = CIRCLE ( 'NONE', #125, 0.1181100000000000066 ) ;
#250 = DIRECTION ( 'NONE',  ( -1.000000000000000000, 0.0000000000000000000, 0.0000000000000000000 ) ) ;
#251 = CARTESIAN_POINT ( 'NONE',  ( -0.1181100000000000066, 0.0000000000000000000, 2.244094000000000033 ) ) ;
#252 = ORIENTED_EDGE ( 'NONE', *, *, #204, .F. ) ;
#253 = DIRECTION ( 'NONE',  ( -1.000000000000000000, 0.0000000000000000000, 0.0000000000000000000 ) ) ;
#254 = FACE_OUTER_BOUND ( 'NONE', #145, .T. ) ;
#255 = VERTEX_POINT ( 'NONE', #236 ) ;
#256 = CARTESIAN_POINT ( 'NONE',  ( 0.0000000000000000000, 0.0000000000000000000, 2.244094000000000033 ) ) ;
#257 = ORIENTED_EDGE ( 'NONE', *, *, #173, .F. ) ;
#258 = PRESENTATION_STYLE_ASSIGNMENT (( #197 ) ) ;
#259 = ORIENTED_EDGE ( 'NONE', *, *, #29, .F. ) ;
#260 = VERTEX_POINT ( 'NONE', #90 ) ;
#261 = FILL_AREA_STYLE ('',( #65 ) ) ;
#262 = AXIS2_PLACEMENT_3D ( 'NONE', #228, #182, #226 ) ;
#263 = PRODUCT_DEFINITION_FORMATION_WITH_SPECIFIED_SOURCE ( 'ANY', '', #175, .NOT_KNOWN. ) ;
#264 =( LENGTH_UNIT ( ) NAMED_UNIT ( * ) SI_UNIT ( $, .METRE. ) );
#265 = DIMENSIONAL_EXPONENTS ( 1.000000000000000000, 0.0000000000000000000, 0.0000000000000000000, 0.0000000000000000000, 0.0000000000000000000, 0.0000000000000000000, 0.0000000000000000000 ) ;
#266 = CONICAL_SURFACE ( 'NONE', #198, 0.1179918900000000159, 0.1745329251994338637 ) ;
#267 = AXIS2_PLACEMENT_3D ( 'NONE', #288, #13, #234 ) ;
#268 = DIRECTION ( 'NONE',  ( -1.000000000000000000, 0.0000000000000000000, 1.224646799147352961E-16 ) ) ;
#269 = ADVANCED_FACE ( 'NONE', ( #254 ), #122, .T. ) ;
#270 = DIRECTION ( 'NONE',  ( -1.000000000000000000, 0.0000000000000000000, 0.0000000000000000000 ) ) ;
#271 = CARTESIAN_POINT ( 'NONE',  ( 0.1179918900000000576, 0.0000000000000000000, 0.3937009999999999676 ) ) ;
#272 = DIRECTION ( 'NONE',  ( -0.7071067811865358044, 0.0000000000000000000, -0.7071067811865590080 ) ) ;
#273 = CARTESIAN_POINT ( 'NONE',  ( 0.1179918899999999882, 1.444983904138465938E-17, -1.895600338963814870E-33 ) ) ;
#274 = CONICAL_SURFACE ( 'NONE', #185, 0.1031100000000002570, 0.7853981633974318477 ) ;
#275 = CARTESIAN_POINT ( 'NONE',  ( 4.821446694711121291E-17, 0.0000000000000000000, 0.3937009999999999676 ) ) ;
#276 = FACE_OUTER_BOUND ( 'NONE', #141, .T. ) ;
#277 = EDGE_CURVE ( 'NONE', #169, #237, #26, .T. ) ;
#278 = ORIENTED_EDGE ( 'NONE', *, *, #296, .T. ) ;
#279 = CARTESIAN_POINT ( 'NONE',  ( 0.0000000000000000000, 0.0000000000000000000, 2.244094000000000033 ) ) ;
#280 = EDGE_LOOP ( 'NONE', ( #69, #235, #93, #7 ) ) ;
#281 = SURFACE_STYLE_USAGE ( .BOTH. , #36 ) ;
#282 = EDGE_LOOP ( 'NONE', ( #114, #215, #100, #32 ) ) ;
#283 = CONICAL_SURFACE ( 'NONE', #238, 0.1031100000000002570, 0.7853981633974318477 ) ;
#284 = PRODUCT_RELATED_PRODUCT_CATEGORY ( 'part', '', ( #175 ) ) ;
#285 =( NAMED_UNIT ( * ) SI_UNIT ( $, .STERADIAN. ) SOLID_ANGLE_UNIT ( ) );
#286 = EDGE_LOOP ( 'NONE', ( #170, #151, #27, #53 ) ) ;
#287 = ORIENTED_EDGE ( 'NONE', *, *, #112, .T. ) ;
#288 = CARTESIAN_POINT ( 'NONE',  ( 1.769594913022618037E-33, 0.0000000000000000000, 1.444983904138465938E-17 ) ) ;
#289 = EDGE_CURVE ( 'NONE', #55, #260, #18, .T. ) ;
#290 = SHAPE_DEFINITION_REPRESENTATION ( #136, #106 ) ;
#291 = DIRECTION ( 'NONE',  ( 0.0000000000000000000, 0.0000000000000000000, 1.000000000000000000 ) ) ;
#292 =( NAMED_UNIT ( * ) SI_UNIT ( $, .STERADIAN. ) SOLID_ANGLE_UNIT ( ) );
#293 = AXIS2_PLACEMENT_3D ( 'NONE', #256, #31, #120 ) ;
#294 = STYLED_ITEM ( 'NONE', ( #258 ), #106 ) ;
#295 = FACE_OUTER_BOUND ( 'NONE', #164, .T. ) ;
#296 = EDGE_CURVE ( 'NONE', #237, #169, #72, .T. ) ;
#297 = AXIS2_PLACEMENT_3D ( 'NONE', #70, #138, #270 ) ;
#298 = CARTESIAN_POINT ( 'NONE',  ( -0.1181100000000000066, 0.0000000000000000000, 2.229093999999999465 ) ) ;
#299 = FACE_OUTER_BOUND ( 'NONE', #9, .T. ) ;
ENDSEC;
END-ISO-10303-21;
