ISO-10303-21;
HEADER;
FILE_DESCRIPTION (( 'STEP AP214' ),
    '1' );
FILE_NAME ('Micro_RSCM-030-2.STEP',
    '2021-09-03T17:55:28',
    ( '' ),
    ( '' ),
    'SwSTEP 2.0',
    'SolidWorks 2020',
    '' );
FILE_SCHEMA (( 'AUTOMOTIVE_DESIGN' ));
ENDSEC;

DATA;
#1 = AXIS2_PLACEMENT_3D ( 'NONE', #210, #32, #12 ) ;
#2 = ADVANCED_FACE ( 'NONE', ( #221 ), #196, .T. ) ;
#3 = ORIENTED_EDGE ( 'NONE', *, *, #197, .T. ) ;
#4 = ORIENTED_EDGE ( 'NONE', *, *, #197, .F. ) ;
#5 = DIMENSIONAL_EXPONENTS ( 1.000000000000000000, 0.0000000000000000000, 0.0000000000000000000, 0.0000000000000000000, 0.0000000000000000000, 0.0000000000000000000, 0.0000000000000000000 ) ;
#6 = ORIENTED_EDGE ( 'NONE', *, *, #10, .F. ) ;
#7 = CARTESIAN_POINT ( 'NONE',  ( 0.0000000000000000000, 0.0000000000000000000, 1.496062999999999921 ) ) ;
#8 = DIRECTION ( 'NONE',  ( -1.000000000000000000, 0.0000000000000000000, 0.0000000000000000000 ) ) ;
#9 = DIRECTION ( 'NONE',  ( 0.0000000000000000000, 0.0000000000000000000, -1.000000000000000000 ) ) ;
#10 = EDGE_CURVE ( 'NONE', #185, #217, #204, .T. ) ;
#11 = SURFACE_STYLE_FILL_AREA ( #165 ) ;
#12 = DIRECTION ( 'NONE',  ( 1.000000000000000000, 0.0000000000000000000, 0.0000000000000000000 ) ) ;
#13 = CIRCLE ( 'NONE', #151, 0.003936999999999995191 ) ;
#14 = COLOUR_RGB ( '',0.7921568627450980005, 0.8196078431372548767, 0.9333333333333333481 ) ;
#15 = DIRECTION ( 'NONE',  ( -0.5000000000000013323, -6.123233995736782060E-17, -0.8660254037844377084 ) ) ;
#16 = DIRECTION ( 'NONE',  ( -1.000000000000000000, 0.0000000000000000000, 0.0000000000000000000 ) ) ;
#17 = PRODUCT_DEFINITION ( 'UNKNOWN', '', #97, #20 ) ;
#18 = CONICAL_SURFACE ( 'NONE', #159, 0.003936999999999995191, 0.5235987755983005920 ) ;
#19 = AXIS2_PLACEMENT_3D ( 'NONE', #186, #211, #140 ) ;
#20 = PRODUCT_DEFINITION_CONTEXT ( 'detailed design', #176, 'design' ) ;
#21 = ORIENTED_EDGE ( 'NONE', *, *, #120, .T. ) ;
#22 = ORIENTED_EDGE ( 'NONE', *, *, #248, .F. ) ;
#23 = CLOSED_SHELL ( 'NONE', ( #170, #24, #112, #77, #62, #103, #2, #156 ) ) ;
#24 = ADVANCED_FACE ( 'NONE', ( #115 ), #18, .T. ) ;
#25 = AXIS2_PLACEMENT_3D ( 'NONE', #109, #9, #49 ) ;
#26 = MANIFOLD_SOLID_BREP ( 'Mirror1', #23 ) ;
#27 = EDGE_LOOP ( 'NONE', ( #134, #63, #179, #6 ) ) ;
#28 = ORIENTED_EDGE ( 'NONE', *, *, #10, .T. ) ;
#29 = CARTESIAN_POINT ( 'NONE',  ( 0.05905500000000000332, 7.232151672364695422E-18, 0.09546717641158104783 ) ) ;
#30 = VECTOR ( 'NONE', #225, 39.37007874015748854 ) ;
#31 = FACE_OUTER_BOUND ( 'NONE', #27, .T. ) ;
#32 = DIRECTION ( 'NONE',  ( 0.0000000000000000000, 0.0000000000000000000, 1.000000000000000000 ) ) ;
#33 = CARTESIAN_POINT ( 'NONE',  ( -0.05905500000000000332, 0.0000000000000000000, 1.400595823588418831 ) ) ;
#34 = EDGE_CURVE ( 'NONE', #203, #233, #13, .T. ) ;
#35 = VECTOR ( 'NONE', #84, 39.37007874015748143 ) ;
#36 =( GEOMETRIC_REPRESENTATION_CONTEXT ( 3 ) GLOBAL_UNCERTAINTY_ASSIGNED_CONTEXT ( ( #201 ) ) GLOBAL_UNIT_ASSIGNED_CONTEXT ( ( #174, #39, #133 ) ) REPRESENTATION_CONTEXT ( 'NONE', 'WORKASPACE' ) );
#37 = CYLINDRICAL_SURFACE ( 'NONE', #43, 0.05905500000000000332 ) ;
#38 =( NAMED_UNIT ( * ) SI_UNIT ( $, .STERADIAN. ) SOLID_ANGLE_UNIT ( ) );
#39 =( NAMED_UNIT ( * ) PLANE_ANGLE_UNIT ( ) SI_UNIT ( $, .RADIAN. ) );
#40 = EDGE_CURVE ( 'NONE', #137, #116, #167, .T. ) ;
#41 = LENGTH_MEASURE_WITH_UNIT ( LENGTH_MEASURE( 0.02539999999999999897 ), #56 );
#42 = UNCERTAINTY_MEASURE_WITH_UNIT (LENGTH_MEASURE( 1.000000000000000082E-05 ), #187, 'distance_accuracy_value', 'NONE');
#43 = AXIS2_PLACEMENT_3D ( 'NONE', #46, #236, #48 ) ;
#44 = ORIENTED_EDGE ( 'NONE', *, *, #57, .F. ) ;
#45 = ORIENTED_EDGE ( 'NONE', *, *, #248, .T. ) ;
#46 = CARTESIAN_POINT ( 'NONE',  ( 0.0000000000000000000, 0.0000000000000000000, 1.496062999999999921 ) ) ;
#47 =( LENGTH_UNIT ( ) NAMED_UNIT ( * ) SI_UNIT ( $, .METRE. ) );
#48 = DIRECTION ( 'NONE',  ( -1.000000000000000000, 0.0000000000000000000, 0.0000000000000000000 ) ) ;
#49 = DIRECTION ( 'NONE',  ( -1.000000000000000000, 0.0000000000000000000, 0.0000000000000000000 ) ) ;
#50 = DIRECTION ( 'NONE',  ( -0.0000000000000000000, -0.0000000000000000000, -1.000000000000000000 ) ) ;
#51 = DIRECTION ( 'NONE',  ( 1.000000000000000000, 0.0000000000000000000, 0.0000000000000000000 ) ) ;
#52 = FILL_AREA_STYLE_COLOUR ( '', #14 ) ;
#53 = CARTESIAN_POINT ( 'NONE',  ( 0.0000000000000000000, 0.0000000000000000000, 1.496062999999999921 ) ) ;
#54 = CIRCLE ( 'NONE', #131, 0.05905500000000000332 ) ;
#55 = SHAPE_DEFINITION_REPRESENTATION ( #178, #113 ) ;
#56 =( LENGTH_UNIT ( ) NAMED_UNIT ( * ) SI_UNIT ( $, .METRE. ) );
#57 = EDGE_CURVE ( 'NONE', #79, #219, #181, .T. ) ;
#58 = ORIENTED_EDGE ( 'NONE', *, *, #241, .T. ) ;
#59 = ORIENTED_EDGE ( 'NONE', *, *, #34, .T. ) ;
#60 = EDGE_LOOP ( 'NONE', ( #202, #58, #234, #237 ) ) ;
#61 = CARTESIAN_POINT ( 'NONE',  ( -0.003936999999999995191, 3.857147558594504174E-18, 0.0000000000000000000 ) ) ;
#62 = ADVANCED_FACE ( 'NONE', ( #66 ), #213, .T. ) ;
#63 = ORIENTED_EDGE ( 'NONE', *, *, #40, .T. ) ;
#64 = CARTESIAN_POINT ( 'NONE',  ( -0.003936999999999995191, 4.821434448243123477E-19, 0.0000000000000000000 ) ) ;
#65 = CARTESIAN_POINT ( 'NONE',  ( 0.003936999999999995191, 0.0000000000000000000, 0.0000000000000000000 ) ) ;
#66 = FACE_OUTER_BOUND ( 'NONE', #76, .T. ) ;
#67 = CARTESIAN_POINT ( 'NONE',  ( 0.0000000000000000000, 0.0000000000000000000, 0.09546717641158104783 ) ) ;
#68 = DIRECTION ( 'NONE',  ( -1.000000000000000000, 0.0000000000000000000, 0.0000000000000000000 ) ) ;
#69 = FACE_OUTER_BOUND ( 'NONE', #162, .T. ) ;
#70 =( CONVERSION_BASED_UNIT ( 'INCH', #230 ) LENGTH_UNIT ( ) NAMED_UNIT ( #200 ) );
#71 = CARTESIAN_POINT ( 'NONE',  ( 0.0000000000000000000, 0.0000000000000000000, 0.0000000000000000000 ) ) ;
#72 = AXIS2_PLACEMENT_3D ( 'NONE', #53, #184, #136 ) ;
#73 = VECTOR ( 'NONE', #226, 39.37007874015748143 ) ;
#74 = CIRCLE ( 'NONE', #207, 0.05905500000000000332 ) ;
#75 = EDGE_CURVE ( 'NONE', #217, #116, #74, .T. ) ;
#76 = EDGE_LOOP ( 'NONE', ( #180, #135, #155, #122 ) ) ;
#77 = ADVANCED_FACE ( 'NONE', ( #69 ), #147, .T. ) ;
#78 = UNCERTAINTY_MEASURE_WITH_UNIT (LENGTH_MEASURE( 1.000000000000000082E-05 ), #70, 'distance_accuracy_value', 'NONE');
#79 = VERTEX_POINT ( 'NONE', #123 ) ;
#80 = CARTESIAN_POINT ( 'NONE',  ( -0.05905500000000000332, 0.0000000000000000000, 1.496062999999999921 ) ) ;
#81 = PRODUCT ( 'Micro_RSCM-030-2', 'Micro_RSCM-030-2', '', ( #96 ) ) ;
#82 = CARTESIAN_POINT ( 'NONE',  ( -0.05905500000000000332, 0.0000000000000000000, 0.09546717641158104783 ) ) ;
#83 = VECTOR ( 'NONE', #15, 39.37007874015748854 ) ;
#84 = DIRECTION ( 'NONE',  ( -0.0000000000000000000, -0.0000000000000000000, -1.000000000000000000 ) ) ;
#85 = CARTESIAN_POINT ( 'NONE',  ( 0.0000000000000000000, 0.0000000000000000000, 0.0000000000000000000 ) ) ;
#86 =( NAMED_UNIT ( * ) SI_UNIT ( $, .STERADIAN. ) SOLID_ANGLE_UNIT ( ) );
#87 = CARTESIAN_POINT ( 'NONE',  ( 0.003936999999999995191, 0.0000000000000000000, 1.496062999999999921 ) ) ;
#88 = DIRECTION ( 'NONE',  ( -1.000000000000000000, 0.0000000000000000000, 0.0000000000000000000 ) ) ;
#89 = EDGE_CURVE ( 'NONE', #233, #203, #108, .T. ) ;
#90 = PLANE ( 'NONE',  #214 ) ;
#91 = CARTESIAN_POINT ( 'NONE',  ( 0.0000000000000000000, 0.0000000000000000000, 0.09546717641158104783 ) ) ;
#92 = MECHANICAL_DESIGN_GEOMETRIC_PRESENTATION_REPRESENTATION (  '', ( #212 ), #118 ) ;
#93 = LINE ( 'NONE', #64, #126 ) ;
#94 = SURFACE_STYLE_USAGE ( .BOTH. , #150 ) ;
#95 = CARTESIAN_POINT ( 'NONE',  ( 0.0000000000000000000, 0.0000000000000000000, 0.0000000000000000000 ) ) ;
#96 = PRODUCT_CONTEXT ( 'NONE', #117, 'mechanical' ) ;
#97 = PRODUCT_DEFINITION_FORMATION_WITH_SPECIFIED_SOURCE ( 'ANY', '', #81, .NOT_KNOWN. ) ;
#98 = ORIENTED_EDGE ( 'NONE', *, *, #89, .T. ) ;
#99 = EDGE_CURVE ( 'NONE', #185, #137, #54, .T. ) ;
#100 = ORIENTED_EDGE ( 'NONE', *, *, #120, .F. ) ;
#101 = AXIS2_PLACEMENT_3D ( 'NONE', #95, #175, #249 ) ;
#102 = ORIENTED_EDGE ( 'NONE', *, *, #99, .F. ) ;
#103 = ADVANCED_FACE ( 'NONE', ( #141 ), #90, .F. ) ;
#104 = ORIENTED_EDGE ( 'NONE', *, *, #164, .F. ) ;
#105 = LENGTH_MEASURE_WITH_UNIT ( LENGTH_MEASURE( 0.02539999999999999897 ), #47 );
#106 = DIRECTION ( 'NONE',  ( -0.0000000000000000000, -0.0000000000000000000, -1.000000000000000000 ) ) ;
#107 = LINE ( 'NONE', #65, #224 ) ;
#108 = CIRCLE ( 'NONE', #232, 0.003936999999999995191 ) ;
#109 = CARTESIAN_POINT ( 'NONE',  ( 0.0000000000000000000, 0.0000000000000000000, 1.496062999999999921 ) ) ;
#110 = SURFACE_STYLE_FILL_AREA ( #195 ) ;
#111 = AXIS2_PLACEMENT_3D ( 'NONE', #188, #129, #51 ) ;
#112 = ADVANCED_FACE ( 'NONE', ( #31 ), #37, .T. ) ;
#113 = ADVANCED_BREP_SHAPE_REPRESENTATION ( 'Micro_RSCM-030-2', ( #26, #101 ), #138 ) ;
#114 = CIRCLE ( 'NONE', #246, 0.05905500000000000332 ) ;
#115 = FACE_OUTER_BOUND ( 'NONE', #60, .T. ) ;
#116 = VERTEX_POINT ( 'NONE', #29 ) ;
#117 = APPLICATION_CONTEXT ( 'automotive_design' ) ;
#118 =( GEOMETRIC_REPRESENTATION_CONTEXT ( 3 ) GLOBAL_UNCERTAINTY_ASSIGNED_CONTEXT ( ( #42 ) ) GLOBAL_UNIT_ASSIGNED_CONTEXT ( ( #187, #128, #86 ) ) REPRESENTATION_CONTEXT ( 'NONE', 'WORKASPACE' ) );
#119 = CIRCLE ( 'NONE', #25, 0.003936999999999995191 ) ;
#120 = EDGE_CURVE ( 'NONE', #137, #185, #191, .T. ) ;
#121 = DIRECTION ( 'NONE',  ( 0.0000000000000000000, 0.0000000000000000000, -1.000000000000000000 ) ) ;
#122 = ORIENTED_EDGE ( 'NONE', *, *, #164, .T. ) ;
#123 = CARTESIAN_POINT ( 'NONE',  ( -0.003936999999999995191, -3.857147558594502633E-18, 1.496062999999999921 ) ) ;
#124 = AXIS2_PLACEMENT_3D ( 'NONE', #7, #121, #157 ) ;
#125 = LINE ( 'NONE', #87, #30 ) ;
#126 = VECTOR ( 'NONE', #222, 39.37007874015748854 ) ;
#127 = PRESENTATION_STYLE_ASSIGNMENT (( #142 ) ) ;
#128 =( NAMED_UNIT ( * ) PLANE_ANGLE_UNIT ( ) SI_UNIT ( $, .RADIAN. ) );
#129 = DIRECTION ( 'NONE',  ( 0.0000000000000000000, 0.0000000000000000000, -1.000000000000000000 ) ) ;
#130 = CARTESIAN_POINT ( 'NONE',  ( -0.003936999999999995191, -4.821434448243123477E-19, 1.496062999999999921 ) ) ;
#131 = AXIS2_PLACEMENT_3D ( 'NONE', #206, #190, #146 ) ;
#132 =( LENGTH_UNIT ( ) NAMED_UNIT ( * ) SI_UNIT ( $, .METRE. ) );
#133 =( NAMED_UNIT ( * ) SI_UNIT ( $, .STERADIAN. ) SOLID_ANGLE_UNIT ( ) );
#134 = ORIENTED_EDGE ( 'NONE', *, *, #99, .T. ) ;
#135 = ORIENTED_EDGE ( 'NONE', *, *, #34, .F. ) ;
#136 = DIRECTION ( 'NONE',  ( -1.000000000000000000, 0.0000000000000000000, 0.0000000000000000000 ) ) ;
#137 = VERTEX_POINT ( 'NONE', #239 ) ;
#138 =( GEOMETRIC_REPRESENTATION_CONTEXT ( 3 ) GLOBAL_UNCERTAINTY_ASSIGNED_CONTEXT ( ( #78 ) ) GLOBAL_UNIT_ASSIGNED_CONTEXT ( ( #70, #247, #38 ) ) REPRESENTATION_CONTEXT ( 'NONE', 'WORKASPACE' ) );
#139 = ORIENTED_EDGE ( 'NONE', *, *, #209, .T. ) ;
#140 = DIRECTION ( 'NONE',  ( -1.000000000000000000, 0.0000000000000000000, 0.0000000000000000000 ) ) ;
#141 = FACE_OUTER_BOUND ( 'NONE', #205, .T. ) ;
#142 = SURFACE_STYLE_USAGE ( .BOTH. , #223 ) ;
#143 = DIRECTION ( 'NONE',  ( 1.000000000000000000, 0.0000000000000000000, -0.0000000000000000000 ) ) ;
#144 = CARTESIAN_POINT ( 'NONE',  ( 0.0000000000000000000, 0.0000000000000000000, 1.496062999999999921 ) ) ;
#145 = EDGE_CURVE ( 'NONE', #203, #116, #107, .T. ) ;
#146 = DIRECTION ( 'NONE',  ( -1.000000000000000000, 0.0000000000000000000, 0.0000000000000000000 ) ) ;
#147 = CYLINDRICAL_SURFACE ( 'NONE', #72, 0.05905500000000000332 ) ;
#148 = FILL_AREA_STYLE_COLOUR ( '', #154 ) ;
#149 = PRESENTATION_STYLE_ASSIGNMENT (( #94 ) ) ;
#150 = SURFACE_SIDE_STYLE ('',( #110 ) ) ;
#151 = AXIS2_PLACEMENT_3D ( 'NONE', #71, #189, #88 ) ;
#152 = STYLED_ITEM ( 'NONE', ( #149 ), #113 ) ;
#153 = EDGE_LOOP ( 'NONE', ( #139, #3, #100, #22 ) ) ;
#154 = COLOUR_RGB ( '',0.7921568627450980005, 0.8196078431372548767, 0.9333333333333333481 ) ;
#155 = ORIENTED_EDGE ( 'NONE', *, *, #145, .T. ) ;
#156 = ADVANCED_FACE ( 'NONE', ( #220 ), #169, .T. ) ;
#157 = DIRECTION ( 'NONE',  ( 1.000000000000000000, 0.0000000000000000000, 0.0000000000000000000 ) ) ;
#158 = ORIENTED_EDGE ( 'NONE', *, *, #209, .F. ) ;
#159 = AXIS2_PLACEMENT_3D ( 'NONE', #199, #172, #208 ) ;
#160 = AXIS2_PLACEMENT_3D ( 'NONE', #144, #245, #16 ) ;
#161 = CARTESIAN_POINT ( 'NONE',  ( 0.003936999999999995191, 0.0000000000000000000, 1.496062999999999921 ) ) ;
#162 = EDGE_LOOP ( 'NONE', ( #183, #21, #28, #104 ) ) ;
#163 = FACE_OUTER_BOUND ( 'NONE', #153, .T. ) ;
#164 = EDGE_CURVE ( 'NONE', #116, #217, #114, .T. ) ;
#165 = FILL_AREA_STYLE ('',( #148 ) ) ;
#166 = CARTESIAN_POINT ( 'NONE',  ( 0.0000000000000000000, 0.0000000000000000000, 0.0000000000000000000 ) ) ;
#167 = LINE ( 'NONE', #240, #73 ) ;
#168 = PRESENTATION_LAYER_ASSIGNMENT (  '', '', ( #212 ) ) ;
#169 = PLANE ( 'NONE',  #242 ) ;
#170 = ADVANCED_FACE ( 'NONE', ( #163 ), #218, .T. ) ;
#171 = DIRECTION ( 'NONE',  ( 0.5000000000000013323, 0.0000000000000000000, 0.8660254037844377084 ) ) ;
#172 = DIRECTION ( 'NONE',  ( 0.0000000000000000000, 0.0000000000000000000, 1.000000000000000000 ) ) ;
#173 = PRESENTATION_LAYER_ASSIGNMENT (  '', '', ( #152 ) ) ;
#174 =( CONVERSION_BASED_UNIT ( 'INCH', #41 ) LENGTH_UNIT ( ) NAMED_UNIT ( #5 ) );
#175 = DIRECTION ( 'NONE',  ( 0.0000000000000000000, 0.0000000000000000000, 1.000000000000000000 ) ) ;
#176 = APPLICATION_CONTEXT ( 'automotive_design' ) ;
#177 = PRODUCT_RELATED_PRODUCT_CATEGORY ( 'part', '', ( #81 ) ) ;
#178 = PRODUCT_DEFINITION_SHAPE ( 'NONE', 'NONE',  #17 ) ;
#179 = ORIENTED_EDGE ( 'NONE', *, *, #75, .F. ) ;
#180 = ORIENTED_EDGE ( 'NONE', *, *, #241, .F. ) ;
#181 = CIRCLE ( 'NONE', #160, 0.003936999999999995191 ) ;
#182 = EDGE_LOOP ( 'NONE', ( #158, #44 ) ) ;
#183 = ORIENTED_EDGE ( 'NONE', *, *, #40, .F. ) ;
#184 = DIRECTION ( 'NONE',  ( -0.0000000000000000000, -0.0000000000000000000, -1.000000000000000000 ) ) ;
#185 = VERTEX_POINT ( 'NONE', #33 ) ;
#186 = CARTESIAN_POINT ( 'NONE',  ( 0.0000000000000000000, 0.0000000000000000000, 1.400595823588418831 ) ) ;
#187 =( CONVERSION_BASED_UNIT ( 'INCH', #105 ) LENGTH_UNIT ( ) NAMED_UNIT ( #235 ) );
#188 = CARTESIAN_POINT ( 'NONE',  ( 0.0000000000000000000, 0.0000000000000000000, 1.496062999999999921 ) ) ;
#189 = DIRECTION ( 'NONE',  ( -0.0000000000000000000, -0.0000000000000000000, -1.000000000000000000 ) ) ;
#190 = DIRECTION ( 'NONE',  ( 0.0000000000000000000, 0.0000000000000000000, -1.000000000000000000 ) ) ;
#191 = CIRCLE ( 'NONE', #19, 0.05905500000000000332 ) ;
#192 = LINE ( 'NONE', #130, #83 ) ;
#193 = DIRECTION ( 'NONE',  ( -1.000000000000000000, 0.0000000000000000000, 0.0000000000000000000 ) ) ;
#194 = APPLICATION_PROTOCOL_DEFINITION ( 'draft international standard', 'automotive_design', 1998, #117 ) ;
#195 = FILL_AREA_STYLE ('',( #52 ) ) ;
#196 = CONICAL_SURFACE ( 'NONE', #124, 0.003936999999999995191, 0.5235987755983005920 ) ;
#197 = EDGE_CURVE ( 'NONE', #79, #185, #192, .T. ) ;
#198 = MECHANICAL_DESIGN_GEOMETRIC_PRESENTATION_REPRESENTATION (  '', ( #152 ), #36 ) ;
#199 = CARTESIAN_POINT ( 'NONE',  ( 0.0000000000000000000, 0.0000000000000000000, 0.0000000000000000000 ) ) ;
#200 = DIMENSIONAL_EXPONENTS ( 1.000000000000000000, 0.0000000000000000000, 0.0000000000000000000, 0.0000000000000000000, 0.0000000000000000000, 0.0000000000000000000, 0.0000000000000000000 ) ;
#201 = UNCERTAINTY_MEASURE_WITH_UNIT (LENGTH_MEASURE( 1.000000000000000082E-05 ), #174, 'distance_accuracy_value', 'NONE');
#202 = ORIENTED_EDGE ( 'NONE', *, *, #89, .F. ) ;
#203 = VERTEX_POINT ( 'NONE', #238 ) ;
#204 = LINE ( 'NONE', #80, #35 ) ;
#205 = EDGE_LOOP ( 'NONE', ( #59, #98 ) ) ;
#206 = CARTESIAN_POINT ( 'NONE',  ( 0.0000000000000000000, 0.0000000000000000000, 1.400595823588418831 ) ) ;
#207 = AXIS2_PLACEMENT_3D ( 'NONE', #91, #228, #193 ) ;
#208 = DIRECTION ( 'NONE',  ( 1.000000000000000000, 0.0000000000000000000, 0.0000000000000000000 ) ) ;
#209 = EDGE_CURVE ( 'NONE', #219, #79, #119, .T. ) ;
#210 = CARTESIAN_POINT ( 'NONE',  ( 0.0000000000000000000, 0.0000000000000000000, 0.0000000000000000000 ) ) ;
#211 = DIRECTION ( 'NONE',  ( 0.0000000000000000000, 0.0000000000000000000, -1.000000000000000000 ) ) ;
#212 = STYLED_ITEM ( 'NONE', ( #127 ), #26 ) ;
#213 = CONICAL_SURFACE ( 'NONE', #1, 0.003936999999999995191, 0.5235987755983005920 ) ;
#214 = AXIS2_PLACEMENT_3D ( 'NONE', #85, #227, #244 ) ;
#215 = EDGE_LOOP ( 'NONE', ( #4, #216, #45, #102 ) ) ;
#216 = ORIENTED_EDGE ( 'NONE', *, *, #57, .T. ) ;
#217 = VERTEX_POINT ( 'NONE', #82 ) ;
#218 = CONICAL_SURFACE ( 'NONE', #111, 0.003936999999999995191, 0.5235987755983005920 ) ;
#219 = VERTEX_POINT ( 'NONE', #161 ) ;
#220 = FACE_OUTER_BOUND ( 'NONE', #182, .T. ) ;
#221 = FACE_OUTER_BOUND ( 'NONE', #215, .T. ) ;
#222 = DIRECTION ( 'NONE',  ( -0.5000000000000013323, 6.123233995736782060E-17, 0.8660254037844377084 ) ) ;
#223 = SURFACE_SIDE_STYLE ('',( #11 ) ) ;
#224 = VECTOR ( 'NONE', #171, 39.37007874015748854 ) ;
#225 = DIRECTION ( 'NONE',  ( 0.5000000000000013323, 0.0000000000000000000, -0.8660254037844377084 ) ) ;
#226 = DIRECTION ( 'NONE',  ( -0.0000000000000000000, -0.0000000000000000000, -1.000000000000000000 ) ) ;
#227 = DIRECTION ( 'NONE',  ( 0.0000000000000000000, 0.0000000000000000000, 1.000000000000000000 ) ) ;
#228 = DIRECTION ( 'NONE',  ( -0.0000000000000000000, -0.0000000000000000000, -1.000000000000000000 ) ) ;
#229 = CARTESIAN_POINT ( 'NONE',  ( 0.0000000000000000000, 0.0000000000000000000, 1.496062999999999921 ) ) ;
#230 = LENGTH_MEASURE_WITH_UNIT ( LENGTH_MEASURE( 0.02539999999999999897 ), #132 );
#231 = APPLICATION_PROTOCOL_DEFINITION ( 'draft international standard', 'automotive_design', 1998, #176 ) ;
#232 = AXIS2_PLACEMENT_3D ( 'NONE', #166, #106, #68 ) ;
#233 = VERTEX_POINT ( 'NONE', #61 ) ;
#234 = ORIENTED_EDGE ( 'NONE', *, *, #75, .T. ) ;
#235 = DIMENSIONAL_EXPONENTS ( 1.000000000000000000, 0.0000000000000000000, 0.0000000000000000000, 0.0000000000000000000, 0.0000000000000000000, 0.0000000000000000000, 0.0000000000000000000 ) ;
#236 = DIRECTION ( 'NONE',  ( -0.0000000000000000000, -0.0000000000000000000, -1.000000000000000000 ) ) ;
#237 = ORIENTED_EDGE ( 'NONE', *, *, #145, .F. ) ;
#238 = CARTESIAN_POINT ( 'NONE',  ( 0.003936999999999995191, 0.0000000000000000000, 0.0000000000000000000 ) ) ;
#239 = CARTESIAN_POINT ( 'NONE',  ( 0.05905500000000000332, 7.232151672364695422E-18, 1.400595823588418831 ) ) ;
#240 = CARTESIAN_POINT ( 'NONE',  ( 0.05905500000000000332, 7.232151672364695422E-18, 1.496062999999999921 ) ) ;
#241 = EDGE_CURVE ( 'NONE', #233, #217, #93, .T. ) ;
#242 = AXIS2_PLACEMENT_3D ( 'NONE', #229, #243, #143 ) ;
#243 = DIRECTION ( 'NONE',  ( 0.0000000000000000000, 0.0000000000000000000, 1.000000000000000000 ) ) ;
#244 = DIRECTION ( 'NONE',  ( 1.000000000000000000, 0.0000000000000000000, -0.0000000000000000000 ) ) ;
#245 = DIRECTION ( 'NONE',  ( 0.0000000000000000000, 0.0000000000000000000, -1.000000000000000000 ) ) ;
#246 = AXIS2_PLACEMENT_3D ( 'NONE', #67, #50, #8 ) ;
#247 =( NAMED_UNIT ( * ) PLANE_ANGLE_UNIT ( ) SI_UNIT ( $, .RADIAN. ) );
#248 = EDGE_CURVE ( 'NONE', #219, #137, #125, .T. ) ;
#249 = DIRECTION ( 'NONE',  ( 1.000000000000000000, 0.0000000000000000000, 0.0000000000000000000 ) ) ;
ENDSEC;
END-ISO-10303-21;
