ISO-10303-21;
HEADER;
FILE_DESCRIPTION (( 'STEP AP214' ),
    '1' );
FILE_NAME ('Micro_SBMM-060-448.STEP',
    '2021-09-02T17:15:33',
    ( '' ),
    ( '' ),
    'SwSTEP 2.0',
    'SolidWorks 2020',
    '' );
FILE_SCHEMA (( 'AUTOMOTIVE_DESIGN' ));
ENDSEC;

DATA;
#1 = VECTOR ( 'NONE', #97, 39.37007874015748143 ) ;
#2 = AXIS2_PLACEMENT_3D ( 'NONE', #133, #190, #239 ) ;
#3 = ADVANCED_FACE ( 'NONE', ( #50 ), #257, .T. ) ;
#4 = CARTESIAN_POINT ( 'NONE',  ( 0.0000000000000000000, 0.0000000000000000000, 0.1181100000000000066 ) ) ;
#5 = CIRCLE ( 'NONE', #207, 0.1181100000000000344 ) ;
#6 = FACE_OUTER_BOUND ( 'NONE', #144, .T. ) ;
#7 = APPLICATION_PROTOCOL_DEFINITION ( 'draft international standard', 'automotive_design', 1998, #54 ) ;
#8 = VERTEX_POINT ( 'NONE', #153 ) ;
#9 = FILL_AREA_STYLE_COLOUR ( '', #89 ) ;
#10 = ORIENTED_EDGE ( 'NONE', *, *, #66, .T. ) ;
#11 = ADVANCED_FACE ( 'NONE', ( #102 ), #275, .T. ) ;
#12 = SURFACE_SIDE_STYLE ('',( #68 ) ) ;
#13 = EDGE_LOOP ( 'NONE', ( #200, #24, #247, #168 ) ) ;
#14 = AXIS2_PLACEMENT_3D ( 'NONE', #259, #198, #75 ) ;
#15 = COLOUR_RGB ( '',0.7921568627450980005, 0.8196078431372548767, 0.9333333333333333481 ) ;
#16 = DIRECTION ( 'NONE',  ( 0.0000000000000000000, 0.0000000000000000000, 1.000000000000000000 ) ) ;
#17 = EDGE_LOOP ( 'NONE', ( #273, #69, #197, #196 ) ) ;
#18 = ADVANCED_FACE ( 'NONE', ( #125 ), #122, .T. ) ;
#19 = ORIENTED_EDGE ( 'NONE', *, *, #184, .F. ) ;
#20 = CYLINDRICAL_SURFACE ( 'NONE', #291, 0.07873999999999992117 ) ;
#21 = CIRCLE ( 'NONE', #32, 0.1031100000000005484 ) ;
#22 = AXIS2_PLACEMENT_3D ( 'NONE', #232, #282, #340 ) ;
#23 = CARTESIAN_POINT ( 'NONE',  ( 0.07873999999999985178, 0.0000000000000000000, 1.259842999999999824 ) ) ;
#24 = ORIENTED_EDGE ( 'NONE', *, *, #101, .T. ) ;
#25 = CARTESIAN_POINT ( 'NONE',  ( 0.1181100000000000344, 0.0000000000000000000, 1.732283000000000017 ) ) ;
#26 = DIRECTION ( 'NONE',  ( 0.0000000000000000000, 0.0000000000000000000, 1.000000000000000000 ) ) ;
#27 = CARTESIAN_POINT ( 'NONE',  ( -0.1181100000000000344, 0.0000000000000000000, 3.937007999999999619 ) ) ;
#28 = CARTESIAN_POINT ( 'NONE',  ( 0.0000000000000000000, 0.0000000000000000000, 0.1181100000000000066 ) ) ;
#29 = LENGTH_MEASURE_WITH_UNIT ( LENGTH_MEASURE( 0.02539999999999999897 ), #111 );
#30 = CARTESIAN_POINT ( 'NONE',  ( -0.07873999999999996280, 0.0000000000000000000, 0.2061439962741667686 ) ) ;
#31 = DIRECTION ( 'NONE',  ( 1.000000000000000000, 0.0000000000000000000, 0.0000000000000000000 ) ) ;
#32 = AXIS2_PLACEMENT_3D ( 'NONE', #128, #306, #313 ) ;
#33 = CARTESIAN_POINT ( 'NONE',  ( 0.0000000000000000000, 0.0000000000000000000, 1.732283000000000017 ) ) ;
#34 = EDGE_CURVE ( 'NONE', #147, #87, #316, .T. ) ;
#35 = DIRECTION ( 'NONE',  ( 0.0000000000000000000, 0.0000000000000000000, 1.000000000000000000 ) ) ;
#36 = DIRECTION ( 'NONE',  ( 0.0000000000000000000, 0.0000000000000000000, 1.000000000000000000 ) ) ;
#37 = VECTOR ( 'NONE', #56, 39.37007874015748854 ) ;
#38 = DIRECTION ( 'NONE',  ( 1.000000000000000000, 0.0000000000000000000, 0.0000000000000000000 ) ) ;
#39 = ORIENTED_EDGE ( 'NONE', *, *, #135, .F. ) ;
#40 = ORIENTED_EDGE ( 'NONE', *, *, #81, .T. ) ;
#41 = VERTEX_POINT ( 'NONE', #177 ) ;
#42 = EDGE_CURVE ( 'NONE', #91, #329, #21, .T. ) ;
#43 = ORIENTED_EDGE ( 'NONE', *, *, #327, .T. ) ;
#44 = DIRECTION ( 'NONE',  ( -0.0000000000000000000, -0.0000000000000000000, -1.000000000000000000 ) ) ;
#45 = DIRECTION ( 'NONE',  ( -0.08304547985374033381, 1.017013810865391032E-17, 0.9965457582448795648 ) ) ;
#46 = FACE_OUTER_BOUND ( 'NONE', #221, .T. ) ;
#47 = ORIENTED_EDGE ( 'NONE', *, *, #204, .T. ) ;
#48 = CARTESIAN_POINT ( 'NONE',  ( 0.0000000000000000000, 0.0000000000000000000, 3.937007999999999619 ) ) ;
#49 = CARTESIAN_POINT ( 'NONE',  ( 0.0000000000000000000, 0.0000000000000000000, 3.937007999999999619 ) ) ;
#50 = FACE_OUTER_BOUND ( 'NONE', #99, .T. ) ;
#51 = ADVANCED_FACE ( 'NONE', ( #72 ), #20, .T. ) ;
#52 = AXIS2_PLACEMENT_3D ( 'NONE', #129, #130, #109 ) ;
#53 = CARTESIAN_POINT ( 'NONE',  ( 0.1299209999999997589, 0.0000000000000000000, 1.874014999999996212 ) ) ;
#54 = APPLICATION_CONTEXT ( 'automotive_design' ) ;
#55 = LINE ( 'NONE', #158, #303 ) ;
#56 = DIRECTION ( 'NONE',  ( 0.08304547985374033381, 0.0000000000000000000, 0.9965457582448795648 ) ) ;
#57 = PRODUCT_DEFINITION_FORMATION_WITH_SPECIFIED_SOURCE ( 'ANY', '', #182, .NOT_KNOWN. ) ;
#58 = EDGE_CURVE ( 'NONE', #119, #300, #152, .T. ) ;
#59 =( NAMED_UNIT ( * ) SI_UNIT ( $, .STERADIAN. ) SOLID_ANGLE_UNIT ( ) );
#60 = DIRECTION ( 'NONE',  ( 1.000000000000000000, 0.0000000000000000000, 0.0000000000000000000 ) ) ;
#61 = CARTESIAN_POINT ( 'NONE',  ( 0.0000000000000000000, 0.0000000000000000000, 0.0000000000000000000 ) ) ;
#62 = ORIENTED_EDGE ( 'NONE', *, *, #229, .F. ) ;
#63 = CIRCLE ( 'NONE', #302, 0.07873999999999996280 ) ;
#64 =( GEOMETRIC_REPRESENTATION_CONTEXT ( 3 ) GLOBAL_UNCERTAINTY_ASSIGNED_CONTEXT ( ( #139 ) ) GLOBAL_UNIT_ASSIGNED_CONTEXT ( ( #206, #345, #59 ) ) REPRESENTATION_CONTEXT ( 'NONE', 'WORKASPACE' ) );
#65 = ORIENTED_EDGE ( 'NONE', *, *, #204, .F. ) ;
#66 = EDGE_CURVE ( 'NONE', #336, #301, #63, .T. ) ;
#67 = UNCERTAINTY_MEASURE_WITH_UNIT (LENGTH_MEASURE( 1.000000000000000082E-05 ), #324, 'distance_accuracy_value', 'NONE');
#68 = SURFACE_STYLE_FILL_AREA ( #143 ) ;
#69 = ORIENTED_EDGE ( 'NONE', *, *, #333, .T. ) ;
#70 = CONICAL_SURFACE ( 'NONE', #22, 0.1299209999999997589, 0.08314123188844159407 ) ;
#71 = ORIENTED_EDGE ( 'NONE', *, *, #229, .T. ) ;
#72 = FACE_OUTER_BOUND ( 'NONE', #141, .T. ) ;
#73 = CARTESIAN_POINT ( 'NONE',  ( 0.1181100000000000344, 1.446430334472939084E-17, 3.937007999999999619 ) ) ;
#74 = CIRCLE ( 'NONE', #170, 0.07873999999999996280 ) ;
#75 = DIRECTION ( 'NONE',  ( -1.000000000000000000, 0.0000000000000000000, 0.0000000000000000000 ) ) ;
#76 = DIRECTION ( 'NONE',  ( -1.000000000000000000, 0.0000000000000000000, 0.0000000000000000000 ) ) ;
#77 = CARTESIAN_POINT ( 'NONE',  ( -0.1299209999999997589, 1.591073367920229727E-17, 1.874014999999996212 ) ) ;
#78 = VECTOR ( 'NONE', #157, 39.37007874015748143 ) ;
#79 = CARTESIAN_POINT ( 'NONE',  ( -0.1181100000000000344, 0.0000000000000000000, 3.922007999999999939 ) ) ;
#80 = DIRECTION ( 'NONE',  ( -0.0000000000000000000, -0.0000000000000000000, -1.000000000000000000 ) ) ;
#81 = EDGE_CURVE ( 'NONE', #246, #41, #253, .T. ) ;
#82 = PRESENTATION_STYLE_ASSIGNMENT (( #241 ) ) ;
#83 = DIRECTION ( 'NONE',  ( 0.0000000000000000000, 0.0000000000000000000, -1.000000000000000000 ) ) ;
#84 = AXIS2_PLACEMENT_3D ( 'NONE', #308, #233, #254 ) ;
#85 = CONICAL_SURFACE ( 'NONE', #317, 0.1031100000000005484, 0.7853981633974410625 ) ;
#86 = DIRECTION ( 'NONE',  ( -0.7071067811865422437, 0.0000000000000000000, -0.7071067811865526798 ) ) ;
#87 = VERTEX_POINT ( 'NONE', #23 ) ;
#88 = UNCERTAINTY_MEASURE_WITH_UNIT (LENGTH_MEASURE( 1.000000000000000082E-05 ), #237, 'distance_accuracy_value', 'NONE');
#89 = COLOUR_RGB ( '',0.7921568627450980005, 0.8196078431372548767, 0.9333333333333333481 ) ;
#90 = PRESENTATION_STYLE_ASSIGNMENT (( #328 ) ) ;
#91 = VERTEX_POINT ( 'NONE', #104 ) ;
#92 = EDGE_CURVE ( 'NONE', #147, #300, #314, .T. ) ;
#93 = AXIS2_PLACEMENT_3D ( 'NONE', #266, #189, #60 ) ;
#94 = ORIENTED_EDGE ( 'NONE', *, *, #81, .F. ) ;
#95 = DIRECTION ( 'NONE',  ( 0.0000000000000000000, 0.0000000000000000000, -1.000000000000000000 ) ) ;
#96 = EDGE_CURVE ( 'NONE', #8, #246, #219, .T. ) ;
#97 = DIRECTION ( 'NONE',  ( -0.0000000000000000000, -0.0000000000000000000, -1.000000000000000000 ) ) ;
#98 = CARTESIAN_POINT ( 'NONE',  ( 0.0000000000000000000, 0.07873999999999996280, 0.2061439962741667686 ) ) ;
#99 = EDGE_LOOP ( 'NONE', ( #172, #171 ) ) ;
#100 = AXIS2_PLACEMENT_3D ( 'NONE', #49, #26, #281 ) ;
#101 = EDGE_CURVE ( 'NONE', #225, #304, #338, .T. ) ;
#102 = FACE_OUTER_BOUND ( 'NONE', #13, .T. ) ;
#103 = ADVANCED_FACE ( 'NONE', ( #173 ), #85, .T. ) ;
#104 = CARTESIAN_POINT ( 'NONE',  ( -0.1031100000000005484, 0.0000000000000000000, 3.937007999999999619 ) ) ;
#105 = DIRECTION ( 'NONE',  ( -1.000000000000000000, 0.0000000000000000000, 0.0000000000000000000 ) ) ;
#106 = CARTESIAN_POINT ( 'NONE',  ( 0.1031100000000005484, 1.354581824536890879E-17, 3.937007999999999619 ) ) ;
#107 = AXIS2_PLACEMENT_3D ( 'NONE', #215, #36, #293 ) ;
#108 = CARTESIAN_POINT ( 'NONE',  ( -0.07873999999999992117, 0.0000000000000000000, 0.0000000000000000000 ) ) ;
#109 = DIRECTION ( 'NONE',  ( -1.000000000000000000, 0.0000000000000000000, 0.0000000000000000000 ) ) ;
#110 = DIRECTION ( 'NONE',  ( 1.000000000000000000, 0.0000000000000000000, 0.0000000000000000000 ) ) ;
#111 =( LENGTH_UNIT ( ) NAMED_UNIT ( * ) SI_UNIT ( $, .METRE. ) );
#112 = MECHANICAL_DESIGN_GEOMETRIC_PRESENTATION_REPRESENTATION (  '', ( #335 ), #312 ) ;
#113 = DIRECTION ( 'NONE',  ( -1.000000000000000000, 0.0000000000000000000, 0.0000000000000000000 ) ) ;
#114 = ADVANCED_BREP_SHAPE_REPRESENTATION ( 'Micro_SBMM-060-448', ( #123, #160 ), #132 ) ;
#115 = CYLINDRICAL_SURFACE ( 'NONE', #214, 0.1181100000000000344 ) ;
#116 = ORIENTED_EDGE ( 'NONE', *, *, #120, .F. ) ;
#117 = EDGE_LOOP ( 'NONE', ( #218, #71, #278, #116 ) ) ;
#118 = EDGE_LOOP ( 'NONE', ( #43, #268, #40, #65 ) ) ;
#119 = VERTEX_POINT ( 'NONE', #79 ) ;
#120 = EDGE_CURVE ( 'NONE', #91, #119, #286, .T. ) ;
#121 = DIRECTION ( 'NONE',  ( -0.0000000000000000000, -0.0000000000000000000, -1.000000000000000000 ) ) ;
#122 = CONICAL_SURFACE ( 'NONE', #84, 0.1031100000000005484, 0.7853981633974410625 ) ;
#123 = MANIFOLD_SOLID_BREP ( 'Cut-Revolve3', #263 ) ;
#124 = CARTESIAN_POINT ( 'NONE',  ( 0.0000000000000000000, 0.0000000000000000000, 0.1181100000000000066 ) ) ;
#125 = FACE_OUTER_BOUND ( 'NONE', #117, .T. ) ;
#126 = CARTESIAN_POINT ( 'NONE',  ( 0.0000000000000000000, 0.0000000000000000000, 3.937007999999999619 ) ) ;
#127 = CIRCLE ( 'NONE', #267, 0.1181099999999999789 ) ;
#128 = CARTESIAN_POINT ( 'NONE',  ( 0.0000000000000000000, 0.0000000000000000000, 3.937007999999999619 ) ) ;
#129 = CARTESIAN_POINT ( 'NONE',  ( 0.0000000000000000000, 0.0000000000000000000, 1.259842999999999824 ) ) ;
#130 = DIRECTION ( 'NONE',  ( -0.0000000000000000000, -0.0000000000000000000, -1.000000000000000000 ) ) ;
#131 = LENGTH_MEASURE_WITH_UNIT ( LENGTH_MEASURE( 0.02539999999999999897 ), #210 );
#132 =( GEOMETRIC_REPRESENTATION_CONTEXT ( 3 ) GLOBAL_UNCERTAINTY_ASSIGNED_CONTEXT ( ( #88 ) ) GLOBAL_UNIT_ASSIGNED_CONTEXT ( ( #237, #290, #216 ) ) REPRESENTATION_CONTEXT ( 'NONE', 'WORKASPACE' ) );
#133 = CARTESIAN_POINT ( 'NONE',  ( 0.0000000000000000000, 0.0000000000000000000, 0.2061439962741667686 ) ) ;
#134 = CARTESIAN_POINT ( 'NONE',  ( 0.07873999999999992117, 9.642868896486249264E-18, 0.0000000000000000000 ) ) ;
#135 = EDGE_CURVE ( 'NONE', #304, #300, #5, .T. ) ;
#136 = SURFACE_STYLE_FILL_AREA ( #186 ) ;
#137 = FACE_OUTER_BOUND ( 'NONE', #17, .T. ) ;
#138 = ORIENTED_EDGE ( 'NONE', *, *, #288, .F. ) ;
#139 = UNCERTAINTY_MEASURE_WITH_UNIT (LENGTH_MEASURE( 1.000000000000000082E-05 ), #206, 'distance_accuracy_value', 'NONE');
#140 = ORIENTED_EDGE ( 'NONE', *, *, #327, .F. ) ;
#141 = EDGE_LOOP ( 'NONE', ( #271, #274, #167, #191, #151 ) ) ;
#142 = EDGE_CURVE ( 'NONE', #87, #304, #292, .T. ) ;
#143 = FILL_AREA_STYLE ('',( #9 ) ) ;
#144 = EDGE_LOOP ( 'NONE', ( #194, #148, #39, #269 ) ) ;
#145 = CIRCLE ( 'NONE', #107, 0.1031100000000005484 ) ;
#146 = EDGE_LOOP ( 'NONE', ( #62, #165, #169, #311 ) ) ;
#147 = VERTEX_POINT ( 'NONE', #287 ) ;
#148 = ORIENTED_EDGE ( 'NONE', *, *, #92, .T. ) ;
#149 = VECTOR ( 'NONE', #45, 39.37007874015748854 ) ;
#150 = AXIS2_PLACEMENT_3D ( 'NONE', #208, #44, #276 ) ;
#151 = ORIENTED_EDGE ( 'NONE', *, *, #96, .F. ) ;
#152 = LINE ( 'NONE', #27, #341 ) ;
#153 = CARTESIAN_POINT ( 'NONE',  ( 0.07873999999999996280, 9.642868896486255427E-18, 0.2061439962741667686 ) ) ;
#154 = MECHANICAL_DESIGN_GEOMETRIC_PRESENTATION_REPRESENTATION (  '', ( #179 ), #64 ) ;
#155 = DIRECTION ( 'NONE',  ( 0.0000000000000000000, 0.0000000000000000000, 1.000000000000000000 ) ) ;
#156 = CYLINDRICAL_SURFACE ( 'NONE', #150, 0.07873999999999992117 ) ;
#157 = DIRECTION ( 'NONE',  ( -0.0000000000000000000, -0.0000000000000000000, -1.000000000000000000 ) ) ;
#158 = CARTESIAN_POINT ( 'NONE',  ( 0.1031100000000005484, 1.262733314600842673E-17, 3.937007999999999619 ) ) ;
#159 = AXIS2_PLACEMENT_3D ( 'NONE', #126, #203, #199 ) ;
#160 = AXIS2_PLACEMENT_3D ( 'NONE', #61, #16, #38 ) ;
#161 = CARTESIAN_POINT ( 'NONE',  ( 0.0000000000000000000, 0.0000000000000000000, 0.1181100000000000066 ) ) ;
#162 = CARTESIAN_POINT ( 'NONE',  ( 0.0000000000000000000, 0.0000000000000000000, 1.732283000000000017 ) ) ;
#163 = CARTESIAN_POINT ( 'NONE',  ( 9.642868896486255427E-18, -0.07873999999999996280, 0.2061439962741667686 ) ) ;
#164 = AXIS2_PLACEMENT_3D ( 'NONE', #201, #95, #330 ) ;
#165 = ORIENTED_EDGE ( 'NONE', *, *, #42, .F. ) ;
#166 = PRODUCT_RELATED_PRODUCT_CATEGORY ( 'part', '', ( #182 ) ) ;
#167 = ORIENTED_EDGE ( 'NONE', *, *, #288, .T. ) ;
#168 = ORIENTED_EDGE ( 'NONE', *, *, #58, .F. ) ;
#169 = ORIENTED_EDGE ( 'NONE', *, *, #120, .T. ) ;
#170 = AXIS2_PLACEMENT_3D ( 'NONE', #318, #80, #183 ) ;
#171 = ORIENTED_EDGE ( 'NONE', *, *, #258, .T. ) ;
#172 = ORIENTED_EDGE ( 'NONE', *, *, #42, .T. ) ;
#173 = FACE_OUTER_BOUND ( 'NONE', #146, .T. ) ;
#174 = VECTOR ( 'NONE', #86, 39.37007874015748854 ) ;
#175 = DIRECTION ( 'NONE',  ( -1.000000000000000000, 0.0000000000000000000, 0.0000000000000000000 ) ) ;
#176 = DIRECTION ( 'NONE',  ( 1.000000000000000000, 1.224646799147353207E-16, -0.0000000000000000000 ) ) ;
#177 = CARTESIAN_POINT ( 'NONE',  ( 0.0000000000000000000, 7.232151672364693882E-18, 1.707404996040164512E-17 ) ) ;
#178 = ADVANCED_FACE ( 'NONE', ( #188 ), #240, .T. ) ;
#179 = STYLED_ITEM ( 'NONE', ( #82 ), #123 ) ;
#180 = DIRECTION ( 'NONE',  ( -0.0000000000000000000, -0.0000000000000000000, -1.000000000000000000 ) ) ;
#181 = SURFACE_SIDE_STYLE ('',( #136 ) ) ;
#182 = PRODUCT ( 'Micro_SBMM-060-448', 'Micro_SBMM-060-448', '', ( #193 ) ) ;
#183 = DIRECTION ( 'NONE',  ( -1.000000000000000000, 0.0000000000000000000, 0.0000000000000000000 ) ) ;
#184 = EDGE_CURVE ( 'NONE', #300, #304, #227, .T. ) ;
#185 = LINE ( 'NONE', #108, #242 ) ;
#186 = FILL_AREA_STYLE ('',( #235 ) ) ;
#187 = AXIS2_PLACEMENT_3D ( 'NONE', #161, #322, #265 ) ;
#188 = FACE_OUTER_BOUND ( 'NONE', #331, .T. ) ;
#189 = DIRECTION ( 'NONE',  ( 0.0000000000000000000, 0.0000000000000000000, 1.000000000000000000 ) ) ;
#190 = DIRECTION ( 'NONE',  ( -0.0000000000000000000, -0.0000000000000000000, -1.000000000000000000 ) ) ;
#191 = ORIENTED_EDGE ( 'NONE', *, *, #222, .F. ) ;
#192 = CIRCLE ( 'NONE', #164, 0.1181100000000000344 ) ;
#193 = PRODUCT_CONTEXT ( 'NONE', #332, 'mechanical' ) ;
#194 = ORIENTED_EDGE ( 'NONE', *, *, #34, .F. ) ;
#195 = EDGE_CURVE ( 'NONE', #87, #8, #236, .T. ) ;
#196 = ORIENTED_EDGE ( 'NONE', *, *, #184, .T. ) ;
#197 = ORIENTED_EDGE ( 'NONE', *, *, #58, .T. ) ;
#198 = DIRECTION ( 'NONE',  ( -0.0000000000000000000, -0.0000000000000000000, -1.000000000000000000 ) ) ;
#199 = DIRECTION ( 'NONE',  ( -1.000000000000000000, 0.0000000000000000000, 0.0000000000000000000 ) ) ;
#200 = ORIENTED_EDGE ( 'NONE', *, *, #309, .T. ) ;
#201 = CARTESIAN_POINT ( 'NONE',  ( 0.0000000000000000000, 0.0000000000000000000, 3.922007999999999939 ) ) ;
#202 = ADVANCED_FACE ( 'NONE', ( #260 ), #261, .T. ) ;
#203 = DIRECTION ( 'NONE',  ( -0.0000000000000000000, -0.0000000000000000000, -1.000000000000000000 ) ) ;
#204 = EDGE_CURVE ( 'NONE', #301, #41, #127, .T. ) ;
#205 = DIRECTION ( 'NONE',  ( -0.0000000000000000000, -0.0000000000000000000, -1.000000000000000000 ) ) ;
#206 =( CONVERSION_BASED_UNIT ( 'INCH', #29 ) LENGTH_UNIT ( ) NAMED_UNIT ( #280 ) );
#207 = AXIS2_PLACEMENT_3D ( 'NONE', #162, #315, #320 ) ;
#208 = CARTESIAN_POINT ( 'NONE',  ( 0.0000000000000000000, 0.0000000000000000000, 0.0000000000000000000 ) ) ;
#209 = DIRECTION ( 'NONE',  ( -1.000000000000000000, 0.0000000000000000000, 0.0000000000000000000 ) ) ;
#210 =( LENGTH_UNIT ( ) NAMED_UNIT ( * ) SI_UNIT ( $, .METRE. ) );
#211 = PRODUCT_DEFINITION_SHAPE ( 'NONE', 'NONE',  #325 ) ;
#212 = CARTESIAN_POINT ( 'NONE',  ( -0.1031100000000005484, 0.0000000000000000000, 3.937007999999999619 ) ) ;
#213 = EDGE_CURVE ( 'NONE', #87, #147, #321, .T. ) ;
#214 = AXIS2_PLACEMENT_3D ( 'NONE', #323, #285, #113 ) ;
#215 = CARTESIAN_POINT ( 'NONE',  ( 0.0000000000000000000, 0.0000000000000000000, 3.937007999999999619 ) ) ;
#216 =( NAMED_UNIT ( * ) SI_UNIT ( $, .STERADIAN. ) SOLID_ANGLE_UNIT ( ) );
#217 = LENGTH_MEASURE_WITH_UNIT ( LENGTH_MEASURE( 0.02539999999999999897 ), #277 );
#218 = ORIENTED_EDGE ( 'NONE', *, *, #258, .F. ) ;
#219 = CIRCLE ( 'NONE', #310, 0.07873999999999996280 ) ;
#220 = CIRCLE ( 'NONE', #279, 0.1181100000000000344 ) ;
#221 = EDGE_LOOP ( 'NONE', ( #298, #224, #294, #19 ) ) ;
#222 = EDGE_CURVE ( 'NONE', #246, #336, #74, .T. ) ;
#223 =( NAMED_UNIT ( * ) SI_UNIT ( $, .STERADIAN. ) SOLID_ANGLE_UNIT ( ) );
#224 = ORIENTED_EDGE ( 'NONE', *, *, #213, .F. ) ;
#225 = VERTEX_POINT ( 'NONE', #289 ) ;
#226 = DIRECTION ( 'NONE',  ( -0.0000000000000000000, -0.0000000000000000000, -1.000000000000000000 ) ) ;
#227 = CIRCLE ( 'NONE', #248, 0.1181100000000000344 ) ;
#228 = DIRECTION ( 'NONE',  ( -1.000000000000000000, 0.0000000000000000000, 0.0000000000000000000 ) ) ;
#229 = EDGE_CURVE ( 'NONE', #329, #225, #55, .T. ) ;
#230 = DIMENSIONAL_EXPONENTS ( 1.000000000000000000, 0.0000000000000000000, 0.0000000000000000000, 0.0000000000000000000, 0.0000000000000000000, 0.0000000000000000000, 0.0000000000000000000 ) ;
#231 = CARTESIAN_POINT ( 'NONE',  ( 0.0000000000000000000, 0.0000000000000000000, 0.0000000000000000000 ) ) ;
#232 = CARTESIAN_POINT ( 'NONE',  ( 0.0000000000000000000, 0.0000000000000000000, 1.874014999999996212 ) ) ;
#233 = DIRECTION ( 'NONE',  ( 0.0000000000000000000, 0.0000000000000000000, -1.000000000000000000 ) ) ;
#234 = ORIENTED_EDGE ( 'NONE', *, *, #222, .T. ) ;
#235 = FILL_AREA_STYLE_COLOUR ( '', #15 ) ;
#236 = LINE ( 'NONE', #134, #78 ) ;
#237 =( CONVERSION_BASED_UNIT ( 'INCH', #131 ) LENGTH_UNIT ( ) NAMED_UNIT ( #344 ) );
#238 = CONICAL_SURFACE ( 'NONE', #93, 0.1299209999999997589, 0.08314123188844159407 ) ;
#239 = DIRECTION ( 'NONE',  ( -1.000000000000000000, 0.0000000000000000000, 0.0000000000000000000 ) ) ;
#240 = SPHERICAL_SURFACE ( 'NONE', #187, 0.1181099999999999928 ) ;
#241 = SURFACE_STYLE_USAGE ( .BOTH. , #181 ) ;
#242 = VECTOR ( 'NONE', #180, 39.37007874015748143 ) ;
#243 = ADVANCED_FACE ( 'NONE', ( #6 ), #238, .T. ) ;
#244 = DIRECTION ( 'NONE',  ( 0.7071067811865422437, 8.659560562354868763E-17, -0.7071067811865526798 ) ) ;
#245 = PRODUCT_DEFINITION_CONTEXT ( 'detailed design', #54, 'design' ) ;
#246 = VERTEX_POINT ( 'NONE', #163 ) ;
#247 = ORIENTED_EDGE ( 'NONE', *, *, #135, .T. ) ;
#248 = AXIS2_PLACEMENT_3D ( 'NONE', #33, #155, #31 ) ;
#249 = APPLICATION_PROTOCOL_DEFINITION ( 'draft international standard', 'automotive_design', 1998, #332 ) ;
#250 = EDGE_LOOP ( 'NONE', ( #334, #251, #140, #339, #138 ) ) ;
#251 = ORIENTED_EDGE ( 'NONE', *, *, #195, .T. ) ;
#252 = CARTESIAN_POINT ( 'NONE',  ( 0.0000000000000000000, 0.0000000000000000000, 0.2061439962741667686 ) ) ;
#253 = CIRCLE ( 'NONE', #295, 0.1181099999999999928 ) ;
#254 = DIRECTION ( 'NONE',  ( -1.000000000000000000, 0.0000000000000000000, 0.0000000000000000000 ) ) ;
#255 = AXIS2_PLACEMENT_3D ( 'NONE', #4, #110, #262 ) ;
#256 = DIRECTION ( 'NONE',  ( 0.0000000000000000000, 0.0000000000000000000, -1.000000000000000000 ) ) ;
#257 = PLANE ( 'NONE',  #100 ) ;
#258 = EDGE_CURVE ( 'NONE', #329, #91, #145, .T. ) ;
#259 = CARTESIAN_POINT ( 'NONE',  ( 0.0000000000000000000, 0.0000000000000000000, 1.259842999999999824 ) ) ;
#260 = FACE_OUTER_BOUND ( 'NONE', #118, .T. ) ;
#261 = SPHERICAL_SURFACE ( 'NONE', #255, 0.1181099999999999928 ) ;
#262 = DIRECTION ( 'NONE',  ( 0.0000000000000000000, 1.000000000000000000, 0.0000000000000000000 ) ) ;
#263 = CLOSED_SHELL ( 'NONE', ( #18, #11, #299, #243, #202, #178, #305, #51, #283, #3, #103 ) ) ;
#264 = FACE_OUTER_BOUND ( 'NONE', #250, .T. ) ;
#265 = DIRECTION ( 'NONE',  ( 0.0000000000000000000, 1.000000000000000000, 0.0000000000000000000 ) ) ;
#266 = CARTESIAN_POINT ( 'NONE',  ( 0.0000000000000000000, 0.0000000000000000000, 1.874014999999996212 ) ) ;
#267 = AXIS2_PLACEMENT_3D ( 'NONE', #28, #209, #35 ) ;
#268 = ORIENTED_EDGE ( 'NONE', *, *, #96, .T. ) ;
#269 = ORIENTED_EDGE ( 'NONE', *, *, #142, .F. ) ;
#270 = DIRECTION ( 'NONE',  ( 1.000000000000000000, 0.0000000000000000000, 0.0000000000000000000 ) ) ;
#271 = ORIENTED_EDGE ( 'NONE', *, *, #195, .F. ) ;
#272 = PRESENTATION_LAYER_ASSIGNMENT (  '', '', ( #179 ) ) ;
#273 = ORIENTED_EDGE ( 'NONE', *, *, #101, .F. ) ;
#274 = ORIENTED_EDGE ( 'NONE', *, *, #213, .T. ) ;
#275 = CYLINDRICAL_SURFACE ( 'NONE', #159, 0.1181100000000000344 ) ;
#276 = DIRECTION ( 'NONE',  ( -1.000000000000000000, 0.0000000000000000000, 0.0000000000000000000 ) ) ;
#277 =( LENGTH_UNIT ( ) NAMED_UNIT ( * ) SI_UNIT ( $, .METRE. ) );
#278 = ORIENTED_EDGE ( 'NONE', *, *, #309, .F. ) ;
#279 = AXIS2_PLACEMENT_3D ( 'NONE', #319, #83, #270 ) ;
#280 = DIMENSIONAL_EXPONENTS ( 1.000000000000000000, 0.0000000000000000000, 0.0000000000000000000, 0.0000000000000000000, 0.0000000000000000000, 0.0000000000000000000, 0.0000000000000000000 ) ;
#281 = DIRECTION ( 'NONE',  ( 1.000000000000000000, 0.0000000000000000000, -0.0000000000000000000 ) ) ;
#282 = DIRECTION ( 'NONE',  ( 0.0000000000000000000, 0.0000000000000000000, 1.000000000000000000 ) ) ;
#283 = ADVANCED_FACE ( 'NONE', ( #137 ), #115, .T. ) ;
#284 = DIRECTION ( 'NONE',  ( -1.224646799147353207E-16, 1.000000000000000000, 0.0000000000000000000 ) ) ;
#285 = DIRECTION ( 'NONE',  ( -0.0000000000000000000, -0.0000000000000000000, -1.000000000000000000 ) ) ;
#286 = LINE ( 'NONE', #212, #174 ) ;
#287 = CARTESIAN_POINT ( 'NONE',  ( -0.07873999999999985178, 1.205358612060781697E-17, 1.259842999999999824 ) ) ;
#288 = EDGE_CURVE ( 'NONE', #147, #336, #185, .T. ) ;
#289 = CARTESIAN_POINT ( 'NONE',  ( 0.1181100000000000344, 1.446430334472939084E-17, 3.922007999999999939 ) ) ;
#290 =( NAMED_UNIT ( * ) PLANE_ANGLE_UNIT ( ) SI_UNIT ( $, .RADIAN. ) );
#291 = AXIS2_PLACEMENT_3D ( 'NONE', #231, #342, #175 ) ;
#292 = LINE ( 'NONE', #53, #37 ) ;
#293 = DIRECTION ( 'NONE',  ( 1.000000000000000000, 0.0000000000000000000, 0.0000000000000000000 ) ) ;
#294 = ORIENTED_EDGE ( 'NONE', *, *, #142, .T. ) ;
#295 = AXIS2_PLACEMENT_3D ( 'NONE', #124, #176, #284 ) ;
#296 = CIRCLE ( 'NONE', #2, 0.07873999999999996280 ) ;
#297 = SHAPE_DEFINITION_REPRESENTATION ( #211, #114 ) ;
#298 = ORIENTED_EDGE ( 'NONE', *, *, #92, .F. ) ;
#299 = ADVANCED_FACE ( 'NONE', ( #264 ), #156, .T. ) ;
#300 = VERTEX_POINT ( 'NONE', #337 ) ;
#301 = VERTEX_POINT ( 'NONE', #98 ) ;
#302 = AXIS2_PLACEMENT_3D ( 'NONE', #343, #226, #76 ) ;
#303 = VECTOR ( 'NONE', #244, 39.37007874015748854 ) ;
#304 = VERTEX_POINT ( 'NONE', #25 ) ;
#305 = ADVANCED_FACE ( 'NONE', ( #46 ), #70, .T. ) ;
#306 = DIRECTION ( 'NONE',  ( 0.0000000000000000000, 0.0000000000000000000, 1.000000000000000000 ) ) ;
#307 =( NAMED_UNIT ( * ) PLANE_ANGLE_UNIT ( ) SI_UNIT ( $, .RADIAN. ) );
#308 = CARTESIAN_POINT ( 'NONE',  ( 0.0000000000000000000, 0.0000000000000000000, 3.937007999999999619 ) ) ;
#309 = EDGE_CURVE ( 'NONE', #119, #225, #192, .T. ) ;
#310 = AXIS2_PLACEMENT_3D ( 'NONE', #252, #121, #228 ) ;
#311 = ORIENTED_EDGE ( 'NONE', *, *, #333, .F. ) ;
#312 =( GEOMETRIC_REPRESENTATION_CONTEXT ( 3 ) GLOBAL_UNCERTAINTY_ASSIGNED_CONTEXT ( ( #67 ) ) GLOBAL_UNIT_ASSIGNED_CONTEXT ( ( #324, #307, #223 ) ) REPRESENTATION_CONTEXT ( 'NONE', 'WORKASPACE' ) );
#313 = DIRECTION ( 'NONE',  ( 1.000000000000000000, 0.0000000000000000000, 0.0000000000000000000 ) ) ;
#314 = LINE ( 'NONE', #77, #149 ) ;
#315 = DIRECTION ( 'NONE',  ( 0.0000000000000000000, 0.0000000000000000000, 1.000000000000000000 ) ) ;
#316 = CIRCLE ( 'NONE', #14, 0.07873999999999985178 ) ;
#317 = AXIS2_PLACEMENT_3D ( 'NONE', #48, #256, #105 ) ;
#318 = CARTESIAN_POINT ( 'NONE',  ( 0.0000000000000000000, 0.0000000000000000000, 0.2061439962741667686 ) ) ;
#319 = CARTESIAN_POINT ( 'NONE',  ( 0.0000000000000000000, 0.0000000000000000000, 3.922007999999999939 ) ) ;
#320 = DIRECTION ( 'NONE',  ( 1.000000000000000000, 0.0000000000000000000, 0.0000000000000000000 ) ) ;
#321 = CIRCLE ( 'NONE', #52, 0.07873999999999985178 ) ;
#322 = DIRECTION ( 'NONE',  ( 1.000000000000000000, 0.0000000000000000000, 0.0000000000000000000 ) ) ;
#323 = CARTESIAN_POINT ( 'NONE',  ( 0.0000000000000000000, 0.0000000000000000000, 3.937007999999999619 ) ) ;
#324 =( CONVERSION_BASED_UNIT ( 'INCH', #217 ) LENGTH_UNIT ( ) NAMED_UNIT ( #230 ) );
#325 = PRODUCT_DEFINITION ( 'UNKNOWN', '', #57, #245 ) ;
#326 = PRESENTATION_LAYER_ASSIGNMENT (  '', '', ( #335 ) ) ;
#327 = EDGE_CURVE ( 'NONE', #301, #8, #296, .T. ) ;
#328 = SURFACE_STYLE_USAGE ( .BOTH. , #12 ) ;
#329 = VERTEX_POINT ( 'NONE', #106 ) ;
#330 = DIRECTION ( 'NONE',  ( 1.000000000000000000, 0.0000000000000000000, 0.0000000000000000000 ) ) ;
#331 = EDGE_LOOP ( 'NONE', ( #94, #234, #10, #47 ) ) ;
#332 = APPLICATION_CONTEXT ( 'automotive_design' ) ;
#333 = EDGE_CURVE ( 'NONE', #225, #119, #220, .T. ) ;
#334 = ORIENTED_EDGE ( 'NONE', *, *, #34, .T. ) ;
#335 = STYLED_ITEM ( 'NONE', ( #90 ), #114 ) ;
#336 = VERTEX_POINT ( 'NONE', #30 ) ;
#337 = CARTESIAN_POINT ( 'NONE',  ( -0.1181100000000000344, 1.446430334472939084E-17, 1.732283000000000017 ) ) ;
#338 = LINE ( 'NONE', #73, #1 ) ;
#339 = ORIENTED_EDGE ( 'NONE', *, *, #66, .F. ) ;
#340 = DIRECTION ( 'NONE',  ( 1.000000000000000000, 0.0000000000000000000, 0.0000000000000000000 ) ) ;
#341 = VECTOR ( 'NONE', #205, 39.37007874015748143 ) ;
#342 = DIRECTION ( 'NONE',  ( -0.0000000000000000000, -0.0000000000000000000, -1.000000000000000000 ) ) ;
#343 = CARTESIAN_POINT ( 'NONE',  ( 0.0000000000000000000, 0.0000000000000000000, 0.2061439962741667686 ) ) ;
#344 = DIMENSIONAL_EXPONENTS ( 1.000000000000000000, 0.0000000000000000000, 0.0000000000000000000, 0.0000000000000000000, 0.0000000000000000000, 0.0000000000000000000, 0.0000000000000000000 ) ;
#345 =( NAMED_UNIT ( * ) PLANE_ANGLE_UNIT ( ) SI_UNIT ( $, .RADIAN. ) );
ENDSEC;
END-ISO-10303-21;
