ISO-10303-21;
HEADER;
FILE_DESCRIPTION (( 'STEP AP214' ),
    '1' );
FILE_NAME ('Micro_RME-013-2X.STEP',
    '2021-09-01T22:28:58',
    ( '' ),
    ( '' ),
    'SwSTEP 2.0',
    'SolidWorks 2020',
    '' );
FILE_SCHEMA (( 'AUTOMOTIVE_DESIGN' ));
ENDSEC;

DATA;
#1 = CARTESIAN_POINT ( 'NONE',  ( 0.0000000000000000000, 0.0000000000000000000, 1.485000000000000764 ) ) ;
#2 = AXIS2_PLACEMENT_3D ( 'NONE', #298, #137, #19 ) ;
#3 = SURFACE_STYLE_FILL_AREA ( #71 ) ;
#4 = EDGE_CURVE ( 'NONE', #232, #119, #42, .T. ) ;
#5 = ORIENTED_EDGE ( 'NONE', *, *, #226, .F. ) ;
#6 = SURFACE_SIDE_STYLE ('',( #261 ) ) ;
#7 = VECTOR ( 'NONE', #176, 39.37007874015748143 ) ;
#8 = ORIENTED_EDGE ( 'NONE', *, *, #188, .F. ) ;
#9 =( CONVERSION_BASED_UNIT ( 'INCH', #194 ) LENGTH_UNIT ( ) NAMED_UNIT ( #48 ) );
#10 = EDGE_LOOP ( 'NONE', ( #210, #87, #113, #61 ) ) ;
#11 =( CONVERSION_BASED_UNIT ( 'INCH', #59 ) LENGTH_UNIT ( ) NAMED_UNIT ( #72 ) );
#12 = CONICAL_SURFACE ( 'NONE', #16, 0.006493500000000001007, 0.1745329251994338637 ) ;
#13 = ORIENTED_EDGE ( 'NONE', *, *, #53, .F. ) ;
#14 = DIRECTION ( 'NONE',  ( -1.224646799147353454E-16, -0.0000000000000000000, -1.000000000000000000 ) ) ;
#15 = DIRECTION ( 'NONE',  ( -0.0000000000000000000, -0.0000000000000000000, -1.000000000000000000 ) ) ;
#16 = AXIS2_PLACEMENT_3D ( 'NONE', #70, #43, #36 ) ;
#17 = STYLED_ITEM ( 'NONE', ( #239 ), #267 ) ;
#18 = CARTESIAN_POINT ( 'NONE',  ( -0.06250000000000002776, 0.0000000000000000000, 1.485000000000000764 ) ) ;
#19 = DIRECTION ( 'NONE',  ( -1.000000000000000000, 0.0000000000000000000, 1.224646799147353454E-16 ) ) ;
#20 = CARTESIAN_POINT ( 'NONE',  ( 0.0000000000000000000, 0.0000000000000000000, 1.500000000000000222 ) ) ;
#21 = DIMENSIONAL_EXPONENTS ( 1.000000000000000000, 0.0000000000000000000, 0.0000000000000000000, 0.0000000000000000000, 0.0000000000000000000, 0.0000000000000000000, 0.0000000000000000000 ) ;
#22 = AXIS2_PLACEMENT_3D ( 'NONE', #23, #201, #256 ) ;
#23 = CARTESIAN_POINT ( 'NONE',  ( 0.0000000000000000000, 0.0000000000000000000, 0.0000000000000000000 ) ) ;
#24 = CARTESIAN_POINT ( 'NONE',  ( 4.776122516674678488E-18, 0.0000000000000000000, 0.03899999999999999994 ) ) ;
#25 = DIRECTION ( 'NONE',  ( 1.000000000000000000, 0.0000000000000000000, 0.0000000000000000000 ) ) ;
#26 =( GEOMETRIC_REPRESENTATION_CONTEXT ( 3 ) GLOBAL_UNCERTAINTY_ASSIGNED_CONTEXT ( ( #257 ) ) GLOBAL_UNIT_ASSIGNED_CONTEXT ( ( #9, #164, #264 ) ) REPRESENTATION_CONTEXT ( 'NONE', 'WORKASPACE' ) );
#27 = DIRECTION ( 'NONE',  ( -1.000000000000000000, 0.0000000000000000000, 0.0000000000000000000 ) ) ;
#28 = ORIENTED_EDGE ( 'NONE', *, *, #107, .F. ) ;
#29 = ADVANCED_FACE ( 'NONE', ( #135 ), #248, .T. ) ;
#30 = ORIENTED_EDGE ( 'NONE', *, *, #107, .T. ) ;
#31 = CARTESIAN_POINT ( 'NONE',  ( 0.006493499999999999273, 7.952243990263336597E-19, -7.952243990263338523E-19 ) ) ;
#32 = CIRCLE ( 'NONE', #199, 0.06250000000000002776 ) ;
#33 = ORIENTED_EDGE ( 'NONE', *, *, #146, .F. ) ;
#34 = FACE_OUTER_BOUND ( 'NONE', #244, .T. ) ;
#35 = CARTESIAN_POINT ( 'NONE',  ( -0.006493499999999996670, 4.224633446848647287E-18, 0.03899999999999999994 ) ) ;
#36 = DIRECTION ( 'NONE',  ( 1.000000000000000000, 0.0000000000000000000, 0.0000000000000000000 ) ) ;
#37 = ORIENTED_EDGE ( 'NONE', *, *, #4, .F. ) ;
#38 = EDGE_CURVE ( 'NONE', #265, #260, #97, .T. ) ;
#39 = CIRCLE ( 'NONE', #80, 0.006493500000000001007 ) ;
#40 = EDGE_CURVE ( 'NONE', #246, #213, #290, .T. ) ;
#41 = LINE ( 'NONE', #181, #95 ) ;
#42 = CIRCLE ( 'NONE', #229, 0.006493499999999996670 ) ;
#43 = DIRECTION ( 'NONE',  ( 1.224646799147353454E-16, 0.0000000000000000000, 1.000000000000000000 ) ) ;
#44 = AXIS2_PLACEMENT_3D ( 'NONE', #271, #15, #78 ) ;
#45 = ORIENTED_EDGE ( 'NONE', *, *, #105, .T. ) ;
#46 = FACE_OUTER_BOUND ( 'NONE', #166, .T. ) ;
#47 = PRODUCT ( 'Micro_RME-013-2X', 'Micro_RME-013-2X', '', ( #197 ) ) ;
#48 = DIMENSIONAL_EXPONENTS ( 1.000000000000000000, 0.0000000000000000000, 0.0000000000000000000, 0.0000000000000000000, 0.0000000000000000000, 0.0000000000000000000, 0.0000000000000000000 ) ;
#49 = COLOUR_RGB ( '',0.7921568627450980005, 0.8196078431372548767, 0.9333333333333333481 ) ;
#50 = AXIS2_PLACEMENT_3D ( 'NONE', #172, #233, #148 ) ;
#51 = DIRECTION ( 'NONE',  ( -1.224646799147353454E-16, -0.0000000000000000000, -1.000000000000000000 ) ) ;
#52 = CARTESIAN_POINT ( 'NONE',  ( 9.738690148714772880E-35, 0.0000000000000000000, 7.952243990263336597E-19 ) ) ;
#53 = EDGE_CURVE ( 'NONE', #216, #88, #249, .T. ) ;
#54 = DIRECTION ( 'NONE',  ( 1.000000000000000000, 0.0000000000000000000, 0.0000000000000000000 ) ) ;
#55 = EDGE_LOOP ( 'NONE', ( #30, #147 ) ) ;
#56 = CARTESIAN_POINT ( 'NONE',  ( 0.0000000000000000000, 0.0000000000000000000, 1.500000000000000222 ) ) ;
#57 = VECTOR ( 'NONE', #110, 39.37007874015748854 ) ;
#58 = DIRECTION ( 'NONE',  ( 1.000000000000000000, 0.0000000000000000000, 0.0000000000000000000 ) ) ;
#59 = LENGTH_MEASURE_WITH_UNIT ( LENGTH_MEASURE( 0.02539999999999999897 ), #122 );
#60 = EDGE_CURVE ( 'NONE', #285, #232, #134, .T. ) ;
#61 = ORIENTED_EDGE ( 'NONE', *, *, #262, .F. ) ;
#62 = ORIENTED_EDGE ( 'NONE', *, *, #127, .T. ) ;
#63 = ORIENTED_EDGE ( 'NONE', *, *, #68, .F. ) ;
#64 =( NAMED_UNIT ( * ) PLANE_ANGLE_UNIT ( ) SI_UNIT ( $, .RADIAN. ) );
#65 = EDGE_LOOP ( 'NONE', ( #106, #287, #120, #143 ) ) ;
#66 = LINE ( 'NONE', #67, #191 ) ;
#67 = CARTESIAN_POINT ( 'NONE',  ( -0.006493499999999999273, 0.0000000000000000000, 7.952243990263338523E-19 ) ) ;
#68 = EDGE_CURVE ( 'NONE', #102, #119, #66, .T. ) ;
#69 = FACE_OUTER_BOUND ( 'NONE', #65, .T. ) ;
#70 = CARTESIAN_POINT ( 'NONE',  ( 4.776122516674678488E-18, 0.0000000000000000000, 0.03899999999999999994 ) ) ;
#71 = FILL_AREA_STYLE ('',( #206 ) ) ;
#72 = DIMENSIONAL_EXPONENTS ( 1.000000000000000000, 0.0000000000000000000, 0.0000000000000000000, 0.0000000000000000000, 0.0000000000000000000, 0.0000000000000000000, 0.0000000000000000000 ) ;
#73 = PRODUCT_RELATED_PRODUCT_CATEGORY ( 'part', '', ( #47 ) ) ;
#74 = CONICAL_SURFACE ( 'NONE', #230, 0.04750000000000064587, 0.7853981633974466137 ) ;
#75 = DIRECTION ( 'NONE',  ( 0.0000000000000000000, 0.0000000000000000000, 1.000000000000000000 ) ) ;
#76 = FACE_OUTER_BOUND ( 'NONE', #171, .T. ) ;
#77 = CARTESIAN_POINT ( 'NONE',  ( 4.776122516674678488E-18, 0.0000000000000000000, 0.03899999999999999994 ) ) ;
#78 = DIRECTION ( 'NONE',  ( -1.000000000000000000, 0.0000000000000000000, 0.0000000000000000000 ) ) ;
#79 = CARTESIAN_POINT ( 'NONE',  ( 0.006493500000000005344, 0.0000000000000000000, 0.03899999999999999994 ) ) ;
#80 = AXIS2_PLACEMENT_3D ( 'NONE', #24, #14, #247 ) ;
#81 = ORIENTED_EDGE ( 'NONE', *, *, #105, .F. ) ;
#82 = EDGE_CURVE ( 'NONE', #285, #102, #39, .T. ) ;
#83 = SURFACE_STYLE_USAGE ( .BOTH. , #6 ) ;
#84 = EDGE_LOOP ( 'NONE', ( #190, #103, #45, #185 ) ) ;
#85 = CARTESIAN_POINT ( 'NONE',  ( 0.0000000000000000000, 0.0000000000000000000, 0.0000000000000000000 ) ) ;
#86 = ADVANCED_FACE ( 'NONE', ( #76 ), #100, .T. ) ;
#87 = ORIENTED_EDGE ( 'NONE', *, *, #195, .F. ) ;
#88 = VERTEX_POINT ( 'NONE', #186 ) ;
#89 = CLOSED_SHELL ( 'NONE', ( #118, #94, #178, #86, #140, #281, #288, #29, #275, #223 ) ) ;
#90 = FACE_OUTER_BOUND ( 'NONE', #84, .T. ) ;
#91 = CARTESIAN_POINT ( 'NONE',  ( 0.06250000000000006939, 7.654042494670963708E-18, 0.3566286452304176513 ) ) ;
#92 = DIRECTION ( 'NONE',  ( -1.224646799147353454E-16, -0.0000000000000000000, -1.000000000000000000 ) ) ;
#93 = LINE ( 'NONE', #187, #294 ) ;
#94 = ADVANCED_FACE ( 'NONE', ( #90 ), #12, .T. ) ;
#95 = VECTOR ( 'NONE', #202, 39.37007874015747433 ) ;
#96 = DIRECTION ( 'NONE',  ( 0.0000000000000000000, 0.0000000000000000000, -1.000000000000000000 ) ) ;
#97 = LINE ( 'NONE', #225, #252 ) ;
#98 = SURFACE_SIDE_STYLE ('',( #3 ) ) ;
#99 = DIRECTION ( 'NONE',  ( 1.000000000000000000, 0.0000000000000000000, 0.0000000000000000000 ) ) ;
#100 = CYLINDRICAL_SURFACE ( 'NONE', #283, 0.06250000000000002776 ) ;
#101 =( CONVERSION_BASED_UNIT ( 'INCH', #117 ) LENGTH_UNIT ( ) NAMED_UNIT ( #21 ) );
#102 = VERTEX_POINT ( 'NONE', #35 ) ;
#103 = ORIENTED_EDGE ( 'NONE', *, *, #188, .T. ) ;
#104 = EDGE_LOOP ( 'NONE', ( #8, #129, #204, #167 ) ) ;
#105 = EDGE_CURVE ( 'NONE', #88, #260, #236, .T. ) ;
#106 = ORIENTED_EDGE ( 'NONE', *, *, #38, .F. ) ;
#107 = EDGE_CURVE ( 'NONE', #119, #232, #154, .T. ) ;
#108 = DIRECTION ( 'NONE',  ( -0.7071067811865462405, 0.0000000000000000000, -0.7071067811865486830 ) ) ;
#109 =( GEOMETRIC_REPRESENTATION_CONTEXT ( 3 ) GLOBAL_UNCERTAINTY_ASSIGNED_CONTEXT ( ( #145 ) ) GLOBAL_UNIT_ASSIGNED_CONTEXT ( ( #11, #266, #245 ) ) REPRESENTATION_CONTEXT ( 'NONE', 'WORKASPACE' ) );
#110 = DIRECTION ( 'NONE',  ( 0.7071067811865462405, 8.659560562354916834E-17, -0.7071067811865486830 ) ) ;
#111 = DIRECTION ( 'NONE',  ( 0.0000000000000000000, 0.0000000000000000000, 1.000000000000000000 ) ) ;
#112 = DIRECTION ( 'NONE',  ( 0.1736481776669313581, 0.0000000000000000000, 0.9848077530122077983 ) ) ;
#113 = ORIENTED_EDGE ( 'NONE', *, *, #146, .T. ) ;
#114 = DIRECTION ( 'NONE',  ( -1.224646799147353454E-16, -0.0000000000000000000, -1.000000000000000000 ) ) ;
#115 = CYLINDRICAL_SURFACE ( 'NONE', #284, 0.006493499999999999273 ) ;
#116 = CARTESIAN_POINT ( 'NONE',  ( 9.738690148714772880E-35, 0.0000000000000000000, 7.952243990263336597E-19 ) ) ;
#117 = LENGTH_MEASURE_WITH_UNIT ( LENGTH_MEASURE( 0.02539999999999999897 ), #177 );
#118 = ADVANCED_FACE ( 'NONE', ( #46 ), #279, .T. ) ;
#119 = VERTEX_POINT ( 'NONE', #160 ) ;
#120 = ORIENTED_EDGE ( 'NONE', *, *, #53, .T. ) ;
#121 = AXIS2_PLACEMENT_3D ( 'NONE', #196, #111, #180 ) ;
#122 =( LENGTH_UNIT ( ) NAMED_UNIT ( * ) SI_UNIT ( $, .METRE. ) );
#123 = CARTESIAN_POINT ( 'NONE',  ( 4.367441288656881593E-17, 0.0000000000000000000, 0.3566286452304176513 ) ) ;
#124 = APPLICATION_PROTOCOL_DEFINITION ( 'draft international standard', 'automotive_design', 1998, #173 ) ;
#125 = ORIENTED_EDGE ( 'NONE', *, *, #198, .T. ) ;
#126 = CIRCLE ( 'NONE', #224, 0.06250000000000002776 ) ;
#127 = EDGE_CURVE ( 'NONE', #102, #285, #169, .T. ) ;
#128 = DIRECTION ( 'NONE',  ( -1.000000000000000000, 0.0000000000000000000, 1.224646799147353700E-16 ) ) ;
#129 = ORIENTED_EDGE ( 'NONE', *, *, #82, .F. ) ;
#130 = CARTESIAN_POINT ( 'NONE',  ( -0.04750000000000064587, 0.0000000000000000000, 1.500000000000000222 ) ) ;
#131 = AXIS2_PLACEMENT_3D ( 'NONE', #123, #215, #99 ) ;
#132 = AXIS2_PLACEMENT_3D ( 'NONE', #168, #286, #27 ) ;
#133 = CYLINDRICAL_SURFACE ( 'NONE', #44, 0.06250000000000002776 ) ;
#134 = LINE ( 'NONE', #31, #269 ) ;
#135 = FACE_OUTER_BOUND ( 'NONE', #104, .T. ) ;
#136 = AXIS2_PLACEMENT_3D ( 'NONE', #277, #139, #58 ) ;
#137 = DIRECTION ( 'NONE',  ( -1.224646799147353454E-16, -0.0000000000000000000, -1.000000000000000000 ) ) ;
#138 = CARTESIAN_POINT ( 'NONE',  ( 0.06250000000000002776, 7.654042494670959086E-18, 1.485000000000000764 ) ) ;
#139 = DIRECTION ( 'NONE',  ( 1.224646799147353454E-16, 0.0000000000000000000, 1.000000000000000000 ) ) ;
#140 = ADVANCED_FACE ( 'NONE', ( #69 ), #133, .T. ) ;
#141 = PRODUCT_DEFINITION_CONTEXT ( 'detailed design', #231, 'design' ) ;
#142 = EDGE_LOOP ( 'NONE', ( #192, #193 ) ) ;
#143 = ORIENTED_EDGE ( 'NONE', *, *, #174, .F. ) ;
#144 = DIRECTION ( 'NONE',  ( -1.000000000000000000, 0.0000000000000000000, 1.224646799147353454E-16 ) ) ;
#145 = UNCERTAINTY_MEASURE_WITH_UNIT (LENGTH_MEASURE( 1.000000000000000082E-05 ), #11, 'distance_accuracy_value', 'NONE');
#146 = EDGE_CURVE ( 'NONE', #213, #216, #93, .T. ) ;
#147 = ORIENTED_EDGE ( 'NONE', *, *, #4, .T. ) ;
#148 = DIRECTION ( 'NONE',  ( 1.000000000000000000, 0.0000000000000000000, -0.0000000000000000000 ) ) ;
#149 = AXIS2_PLACEMENT_3D ( 'NONE', #116, #207, #128 ) ;
#150 = APPLICATION_PROTOCOL_DEFINITION ( 'draft international standard', 'automotive_design', 1998, #231 ) ;
#151 = CARTESIAN_POINT ( 'NONE',  ( 4.367441288656881593E-17, 0.0000000000000000000, 0.3566286452304176513 ) ) ;
#152 = CARTESIAN_POINT ( 'NONE',  ( 0.0000000000000000000, 0.0000000000000000000, 1.500000000000000222 ) ) ;
#153 = DIRECTION ( 'NONE',  ( 1.000000000000000000, 0.0000000000000000000, 0.0000000000000000000 ) ) ;
#154 = CIRCLE ( 'NONE', #149, 0.006493499999999996670 ) ;
#155 = DIRECTION ( 'NONE',  ( -1.000000000000000000, 0.0000000000000000000, 1.224646799147353700E-16 ) ) ;
#156 = AXIS2_PLACEMENT_3D ( 'NONE', #77, #51, #296 ) ;
#157 = PRESENTATION_LAYER_ASSIGNMENT (  '', '', ( #270 ) ) ;
#158 = CARTESIAN_POINT ( 'NONE',  ( 0.04750000000000064587, 5.817072295950006528E-18, 1.500000000000000222 ) ) ;
#159 = CARTESIAN_POINT ( 'NONE',  ( 0.006493500000000005344, 0.0000000000000000000, 0.03899999999999999994 ) ) ;
#160 = CARTESIAN_POINT ( 'NONE',  ( -0.006493499999999996670, 0.0000000000000000000, 1.590448798052667319E-18 ) ) ;
#161 = DIRECTION ( 'NONE',  ( -1.224646799147353454E-16, -0.0000000000000000000, -1.000000000000000000 ) ) ;
#162 = MECHANICAL_DESIGN_GEOMETRIC_PRESENTATION_REPRESENTATION (  '', ( #270 ), #212 ) ;
#163 = ORIENTED_EDGE ( 'NONE', *, *, #68, .T. ) ;
#164 =( NAMED_UNIT ( * ) PLANE_ANGLE_UNIT ( ) SI_UNIT ( $, .RADIAN. ) );
#165 = PRODUCT_DEFINITION ( 'UNKNOWN', '', #253, #141 ) ;
#166 = EDGE_LOOP ( 'NONE', ( #62, #234, #28, #63 ) ) ;
#167 = ORIENTED_EDGE ( 'NONE', *, *, #174, .T. ) ;
#168 = CARTESIAN_POINT ( 'NONE',  ( 0.0000000000000000000, 0.0000000000000000000, 1.500000000000000222 ) ) ;
#169 = CIRCLE ( 'NONE', #156, 0.006493500000000001007 ) ;
#170 = COLOUR_RGB ( '',0.7921568627450980005, 0.8196078431372548767, 0.9333333333333333481 ) ;
#171 = EDGE_LOOP ( 'NONE', ( #221, #241, #81, #13 ) ) ;
#172 = CARTESIAN_POINT ( 'NONE',  ( 0.0000000000000000000, 0.0000000000000000000, 1.500000000000000222 ) ) ;
#173 = APPLICATION_CONTEXT ( 'automotive_design' ) ;
#174 = EDGE_CURVE ( 'NONE', #260, #88, #32, .T. ) ;
#175 = CIRCLE ( 'NONE', #217, 0.04750000000000064587 ) ;
#176 = DIRECTION ( 'NONE',  ( -0.0000000000000000000, -0.0000000000000000000, -1.000000000000000000 ) ) ;
#177 =( LENGTH_UNIT ( ) NAMED_UNIT ( * ) SI_UNIT ( $, .METRE. ) );
#178 = ADVANCED_FACE ( 'NONE', ( #251 ), #74, .T. ) ;
#179 = CARTESIAN_POINT ( 'NONE',  ( 0.0000000000000000000, 0.0000000000000000000, 1.485000000000000764 ) ) ;
#180 = DIRECTION ( 'NONE',  ( 1.000000000000000000, 0.0000000000000000000, 0.0000000000000000000 ) ) ;
#181 = CARTESIAN_POINT ( 'NONE',  ( -0.006493499999999996670, 7.952243990263339486E-19, 0.03899999999999999994 ) ) ;
#182 = VECTOR ( 'NONE', #112, 39.37007874015748143 ) ;
#183 = PRODUCT_DEFINITION_SHAPE ( 'NONE', 'NONE',  #165 ) ;
#184 = EDGE_CURVE ( 'NONE', #285, #260, #220, .T. ) ;
#185 = ORIENTED_EDGE ( 'NONE', *, *, #184, .F. ) ;
#186 = CARTESIAN_POINT ( 'NONE',  ( -0.06249999999999997918, 0.0000000000000000000, 0.3566286452304176513 ) ) ;
#187 = CARTESIAN_POINT ( 'NONE',  ( -0.04750000000000064587, 0.0000000000000000000, 1.500000000000000222 ) ) ;
#188 = EDGE_CURVE ( 'NONE', #102, #88, #41, .T. ) ;
#189 = SURFACE_STYLE_USAGE ( .BOTH. , #98 ) ;
#190 = ORIENTED_EDGE ( 'NONE', *, *, #127, .F. ) ;
#191 = VECTOR ( 'NONE', #92, 39.37007874015748143 ) ;
#192 = ORIENTED_EDGE ( 'NONE', *, *, #195, .T. ) ;
#193 = ORIENTED_EDGE ( 'NONE', *, *, #40, .T. ) ;
#194 = LENGTH_MEASURE_WITH_UNIT ( LENGTH_MEASURE( 0.02539999999999999897 ), #235 );
#195 = EDGE_CURVE ( 'NONE', #213, #246, #175, .T. ) ;
#196 = CARTESIAN_POINT ( 'NONE',  ( 0.0000000000000000000, 0.0000000000000000000, 0.0000000000000000000 ) ) ;
#197 = PRODUCT_CONTEXT ( 'NONE', #173, 'mechanical' ) ;
#198 = EDGE_CURVE ( 'NONE', #246, #265, #255, .T. ) ;
#199 = AXIS2_PLACEMENT_3D ( 'NONE', #151, #114, #153 ) ;
#200 = PLANE ( 'NONE',  #22 ) ;
#201 = DIRECTION ( 'NONE',  ( 0.0000000000000000000, 0.0000000000000000000, 1.000000000000000000 ) ) ;
#202 = DIRECTION ( 'NONE',  ( -0.1736481776669311639, 2.126576849575783008E-17, 0.9848077530122080203 ) ) ;
#203 = AXIS2_PLACEMENT_3D ( 'NONE', #1, #96, #25 ) ;
#204 = ORIENTED_EDGE ( 'NONE', *, *, #184, .T. ) ;
#205 = DIRECTION ( 'NONE',  ( 0.0000000000000000000, 0.0000000000000000000, -1.000000000000000000 ) ) ;
#206 = FILL_AREA_STYLE_COLOUR ( '', #49 ) ;
#207 = DIRECTION ( 'NONE',  ( -1.224646799147353454E-16, -0.0000000000000000000, -1.000000000000000000 ) ) ;
#208 =( NAMED_UNIT ( * ) SI_UNIT ( $, .STERADIAN. ) SOLID_ANGLE_UNIT ( ) );
#209 = FILL_AREA_STYLE_COLOUR ( '', #170 ) ;
#210 = ORIENTED_EDGE ( 'NONE', *, *, #198, .F. ) ;
#211 = AXIS2_PLACEMENT_3D ( 'NONE', #152, #291, #295 ) ;
#212 =( GEOMETRIC_REPRESENTATION_CONTEXT ( 3 ) GLOBAL_UNCERTAINTY_ASSIGNED_CONTEXT ( ( #273 ) ) GLOBAL_UNIT_ASSIGNED_CONTEXT ( ( #101, #64, #208 ) ) REPRESENTATION_CONTEXT ( 'NONE', 'WORKASPACE' ) );
#213 = VERTEX_POINT ( 'NONE', #130 ) ;
#214 = FACE_OUTER_BOUND ( 'NONE', #10, .T. ) ;
#215 = DIRECTION ( 'NONE',  ( -1.224646799147353454E-16, -0.0000000000000000000, -1.000000000000000000 ) ) ;
#216 = VERTEX_POINT ( 'NONE', #18 ) ;
#217 = AXIS2_PLACEMENT_3D ( 'NONE', #56, #75, #227 ) ;
#218 = CARTESIAN_POINT ( 'NONE',  ( -0.06250000000000002776, 0.0000000000000000000, 1.500000000000000222 ) ) ;
#219 = PRESENTATION_LAYER_ASSIGNMENT (  '', '', ( #17 ) ) ;
#220 = LINE ( 'NONE', #159, #182 ) ;
#221 = ORIENTED_EDGE ( 'NONE', *, *, #226, .T. ) ;
#222 = CARTESIAN_POINT ( 'NONE',  ( 0.0000000000000000000, 0.0000000000000000000, 1.500000000000000222 ) ) ;
#223 = ADVANCED_FACE ( 'NONE', ( #254 ), #200, .F. ) ;
#224 = AXIS2_PLACEMENT_3D ( 'NONE', #179, #268, #54 ) ;
#225 = CARTESIAN_POINT ( 'NONE',  ( 0.06250000000000002776, 7.654042494670959086E-18, 1.500000000000000222 ) ) ;
#226 = EDGE_CURVE ( 'NONE', #216, #265, #259, .T. ) ;
#227 = DIRECTION ( 'NONE',  ( 1.000000000000000000, 0.0000000000000000000, 0.0000000000000000000 ) ) ;
#228 = CARTESIAN_POINT ( 'NONE',  ( 0.006493499999999996670, 7.952243990263335634E-19, -1.184750211852384294E-34 ) ) ;
#229 = AXIS2_PLACEMENT_3D ( 'NONE', #52, #258, #155 ) ;
#230 = AXIS2_PLACEMENT_3D ( 'NONE', #222, #205, #250 ) ;
#231 = APPLICATION_CONTEXT ( 'automotive_design' ) ;
#232 = VERTEX_POINT ( 'NONE', #228 ) ;
#233 = DIRECTION ( 'NONE',  ( 0.0000000000000000000, 0.0000000000000000000, 1.000000000000000000 ) ) ;
#234 = ORIENTED_EDGE ( 'NONE', *, *, #60, .T. ) ;
#235 =( LENGTH_UNIT ( ) NAMED_UNIT ( * ) SI_UNIT ( $, .METRE. ) );
#236 = CIRCLE ( 'NONE', #131, 0.06250000000000002776 ) ;
#237 = ORIENTED_EDGE ( 'NONE', *, *, #82, .T. ) ;
#238 = CONICAL_SURFACE ( 'NONE', #132, 0.04750000000000064587, 0.7853981633974466137 ) ;
#239 = PRESENTATION_STYLE_ASSIGNMENT (( #83 ) ) ;
#240 = DIRECTION ( 'NONE',  ( -0.0000000000000000000, -0.0000000000000000000, -1.000000000000000000 ) ) ;
#241 = ORIENTED_EDGE ( 'NONE', *, *, #38, .T. ) ;
#242 = FACE_OUTER_BOUND ( 'NONE', #142, .T. ) ;
#243 = DIRECTION ( 'NONE',  ( -1.224646799147353454E-16, -0.0000000000000000000, -1.000000000000000000 ) ) ;
#244 = EDGE_LOOP ( 'NONE', ( #292, #237, #163, #37 ) ) ;
#245 =( NAMED_UNIT ( * ) SI_UNIT ( $, .STERADIAN. ) SOLID_ANGLE_UNIT ( ) );
#246 = VERTEX_POINT ( 'NONE', #297 ) ;
#247 = DIRECTION ( 'NONE',  ( -1.000000000000000000, 0.0000000000000000000, 0.0000000000000000000 ) ) ;
#248 = CONICAL_SURFACE ( 'NONE', #136, 0.006493500000000001007, 0.1745329251994338637 ) ;
#249 = LINE ( 'NONE', #218, #7 ) ;
#250 = DIRECTION ( 'NONE',  ( -1.000000000000000000, 0.0000000000000000000, 0.0000000000000000000 ) ) ;
#251 = FACE_OUTER_BOUND ( 'NONE', #263, .T. ) ;
#252 = VECTOR ( 'NONE', #240, 39.37007874015748143 ) ;
#253 = PRODUCT_DEFINITION_FORMATION_WITH_SPECIFIED_SOURCE ( 'ANY', '', #47, .NOT_KNOWN. ) ;
#254 = FACE_OUTER_BOUND ( 'NONE', #55, .T. ) ;
#255 = LINE ( 'NONE', #158, #57 ) ;
#256 = DIRECTION ( 'NONE',  ( 1.000000000000000000, 0.0000000000000000000, -0.0000000000000000000 ) ) ;
#257 = UNCERTAINTY_MEASURE_WITH_UNIT (LENGTH_MEASURE( 1.000000000000000082E-05 ), #9, 'distance_accuracy_value', 'NONE');
#258 = DIRECTION ( 'NONE',  ( -1.224646799147353454E-16, -0.0000000000000000000, -1.000000000000000000 ) ) ;
#259 = CIRCLE ( 'NONE', #203, 0.06250000000000002776 ) ;
#260 = VERTEX_POINT ( 'NONE', #91 ) ;
#261 = SURFACE_STYLE_FILL_AREA ( #282 ) ;
#262 = EDGE_CURVE ( 'NONE', #265, #216, #126, .T. ) ;
#263 = EDGE_LOOP ( 'NONE', ( #276, #125, #5, #33 ) ) ;
#264 =( NAMED_UNIT ( * ) SI_UNIT ( $, .STERADIAN. ) SOLID_ANGLE_UNIT ( ) );
#265 = VERTEX_POINT ( 'NONE', #138 ) ;
#266 =( NAMED_UNIT ( * ) PLANE_ANGLE_UNIT ( ) SI_UNIT ( $, .RADIAN. ) );
#267 = ADVANCED_BREP_SHAPE_REPRESENTATION ( 'Micro_RME-013-2X', ( #272, #121 ), #26 ) ;
#268 = DIRECTION ( 'NONE',  ( 0.0000000000000000000, 0.0000000000000000000, -1.000000000000000000 ) ) ;
#269 = VECTOR ( 'NONE', #243, 39.37007874015748143 ) ;
#270 = STYLED_ITEM ( 'NONE', ( #280 ), #272 ) ;
#271 = CARTESIAN_POINT ( 'NONE',  ( 0.0000000000000000000, 0.0000000000000000000, 1.500000000000000222 ) ) ;
#272 = MANIFOLD_SOLID_BREP ( 'Cut-Revolve1', #89 ) ;
#273 = UNCERTAINTY_MEASURE_WITH_UNIT (LENGTH_MEASURE( 1.000000000000000082E-05 ), #101, 'distance_accuracy_value', 'NONE');
#274 = DIRECTION ( 'NONE',  ( -0.0000000000000000000, -0.0000000000000000000, -1.000000000000000000 ) ) ;
#275 = ADVANCED_FACE ( 'NONE', ( #34 ), #115, .T. ) ;
#276 = ORIENTED_EDGE ( 'NONE', *, *, #40, .F. ) ;
#277 = CARTESIAN_POINT ( 'NONE',  ( 4.776122516674678488E-18, 0.0000000000000000000, 0.03899999999999999994 ) ) ;
#278 = MECHANICAL_DESIGN_GEOMETRIC_PRESENTATION_REPRESENTATION (  '', ( #17 ), #109 ) ;
#279 = CYLINDRICAL_SURFACE ( 'NONE', #2, 0.006493499999999999273 ) ;
#280 = PRESENTATION_STYLE_ASSIGNMENT (( #189 ) ) ;
#281 = ADVANCED_FACE ( 'NONE', ( #242 ), #289, .T. ) ;
#282 = FILL_AREA_STYLE ('',( #209 ) ) ;
#283 = AXIS2_PLACEMENT_3D ( 'NONE', #20, #274, #299 ) ;
#284 = AXIS2_PLACEMENT_3D ( 'NONE', #85, #161, #144 ) ;
#285 = VERTEX_POINT ( 'NONE', #79 ) ;
#286 = DIRECTION ( 'NONE',  ( 0.0000000000000000000, 0.0000000000000000000, -1.000000000000000000 ) ) ;
#287 = ORIENTED_EDGE ( 'NONE', *, *, #262, .T. ) ;
#288 = ADVANCED_FACE ( 'NONE', ( #214 ), #238, .T. ) ;
#289 = PLANE ( 'NONE',  #50 ) ;
#290 = CIRCLE ( 'NONE', #211, 0.04750000000000064587 ) ;
#291 = DIRECTION ( 'NONE',  ( 0.0000000000000000000, 0.0000000000000000000, 1.000000000000000000 ) ) ;
#292 = ORIENTED_EDGE ( 'NONE', *, *, #60, .F. ) ;
#293 = SHAPE_DEFINITION_REPRESENTATION ( #183, #267 ) ;
#294 = VECTOR ( 'NONE', #108, 39.37007874015748854 ) ;
#295 = DIRECTION ( 'NONE',  ( 1.000000000000000000, 0.0000000000000000000, 0.0000000000000000000 ) ) ;
#296 = DIRECTION ( 'NONE',  ( -1.000000000000000000, 0.0000000000000000000, 0.0000000000000000000 ) ) ;
#297 = CARTESIAN_POINT ( 'NONE',  ( 0.04750000000000064587, 6.735557395310483192E-18, 1.500000000000000222 ) ) ;
#298 = CARTESIAN_POINT ( 'NONE',  ( 0.0000000000000000000, 0.0000000000000000000, 0.0000000000000000000 ) ) ;
#299 = DIRECTION ( 'NONE',  ( -1.000000000000000000, 0.0000000000000000000, 0.0000000000000000000 ) ) ;
ENDSEC;
END-ISO-10303-21;
