ISO-10303-21;
HEADER;
FILE_DESCRIPTION (( 'STEP AP214' ),
    '1' );
FILE_NAME ('Micro_RTC-125-23X.STEP',
    '2021-09-03T18:04:34',
    ( '' ),
    ( '' ),
    'SwSTEP 2.0',
    'SolidWorks 2020',
    '' );
FILE_SCHEMA (( 'AUTOMOTIVE_DESIGN' ));
ENDSEC;

DATA;
#1 = CARTESIAN_POINT ( 'NONE',  ( -0.003999999999999999216, -4.071950607164948101E-18, 3.000000000000000444 ) ) ;
#2 = DIRECTION ( 'NONE',  ( -1.000000000000000000, 0.0000000000000000000, 0.0000000000000000000 ) ) ;
#3 = LENGTH_MEASURE_WITH_UNIT ( LENGTH_MEASURE( 0.02539999999999999897 ), #89 );
#4 = CARTESIAN_POINT ( 'NONE',  ( 0.0000000000000000000, 0.0000000000000000000, 0.0000000000000000000 ) ) ;
#5 = EDGE_CURVE ( 'NONE', #236, #163, #37, .T. ) ;
#6 = AXIS2_PLACEMENT_3D ( 'NONE', #214, #66, #40 ) ;
#7 =( NAMED_UNIT ( * ) SI_UNIT ( $, .STERADIAN. ) SOLID_ANGLE_UNIT ( ) );
#8 = PLANE ( 'NONE',  #17 ) ;
#9 = PLANE ( 'NONE',  #93 ) ;
#10 = EDGE_CURVE ( 'NONE', #227, #31, #208, .T. ) ;
#11 = DIRECTION ( 'NONE',  ( 0.0000000000000000000, 0.0000000000000000000, -1.000000000000000000 ) ) ;
#12 = FILL_AREA_STYLE ('',( #200 ) ) ;
#13 = ORIENTED_EDGE ( 'NONE', *, *, #61, .F. ) ;
#14 = AXIS2_PLACEMENT_3D ( 'NONE', #4, #79, #83 ) ;
#15 = CIRCLE ( 'NONE', #157, 0.06249999999999997918 ) ;
#16 = EDGE_CURVE ( 'NONE', #209, #72, #131, .T. ) ;
#17 = AXIS2_PLACEMENT_3D ( 'NONE', #98, #120, #183 ) ;
#18 = PRODUCT_DEFINITION_SHAPE ( 'NONE', 'NONE',  #247 ) ;
#19 = DIRECTION ( 'NONE',  ( 0.0000000000000000000, 0.0000000000000000000, -1.000000000000000000 ) ) ;
#20 = APPLICATION_CONTEXT ( 'automotive_design' ) ;
#21 = UNCERTAINTY_MEASURE_WITH_UNIT (LENGTH_MEASURE( 1.000000000000000082E-05 ), #177, 'distance_accuracy_value', 'NONE');
#22 = FACE_OUTER_BOUND ( 'NONE', #184, .T. ) ;
#23 = DIRECTION ( 'NONE',  ( -0.0000000000000000000, -0.0000000000000000000, -1.000000000000000000 ) ) ;
#24 = SURFACE_STYLE_FILL_AREA ( #45 ) ;
#25 = DIRECTION ( 'NONE',  ( -1.000000000000000000, 0.0000000000000000000, 0.0000000000000000000 ) ) ;
#26 = PRESENTATION_STYLE_ASSIGNMENT (( #223 ) ) ;
#27 = CARTESIAN_POINT ( 'NONE',  ( 0.0000000000000000000, 0.0000000000000000000, 3.000000000000000444 ) ) ;
#28 = PRESENTATION_LAYER_ASSIGNMENT (  '', '', ( #246 ) ) ;
#29 = STYLED_ITEM ( 'NONE', ( #26 ), #67 ) ;
#30 = CARTESIAN_POINT ( 'NONE',  ( 0.0000000000000000000, 0.0000000000000000000, 0.0000000000000000000 ) ) ;
#31 = VERTEX_POINT ( 'NONE', #197 ) ;
#32 = EDGE_CURVE ( 'NONE', #31, #227, #186, .T. ) ;
#33 = EDGE_LOOP ( 'NONE', ( #185, #70, #201, #148 ) ) ;
#34 = ORIENTED_EDGE ( 'NONE', *, *, #106, .F. ) ;
#35 = ORIENTED_EDGE ( 'NONE', *, *, #16, .F. ) ;
#36 = DIRECTION ( 'NONE',  ( -0.2588190451025217387, 3.169619151431776651E-17, 0.9659258262890679791 ) ) ;
#37 = CIRCLE ( 'NONE', #110, 0.06249999999999997918 ) ;
#38 = ADVANCED_FACE ( 'NONE', ( #123 ), #203, .T. ) ;
#39 = CARTESIAN_POINT ( 'NONE',  ( 0.0000000000000000000, 0.0000000000000000000, 2.781675027757221752 ) ) ;
#40 = DIRECTION ( 'NONE',  ( -1.000000000000000000, 0.0000000000000000000, 0.0000000000000000000 ) ) ;
#41 = DIRECTION ( 'NONE',  ( 1.000000000000000000, 0.0000000000000000000, 0.0000000000000000000 ) ) ;
#42 = CONICAL_SURFACE ( 'NONE', #75, 0.003999999999999999216, 0.2617993877991504625 ) ;
#43 = ORIENTED_EDGE ( 'NONE', *, *, #32, .T. ) ;
#44 = ORIENTED_EDGE ( 'NONE', *, *, #10, .F. ) ;
#45 = FILL_AREA_STYLE ('',( #159 ) ) ;
#46 = CIRCLE ( 'NONE', #193, 0.06249999999999997918 ) ;
#47 = ADVANCED_FACE ( 'NONE', ( #179 ), #9, .T. ) ;
#48 = EDGE_CURVE ( 'NONE', #72, #209, #126, .T. ) ;
#49 = ORIENTED_EDGE ( 'NONE', *, *, #222, .F. ) ;
#50 = ORIENTED_EDGE ( 'NONE', *, *, #74, .F. ) ;
#51 = ORIENTED_EDGE ( 'NONE', *, *, #48, .T. ) ;
#52 = AXIS2_PLACEMENT_3D ( 'NONE', #221, #240, #125 ) ;
#53 = PRODUCT_CONTEXT ( 'NONE', #20, 'mechanical' ) ;
#54 = DIRECTION ( 'NONE',  ( -1.000000000000000000, 0.0000000000000000000, 0.0000000000000000000 ) ) ;
#55 = AXIS2_PLACEMENT_3D ( 'NONE', #30, #181, #90 ) ;
#56 = DIRECTION ( 'NONE',  ( -0.0000000000000000000, -0.0000000000000000000, -1.000000000000000000 ) ) ;
#57 = FACE_OUTER_BOUND ( 'NONE', #228, .T. ) ;
#58 = APPLICATION_CONTEXT ( 'automotive_design' ) ;
#59 = LENGTH_MEASURE_WITH_UNIT ( LENGTH_MEASURE( 0.02539999999999999897 ), #99 );
#60 = CARTESIAN_POINT ( 'NONE',  ( -0.06249999999999997918, 0.0000000000000000000, 2.781675027757221752 ) ) ;
#61 = EDGE_CURVE ( 'NONE', #224, #150, #15, .T. ) ;
#62 = SURFACE_STYLE_USAGE ( .BOTH. , #101 ) ;
#63 = VECTOR ( 'NONE', #132, 39.37007874015748143 ) ;
#64 = ORIENTED_EDGE ( 'NONE', *, *, #106, .T. ) ;
#65 = ORIENTED_EDGE ( 'NONE', *, *, #32, .F. ) ;
#66 = DIRECTION ( 'NONE',  ( -0.0000000000000000000, -0.0000000000000000000, -1.000000000000000000 ) ) ;
#67 = ADVANCED_BREP_SHAPE_REPRESENTATION ( 'Micro_RTC-125-23X', ( #175, #14 ), #133 ) ;
#68 = DIRECTION ( 'NONE',  ( 1.000000000000000000, 0.0000000000000000000, 0.0000000000000000000 ) ) ;
#69 = SURFACE_STYLE_FILL_AREA ( #12 ) ;
#70 = ORIENTED_EDGE ( 'NONE', *, *, #114, .T. ) ;
#71 = COLOUR_RGB ( '',0.7921568627450980005, 0.8196078431372548767, 0.9333333333333333481 ) ;
#72 = VERTEX_POINT ( 'NONE', #1 ) ;
#73 = ORIENTED_EDGE ( 'NONE', *, *, #239, .T. ) ;
#74 = EDGE_CURVE ( 'NONE', #163, #224, #231, .T. ) ;
#75 = AXIS2_PLACEMENT_3D ( 'NONE', #158, #156, #118 ) ;
#76 = SHAPE_DEFINITION_REPRESENTATION ( #18, #67 ) ;
#77 = EDGE_CURVE ( 'NONE', #163, #236, #46, .T. ) ;
#78 = CARTESIAN_POINT ( 'NONE',  ( 0.0000000000000000000, 0.0000000000000000000, 0.2183249722427783590 ) ) ;
#79 = DIRECTION ( 'NONE',  ( 0.0000000000000000000, 0.0000000000000000000, 1.000000000000000000 ) ) ;
#80 = CARTESIAN_POINT ( 'NONE',  ( 0.06249999999999997918, 7.654042494670954463E-18, 3.000000000000000444 ) ) ;
#81 = AXIS2_PLACEMENT_3D ( 'NONE', #27, #162, #41 ) ;
#82 = CARTESIAN_POINT ( 'NONE',  ( 0.0000000000000000000, 0.0000000000000000000, 3.000000000000000444 ) ) ;
#83 = DIRECTION ( 'NONE',  ( 1.000000000000000000, 0.0000000000000000000, 0.0000000000000000000 ) ) ;
#84 = PRODUCT_DEFINITION_CONTEXT ( 'detailed design', #58, 'design' ) ;
#85 = DIRECTION ( 'NONE',  ( -0.0000000000000000000, -0.0000000000000000000, -1.000000000000000000 ) ) ;
#86 = EDGE_CURVE ( 'NONE', #227, #150, #97, .T. ) ;
#87 = DIRECTION ( 'NONE',  ( -0.2588190451025217387, -3.169619151431776651E-17, -0.9659258262890679791 ) ) ;
#88 = CARTESIAN_POINT ( 'NONE',  ( 0.0000000000000000000, 0.0000000000000000000, 3.000000000000000444 ) ) ;
#89 =( LENGTH_UNIT ( ) NAMED_UNIT ( * ) SI_UNIT ( $, .METRE. ) );
#90 = DIRECTION ( 'NONE',  ( -1.000000000000000000, 0.0000000000000000000, 0.0000000000000000000 ) ) ;
#91 =( NAMED_UNIT ( * ) PLANE_ANGLE_UNIT ( ) SI_UNIT ( $, .RADIAN. ) );
#92 = ORIENTED_EDGE ( 'NONE', *, *, #48, .F. ) ;
#93 = AXIS2_PLACEMENT_3D ( 'NONE', #88, #96, #210 ) ;
#94 = CIRCLE ( 'NONE', #192, 0.06249999999999997918 ) ;
#95 = AXIS2_PLACEMENT_3D ( 'NONE', #100, #140, #216 ) ;
#96 = DIRECTION ( 'NONE',  ( 0.0000000000000000000, 0.0000000000000000000, 1.000000000000000000 ) ) ;
#97 = LINE ( 'NONE', #174, #154 ) ;
#98 = CARTESIAN_POINT ( 'NONE',  ( 0.0000000000000000000, 0.0000000000000000000, 0.0000000000000000000 ) ) ;
#99 =( LENGTH_UNIT ( ) NAMED_UNIT ( * ) SI_UNIT ( $, .METRE. ) );
#100 = CARTESIAN_POINT ( 'NONE',  ( 0.0000000000000000000, 0.0000000000000000000, 0.0000000000000000000 ) ) ;
#101 = SURFACE_SIDE_STYLE ('',( #24 ) ) ;
#102 = CARTESIAN_POINT ( 'NONE',  ( 0.0000000000000000000, 0.0000000000000000000, 0.0000000000000000000 ) ) ;
#103 = CARTESIAN_POINT ( 'NONE',  ( 0.06249999999999997918, 7.654042494670954463E-18, 2.781675027757221752 ) ) ;
#104 = DIRECTION ( 'NONE',  ( -0.0000000000000000000, -0.0000000000000000000, -1.000000000000000000 ) ) ;
#105 =( CONVERSION_BASED_UNIT ( 'INCH', #147 ) LENGTH_UNIT ( ) NAMED_UNIT ( #229 ) );
#106 = EDGE_CURVE ( 'NONE', #150, #224, #94, .T. ) ;
#107 = FACE_OUTER_BOUND ( 'NONE', #33, .T. ) ;
#108 = AXIS2_PLACEMENT_3D ( 'NONE', #219, #104, #25 ) ;
#109 = ORIENTED_EDGE ( 'NONE', *, *, #61, .T. ) ;
#110 = AXIS2_PLACEMENT_3D ( 'NONE', #146, #11, #144 ) ;
#111 = ORIENTED_EDGE ( 'NONE', *, *, #5, .F. ) ;
#112 = ADVANCED_FACE ( 'NONE', ( #212 ), #42, .T. ) ;
#113 = PRODUCT ( 'Micro_RTC-125-23X', 'Micro_RTC-125-23X', '', ( #53 ) ) ;
#114 = EDGE_CURVE ( 'NONE', #72, #236, #189, .T. ) ;
#115 = ORIENTED_EDGE ( 'NONE', *, *, #114, .F. ) ;
#116 = VECTOR ( 'NONE', #139, 39.37007874015748854 ) ;
#117 = DIRECTION ( 'NONE',  ( 0.0000000000000000000, 0.0000000000000000000, -1.000000000000000000 ) ) ;
#118 = DIRECTION ( 'NONE',  ( 1.000000000000000000, 0.0000000000000000000, 0.0000000000000000000 ) ) ;
#119 = DIRECTION ( 'NONE',  ( 0.2588190451025217387, 0.0000000000000000000, 0.9659258262890679791 ) ) ;
#120 = DIRECTION ( 'NONE',  ( 0.0000000000000000000, 0.0000000000000000000, 1.000000000000000000 ) ) ;
#121 = PRODUCT_DEFINITION_FORMATION_WITH_SPECIFIED_SOURCE ( 'ANY', '', #113, .NOT_KNOWN. ) ;
#122 = UNCERTAINTY_MEASURE_WITH_UNIT (LENGTH_MEASURE( 1.000000000000000082E-05 ), #105, 'distance_accuracy_value', 'NONE');
#123 = FACE_OUTER_BOUND ( 'NONE', #130, .T. ) ;
#124 = LINE ( 'NONE', #199, #249 ) ;
#125 = DIRECTION ( 'NONE',  ( -1.000000000000000000, 0.0000000000000000000, 0.0000000000000000000 ) ) ;
#126 = CIRCLE ( 'NONE', #171, 0.003999999999999999216 ) ;
#127 = CONICAL_SURFACE ( 'NONE', #95, 0.003999999999999999216, 0.2617993877991504625 ) ;
#128 = ORIENTED_EDGE ( 'NONE', *, *, #10, .T. ) ;
#129 = VECTOR ( 'NONE', #87, 39.37007874015748854 ) ;
#130 = EDGE_LOOP ( 'NONE', ( #44, #149, #64, #49 ) ) ;
#131 = CIRCLE ( 'NONE', #52, 0.003999999999999999216 ) ;
#132 = DIRECTION ( 'NONE',  ( -0.0000000000000000000, -0.0000000000000000000, -1.000000000000000000 ) ) ;
#133 =( GEOMETRIC_REPRESENTATION_CONTEXT ( 3 ) GLOBAL_UNCERTAINTY_ASSIGNED_CONTEXT ( ( #21 ) ) GLOBAL_UNIT_ASSIGNED_CONTEXT ( ( #177, #161, #190 ) ) REPRESENTATION_CONTEXT ( 'NONE', 'WORKASPACE' ) );
#134 = DIRECTION ( 'NONE',  ( -1.000000000000000000, 0.0000000000000000000, 0.0000000000000000000 ) ) ;
#135 = APPLICATION_PROTOCOL_DEFINITION ( 'draft international standard', 'automotive_design', 1998, #20 ) ;
#136 = ADVANCED_FACE ( 'NONE', ( #160 ), #180, .T. ) ;
#137 = DIRECTION ( 'NONE',  ( -1.000000000000000000, 0.0000000000000000000, 0.0000000000000000000 ) ) ;
#138 = CYLINDRICAL_SURFACE ( 'NONE', #6, 0.06249999999999997918 ) ;
#139 = DIRECTION ( 'NONE',  ( 0.2588190451025217387, 0.0000000000000000000, -0.9659258262890679791 ) ) ;
#140 = DIRECTION ( 'NONE',  ( 0.0000000000000000000, 0.0000000000000000000, 1.000000000000000000 ) ) ;
#141 = CARTESIAN_POINT ( 'NONE',  ( 0.003999999999999999216, 0.0000000000000000000, 3.000000000000000444 ) ) ;
#142 =( CONVERSION_BASED_UNIT ( 'INCH', #3 ) LENGTH_UNIT ( ) NAMED_UNIT ( #153 ) );
#143 = ADVANCED_FACE ( 'NONE', ( #107 ), #217, .T. ) ;
#144 = DIRECTION ( 'NONE',  ( -1.000000000000000000, 0.0000000000000000000, 0.0000000000000000000 ) ) ;
#145 = PRESENTATION_STYLE_ASSIGNMENT (( #62 ) ) ;
#146 = CARTESIAN_POINT ( 'NONE',  ( 0.0000000000000000000, 0.0000000000000000000, 2.781675027757221752 ) ) ;
#147 = LENGTH_MEASURE_WITH_UNIT ( LENGTH_MEASURE( 0.02539999999999999897 ), #164 );
#148 = ORIENTED_EDGE ( 'NONE', *, *, #239, .F. ) ;
#149 = ORIENTED_EDGE ( 'NONE', *, *, #86, .T. ) ;
#150 = VERTEX_POINT ( 'NONE', #176 ) ;
#151 = ADVANCED_FACE ( 'NONE', ( #233 ), #8, .F. ) ;
#152 = APPLICATION_PROTOCOL_DEFINITION ( 'draft international standard', 'automotive_design', 1998, #58 ) ;
#153 = DIMENSIONAL_EXPONENTS ( 1.000000000000000000, 0.0000000000000000000, 0.0000000000000000000, 0.0000000000000000000, 0.0000000000000000000, 0.0000000000000000000, 0.0000000000000000000 ) ;
#154 = VECTOR ( 'NONE', #36, 39.37007874015748854 ) ;
#155 = PRESENTATION_LAYER_ASSIGNMENT (  '', '', ( #29 ) ) ;
#156 = DIRECTION ( 'NONE',  ( 0.0000000000000000000, 0.0000000000000000000, -1.000000000000000000 ) ) ;
#157 = AXIS2_PLACEMENT_3D ( 'NONE', #173, #56, #137 ) ;
#158 = CARTESIAN_POINT ( 'NONE',  ( 0.0000000000000000000, 0.0000000000000000000, 3.000000000000000444 ) ) ;
#159 = FILL_AREA_STYLE_COLOUR ( '', #165 ) ;
#160 = FACE_OUTER_BOUND ( 'NONE', #202, .T. ) ;
#161 =( NAMED_UNIT ( * ) PLANE_ANGLE_UNIT ( ) SI_UNIT ( $, .RADIAN. ) );
#162 = DIRECTION ( 'NONE',  ( 0.0000000000000000000, 0.0000000000000000000, -1.000000000000000000 ) ) ;
#163 = VERTEX_POINT ( 'NONE', #103 ) ;
#164 =( LENGTH_UNIT ( ) NAMED_UNIT ( * ) SI_UNIT ( $, .METRE. ) );
#165 = COLOUR_RGB ( '',0.7921568627450980005, 0.8196078431372548767, 0.9333333333333333481 ) ;
#166 = EDGE_LOOP ( 'NONE', ( #115, #51, #73, #111 ) ) ;
#167 = DIRECTION ( 'NONE',  ( 0.0000000000000000000, 0.0000000000000000000, 1.000000000000000000 ) ) ;
#168 = ORIENTED_EDGE ( 'NONE', *, *, #74, .T. ) ;
#169 = MECHANICAL_DESIGN_GEOMETRIC_PRESENTATION_REPRESENTATION (  '', ( #246 ), #204 ) ;
#170 = ORIENTED_EDGE ( 'NONE', *, *, #243, .F. ) ;
#171 = AXIS2_PLACEMENT_3D ( 'NONE', #232, #19, #54 ) ;
#172 =( GEOMETRIC_REPRESENTATION_CONTEXT ( 3 ) GLOBAL_UNCERTAINTY_ASSIGNED_CONTEXT ( ( #122 ) ) GLOBAL_UNIT_ASSIGNED_CONTEXT ( ( #105, #91, #241 ) ) REPRESENTATION_CONTEXT ( 'NONE', 'WORKASPACE' ) );
#173 = CARTESIAN_POINT ( 'NONE',  ( 0.0000000000000000000, 0.0000000000000000000, 0.2183249722427783590 ) ) ;
#174 = CARTESIAN_POINT ( 'NONE',  ( -0.003999999999999999216, 4.898587196589411612E-19, 0.0000000000000000000 ) ) ;
#175 = MANIFOLD_SOLID_BREP ( 'Mirror1', #211 ) ;
#176 = CARTESIAN_POINT ( 'NONE',  ( -0.06249999999999997918, 0.0000000000000000000, 0.2183249722427783590 ) ) ;
#177 =( CONVERSION_BASED_UNIT ( 'INCH', #59 ) LENGTH_UNIT ( ) NAMED_UNIT ( #205 ) );
#178 = ORIENTED_EDGE ( 'NONE', *, *, #5, .T. ) ;
#179 = FACE_OUTER_BOUND ( 'NONE', #237, .T. ) ;
#180 = CYLINDRICAL_SURFACE ( 'NONE', #182, 0.06249999999999997918 ) ;
#181 = DIRECTION ( 'NONE',  ( -0.0000000000000000000, -0.0000000000000000000, -1.000000000000000000 ) ) ;
#182 = AXIS2_PLACEMENT_3D ( 'NONE', #82, #85, #196 ) ;
#183 = DIRECTION ( 'NONE',  ( 1.000000000000000000, 0.0000000000000000000, -0.0000000000000000000 ) ) ;
#184 = EDGE_LOOP ( 'NONE', ( #248, #65, #195, #109 ) ) ;
#185 = ORIENTED_EDGE ( 'NONE', *, *, #16, .T. ) ;
#186 = CIRCLE ( 'NONE', #55, 0.003999999999999999216 ) ;
#187 = ADVANCED_FACE ( 'NONE', ( #57 ), #138, .T. ) ;
#188 = DIRECTION ( 'NONE',  ( -0.0000000000000000000, -0.0000000000000000000, -1.000000000000000000 ) ) ;
#189 = LINE ( 'NONE', #218, #129 ) ;
#190 =( NAMED_UNIT ( * ) SI_UNIT ( $, .STERADIAN. ) SOLID_ANGLE_UNIT ( ) );
#191 = CARTESIAN_POINT ( 'NONE',  ( 0.06249999999999997918, 7.654042494670954463E-18, 0.2183249722427783590 ) ) ;
#192 = AXIS2_PLACEMENT_3D ( 'NONE', #78, #188, #2 ) ;
#193 = AXIS2_PLACEMENT_3D ( 'NONE', #39, #117, #134 ) ;
#194 = CARTESIAN_POINT ( 'NONE',  ( -0.06249999999999997918, 0.0000000000000000000, 3.000000000000000444 ) ) ;
#195 = ORIENTED_EDGE ( 'NONE', *, *, #222, .T. ) ;
#196 = DIRECTION ( 'NONE',  ( -1.000000000000000000, 0.0000000000000000000, 0.0000000000000000000 ) ) ;
#197 = CARTESIAN_POINT ( 'NONE',  ( 0.003999999999999999216, 0.0000000000000000000, 0.0000000000000000000 ) ) ;
#198 = SURFACE_SIDE_STYLE ('',( #69 ) ) ;
#199 = CARTESIAN_POINT ( 'NONE',  ( 0.003999999999999999216, 0.0000000000000000000, 0.0000000000000000000 ) ) ;
#200 = FILL_AREA_STYLE_COLOUR ( '', #71 ) ;
#201 = ORIENTED_EDGE ( 'NONE', *, *, #77, .F. ) ;
#202 = EDGE_LOOP ( 'NONE', ( #178, #168, #34, #170 ) ) ;
#203 = CONICAL_SURFACE ( 'NONE', #242, 0.003999999999999999216, 0.2617993877991504625 ) ;
#204 =( GEOMETRIC_REPRESENTATION_CONTEXT ( 3 ) GLOBAL_UNCERTAINTY_ASSIGNED_CONTEXT ( ( #213 ) ) GLOBAL_UNIT_ASSIGNED_CONTEXT ( ( #142, #238, #7 ) ) REPRESENTATION_CONTEXT ( 'NONE', 'WORKASPACE' ) );
#205 = DIMENSIONAL_EXPONENTS ( 1.000000000000000000, 0.0000000000000000000, 0.0000000000000000000, 0.0000000000000000000, 0.0000000000000000000, 0.0000000000000000000, 0.0000000000000000000 ) ;
#206 = EDGE_LOOP ( 'NONE', ( #43, #128 ) ) ;
#207 = PRODUCT_RELATED_PRODUCT_CATEGORY ( 'part', '', ( #113 ) ) ;
#208 = CIRCLE ( 'NONE', #108, 0.003999999999999999216 ) ;
#209 = VERTEX_POINT ( 'NONE', #220 ) ;
#210 = DIRECTION ( 'NONE',  ( 1.000000000000000000, 0.0000000000000000000, -0.0000000000000000000 ) ) ;
#211 = CLOSED_SHELL ( 'NONE', ( #143, #38, #136, #187, #226, #151, #112, #47 ) ) ;
#212 = FACE_OUTER_BOUND ( 'NONE', #166, .T. ) ;
#213 = UNCERTAINTY_MEASURE_WITH_UNIT (LENGTH_MEASURE( 1.000000000000000082E-05 ), #142, 'distance_accuracy_value', 'NONE');
#214 = CARTESIAN_POINT ( 'NONE',  ( 0.0000000000000000000, 0.0000000000000000000, 3.000000000000000444 ) ) ;
#215 = LINE ( 'NONE', #194, #225 ) ;
#216 = DIRECTION ( 'NONE',  ( 1.000000000000000000, 0.0000000000000000000, 0.0000000000000000000 ) ) ;
#217 = CONICAL_SURFACE ( 'NONE', #81, 0.003999999999999999216, 0.2617993877991504625 ) ;
#218 = CARTESIAN_POINT ( 'NONE',  ( -0.003999999999999999216, -4.898587196589411612E-19, 3.000000000000000444 ) ) ;
#219 = CARTESIAN_POINT ( 'NONE',  ( 0.0000000000000000000, 0.0000000000000000000, 0.0000000000000000000 ) ) ;
#220 = CARTESIAN_POINT ( 'NONE',  ( 0.003999999999999999216, 0.0000000000000000000, 3.000000000000000444 ) ) ;
#221 = CARTESIAN_POINT ( 'NONE',  ( 0.0000000000000000000, 0.0000000000000000000, 3.000000000000000444 ) ) ;
#222 = EDGE_CURVE ( 'NONE', #31, #224, #124, .T. ) ;
#223 = SURFACE_STYLE_USAGE ( .BOTH. , #198 ) ;
#224 = VERTEX_POINT ( 'NONE', #191 ) ;
#225 = VECTOR ( 'NONE', #23, 39.37007874015748143 ) ;
#226 = ADVANCED_FACE ( 'NONE', ( #22 ), #127, .T. ) ;
#227 = VERTEX_POINT ( 'NONE', #235 ) ;
#228 = EDGE_LOOP ( 'NONE', ( #50, #244, #245, #13 ) ) ;
#229 = DIMENSIONAL_EXPONENTS ( 1.000000000000000000, 0.0000000000000000000, 0.0000000000000000000, 0.0000000000000000000, 0.0000000000000000000, 0.0000000000000000000, 0.0000000000000000000 ) ;
#230 = MECHANICAL_DESIGN_GEOMETRIC_PRESENTATION_REPRESENTATION (  '', ( #29 ), #172 ) ;
#231 = LINE ( 'NONE', #80, #63 ) ;
#232 = CARTESIAN_POINT ( 'NONE',  ( 0.0000000000000000000, 0.0000000000000000000, 3.000000000000000444 ) ) ;
#233 = FACE_OUTER_BOUND ( 'NONE', #206, .T. ) ;
#234 = LINE ( 'NONE', #141, #116 ) ;
#235 = CARTESIAN_POINT ( 'NONE',  ( -0.003999999999999999216, 4.071950607164948101E-18, 0.0000000000000000000 ) ) ;
#236 = VERTEX_POINT ( 'NONE', #60 ) ;
#237 = EDGE_LOOP ( 'NONE', ( #35, #92 ) ) ;
#238 =( NAMED_UNIT ( * ) PLANE_ANGLE_UNIT ( ) SI_UNIT ( $, .RADIAN. ) );
#239 = EDGE_CURVE ( 'NONE', #209, #163, #234, .T. ) ;
#240 = DIRECTION ( 'NONE',  ( 0.0000000000000000000, 0.0000000000000000000, -1.000000000000000000 ) ) ;
#241 =( NAMED_UNIT ( * ) SI_UNIT ( $, .STERADIAN. ) SOLID_ANGLE_UNIT ( ) );
#242 = AXIS2_PLACEMENT_3D ( 'NONE', #102, #167, #68 ) ;
#243 = EDGE_CURVE ( 'NONE', #236, #150, #215, .T. ) ;
#244 = ORIENTED_EDGE ( 'NONE', *, *, #77, .T. ) ;
#245 = ORIENTED_EDGE ( 'NONE', *, *, #243, .T. ) ;
#246 = STYLED_ITEM ( 'NONE', ( #145 ), #175 ) ;
#247 = PRODUCT_DEFINITION ( 'UNKNOWN', '', #121, #84 ) ;
#248 = ORIENTED_EDGE ( 'NONE', *, *, #86, .F. ) ;
#249 = VECTOR ( 'NONE', #119, 39.37007874015748854 ) ;
ENDSEC;
END-ISO-10303-21;
