ISO-10303-21;
HEADER;
FILE_DESCRIPTION (( 'STEP AP214' ),
    '1' );
FILE_NAME ('81934.STEP',
    '2023-06-30T22:36:21',
    ( '' ),
    ( '' ),
    'SwSTEP 2.0',
    'SolidWorks 2023',
    '' );
FILE_SCHEMA (( 'AUTOMOTIVE_DESIGN' ));
ENDSEC;

DATA;
#1 = DIMENSIONAL_EXPONENTS ( 1.000000000000000000, 0.000000000000000000, 0.000000000000000000, 0.000000000000000000, 0.000000000000000000, 0.000000000000000000, 0.000000000000000000 ) ;
#2 = COLOUR_RGB ( '',1.000000000000000000, 0.000000000000000000, 0.000000000000000000 ) ;
#3 = DIRECTION ( 'NONE',  ( 1.000000000000000000, 0.000000000000000000, 0.000000000000000000 ) ) ;
#4 = CARTESIAN_POINT ( 'NONE',  ( 0.000000000000000000, 1.625000000000000000, 0.000000000000000000 ) ) ;
#5 = DIMENSIONAL_EXPONENTS ( 1.000000000000000000, 0.000000000000000000, 0.000000000000000000, 0.000000000000000000, 0.000000000000000000, 0.000000000000000000, 0.000000000000000000 ) ;
#6 = CIRCLE ( 'NONE', #368, 0.2500000000000000555 ) ;
#7 = AXIS2_PLACEMENT_3D ( 'NONE', #345, #80, #17 ) ;
#8 = EDGE_CURVE ( 'NONE', #206, #210, #79, .T. ) ;
#9 = DIRECTION ( 'NONE',  ( 1.000000000000000000, 0.000000000000000000, 0.000000000000000000 ) ) ;
#10 = LINE ( 'NONE', #184, #56 ) ;
#11 = CIRCLE ( 'NONE', #232, 0.2499999999999998335 ) ;
#12 = CARTESIAN_POINT ( 'NONE',  ( 3.061616997868382402E-17, 0.000000000000000000, 0.2499999999999999167 ) ) ;
#13 = AXIS2_PLACEMENT_3D ( 'NONE', #250, #73, #40 ) ;
#14 = PLANE ( 'NONE',  #222 ) ;
#15 = LENGTH_MEASURE_WITH_UNIT ( LENGTH_MEASURE( 0.02539999999999999897 ), #247 );
#16 = ADVANCED_FACE ( 'NONE', ( #86 ), #205, .T. ) ;
#17 = DIRECTION ( 'NONE',  ( 1.000000000000000000, 0.000000000000000000, -1.224646799147353207E-16 ) ) ;
#18 = APPLICATION_CONTEXT ( 'automotive_design' ) ;
#19 = PRESENTATION_LAYER_ASSIGNMENT (  '', '', ( #181 ) ) ;
#20 = DIRECTION ( 'NONE',  ( -1.000000000000000000, -1.224646799147353207E-16, 0.000000000000000000 ) ) ;
#21 = ORIENTED_EDGE ( 'NONE', *, *, #92, .F. ) ;
#22 = VERTEX_POINT ( 'NONE', #249 ) ;
#23 = SURFACE_STYLE_USAGE ( .BOTH. , #365 ) ;
#24 = SPHERICAL_SURFACE ( 'NONE', #350, 0.2500000000000000555 ) ;
#25 = AXIS2_PLACEMENT_3D ( 'NONE', #356, #321, #9 ) ;
#26 = CIRCLE ( 'NONE', #298, 0.2500000000000000555 ) ;
#27 = CARTESIAN_POINT ( 'NONE',  ( 1.683889348827610999E-16, 1.625000000000000000, 0.000000000000000000 ) ) ;
#28 = ORIENTED_EDGE ( 'NONE', *, *, #195, .F. ) ;
#29 = FILL_AREA_STYLE_COLOUR ( '', #285 ) ;
#30 = DIMENSIONAL_EXPONENTS ( 1.000000000000000000, 0.000000000000000000, 0.000000000000000000, 0.000000000000000000, 0.000000000000000000, 0.000000000000000000, 0.000000000000000000 ) ;
#31 =( NAMED_UNIT ( * ) PLANE_ANGLE_UNIT ( ) SI_UNIT ( $, .RADIAN. ) );
#32 = DIRECTION ( 'NONE',  ( -0.000000000000000000, -1.000000000000000000, -0.000000000000000000 ) ) ;
#33 =( LENGTH_UNIT ( ) NAMED_UNIT ( * ) SI_UNIT ( $, .METRE. ) );
#34 = CIRCLE ( 'NONE', #105, 0.2500000000000000555 ) ;
#35 = DIRECTION ( 'NONE',  ( -0.000000000000000000, -1.000000000000000000, -0.000000000000000000 ) ) ;
#36 = SURFACE_STYLE_FILL_AREA ( #97 ) ;
#37 = SURFACE_STYLE_FILL_AREA ( #326 ) ;
#38 = CYLINDRICAL_SURFACE ( 'NONE', #13, 0.2499999999999998057 ) ;
#39 = FACE_OUTER_BOUND ( 'NONE', #320, .T. ) ;
#40 = DIRECTION ( 'NONE',  ( -1.000000000000000000, 0.000000000000000000, 0.000000000000000000 ) ) ;
#41 = DIRECTION ( 'NONE',  ( 0.000000000000000000, 0.000000000000000000, -1.000000000000000000 ) ) ;
#42 = PRESENTATION_LAYER_ASSIGNMENT (  '', '', ( #156 ) ) ;
#43 = DIRECTION ( 'NONE',  ( -1.000000000000000000, 0.000000000000000000, 0.000000000000000000 ) ) ;
#44 = CARTESIAN_POINT ( 'NONE',  ( 0.000000000000000000, 0.2500000000000000555, -0.2500000000000000555 ) ) ;
#45 = UNCERTAINTY_MEASURE_WITH_UNIT (LENGTH_MEASURE( 1.000000000000000082E-05 ), #57, 'distance_accuracy_value', 'NONE');
#46 = ORIENTED_EDGE ( 'NONE', *, *, #237, .F. ) ;
#47 = DIRECTION ( 'NONE',  ( -0.000000000000000000, -1.000000000000000000, -0.000000000000000000 ) ) ;
#48 = VERTEX_POINT ( 'NONE', #185 ) ;
#49 = CARTESIAN_POINT ( 'NONE',  ( 0.2499999999999998335, 1.625000000000000000, 3.061616997868381785E-17 ) ) ;
#50 = MECHANICAL_DESIGN_GEOMETRIC_PRESENTATION_REPRESENTATION (  '', ( #315 ), #346 ) ;
#51 = EDGE_LOOP ( 'NONE', ( #242, #308, #208, #28, #277 ) ) ;
#52 = CARTESIAN_POINT ( 'NONE',  ( 0.2499999999999998335, 4.000000000000000000, 0.000000000000000000 ) ) ;
#53 = ADVANCED_BREP_SHAPE_REPRESENTATION ( '81934', ( #133, #127, #266 ), #236 ) ;
#54 = DIMENSIONAL_EXPONENTS ( 1.000000000000000000, 0.000000000000000000, 0.000000000000000000, 0.000000000000000000, 0.000000000000000000, 0.000000000000000000, 0.000000000000000000 ) ;
#55 =( NAMED_UNIT ( * ) SI_UNIT ( $, .STERADIAN. ) SOLID_ANGLE_UNIT ( ) );
#56 = VECTOR ( 'NONE', #155, 39.37007874015748143 ) ;
#57 =( CONVERSION_BASED_UNIT ( 'INCH', #204 ) LENGTH_UNIT ( ) NAMED_UNIT ( #203 ) );
#58 = DIMENSIONAL_EXPONENTS ( 1.000000000000000000, 0.000000000000000000, 0.000000000000000000, 0.000000000000000000, 0.000000000000000000, 0.000000000000000000, 0.000000000000000000 ) ;
#59 = ADVANCED_FACE ( 'NONE', ( #39 ), #243, .T. ) ;
#60 = VERTEX_POINT ( 'NONE', #152 ) ;
#61 = CIRCLE ( 'NONE', #202, 0.2499999999999999722 ) ;
#62 = ORIENTED_EDGE ( 'NONE', *, *, #372, .F. ) ;
#63 = CARTESIAN_POINT ( 'NONE',  ( 0.000000000000000000, 0.2500000000000000555, 0.000000000000000000 ) ) ;
#64 = CIRCLE ( 'NONE', #260, 0.2500000000000000555 ) ;
#65 = LENGTH_MEASURE_WITH_UNIT ( LENGTH_MEASURE( 0.02539999999999999897 ), #211 );
#66 = FILL_AREA_STYLE_COLOUR ( '', #2 ) ;
#67 = EDGE_CURVE ( 'NONE', #22, #83, #6, .T. ) ;
#68 =( NAMED_UNIT ( * ) PLANE_ANGLE_UNIT ( ) SI_UNIT ( $, .RADIAN. ) );
#69 = CARTESIAN_POINT ( 'NONE',  ( 0.000000000000000000, 0.000000000000000000, -0.2499999999999999167 ) ) ;
#70 = DIRECTION ( 'NONE',  ( -0.000000000000000000, -1.000000000000000000, -0.000000000000000000 ) ) ;
#71 =( GEOMETRIC_REPRESENTATION_CONTEXT ( 3 ) GLOBAL_UNCERTAINTY_ASSIGNED_CONTEXT ( ( #282 ) ) GLOBAL_UNIT_ASSIGNED_CONTEXT ( ( #338, #311, #55 ) ) REPRESENTATION_CONTEXT ( 'NONE', 'WORKASPACE' ) );
#72 = DIRECTION ( 'NONE',  ( -0.000000000000000000, -1.000000000000000000, -0.000000000000000000 ) ) ;
#73 = DIRECTION ( 'NONE',  ( -1.224646799147353207E-16, 1.000000000000000000, -0.000000000000000000 ) ) ;
#74 = FACE_OUTER_BOUND ( 'NONE', #142, .T. ) ;
#75 = PRODUCT_DEFINITION_FORMATION_WITH_SPECIFIED_SOURCE ( 'ANY', '', #138, .NOT_KNOWN. ) ;
#76 = DIRECTION ( 'NONE',  ( 0.000000000000000000, 0.000000000000000000, -1.000000000000000000 ) ) ;
#77 = ORIENTED_EDGE ( 'NONE', *, *, #256, .F. ) ;
#78 = UNCERTAINTY_MEASURE_WITH_UNIT (LENGTH_MEASURE( 1.000000000000000082E-05 ), #188, 'distance_accuracy_value', 'NONE');
#79 = CIRCLE ( 'NONE', #140, 0.2499999999999996669 ) ;
#80 = DIRECTION ( 'NONE',  ( 1.224646799147353207E-16, -0.000000000000000000, 1.000000000000000000 ) ) ;
#81 = SURFACE_STYLE_USAGE ( .BOTH. , #347 ) ;
#82 = DIRECTION ( 'NONE',  ( 1.224646799147353207E-16, -1.000000000000000000, 0.000000000000000000 ) ) ;
#83 = VERTEX_POINT ( 'NONE', #212 ) ;
#84 = MECHANICAL_DESIGN_GEOMETRIC_PRESENTATION_REPRESENTATION (  '', ( #284 ), #238 ) ;
#85 = DIMENSIONAL_EXPONENTS ( 1.000000000000000000, 0.000000000000000000, 0.000000000000000000, 0.000000000000000000, 0.000000000000000000, 0.000000000000000000, 0.000000000000000000 ) ;
#86 = FACE_OUTER_BOUND ( 'NONE', #261, .T. ) ;
#87 = PRESENTATION_LAYER_ASSIGNMENT (  '', '', ( #233 ) ) ;
#88 = CYLINDRICAL_SURFACE ( 'NONE', #153, 0.2499999999999999167 ) ;
#89 = ORIENTED_EDGE ( 'NONE', *, *, #115, .F. ) ;
#90 =( GEOMETRIC_REPRESENTATION_CONTEXT ( 3 ) GLOBAL_UNCERTAINTY_ASSIGNED_CONTEXT ( ( #328 ) ) GLOBAL_UNIT_ASSIGNED_CONTEXT ( ( #291, #31, #94 ) ) REPRESENTATION_CONTEXT ( 'NONE', 'WORKASPACE' ) );
#91 = LENGTH_MEASURE_WITH_UNIT ( LENGTH_MEASURE( 0.02539999999999999897 ), #135 );
#92 = EDGE_CURVE ( 'NONE', #83, #207, #34, .T. ) ;
#93 = CARTESIAN_POINT ( 'NONE',  ( 0.2500000000000000000, 0.2500000000000000555, 0.000000000000000000 ) ) ;
#94 =( NAMED_UNIT ( * ) SI_UNIT ( $, .STERADIAN. ) SOLID_ANGLE_UNIT ( ) );
#95 =( NAMED_UNIT ( * ) SI_UNIT ( $, .STERADIAN. ) SOLID_ANGLE_UNIT ( ) );
#96 = APPLICATION_CONTEXT ( 'automotive_design' ) ;
#97 = FILL_AREA_STYLE ('',( #297 ) ) ;
#98 =( LENGTH_UNIT ( ) NAMED_UNIT ( * ) SI_UNIT ( $, .METRE. ) );
#99 =( NAMED_UNIT ( * ) SI_UNIT ( $, .STERADIAN. ) SOLID_ANGLE_UNIT ( ) );
#100 = AXIS2_PLACEMENT_3D ( 'NONE', #309, #194, #163 ) ;
#101 =( GEOMETRIC_REPRESENTATION_CONTEXT ( 3 ) GLOBAL_UNCERTAINTY_ASSIGNED_CONTEXT ( ( #221 ) ) GLOBAL_UNIT_ASSIGNED_CONTEXT ( ( #143, #186, #95 ) ) REPRESENTATION_CONTEXT ( 'NONE', 'WORKASPACE' ) );
#102 = EDGE_CURVE ( 'NONE', #231, #60, #11, .T. ) ;
#103 = CARTESIAN_POINT ( 'NONE',  ( -3.061616997868383018E-17, 0.2500000000000000000, 0.000000000000000000 ) ) ;
#104 = CARTESIAN_POINT ( 'NONE',  ( 0.000000000000000000, 0.2500000000000000555, 0.000000000000000000 ) ) ;
#105 = AXIS2_PLACEMENT_3D ( 'NONE', #63, #32, #267 ) ;
#106 = COLOUR_RGB ( '',1.000000000000000000, 0.000000000000000000, 0.000000000000000000 ) ;
#107 = EDGE_CURVE ( 'NONE', #231, #207, #246, .T. ) ;
#108 = DIRECTION ( 'NONE',  ( 1.000000000000000000, 0.000000000000000000, 0.000000000000000000 ) ) ;
#109 = DIRECTION ( 'NONE',  ( -1.224646799147353207E-16, 1.000000000000000000, -0.000000000000000000 ) ) ;
#110 =( GEOMETRIC_REPRESENTATION_CONTEXT ( 3 ) GLOBAL_UNCERTAINTY_ASSIGNED_CONTEXT ( ( #201 ) ) GLOBAL_UNIT_ASSIGNED_CONTEXT ( ( #324, #68, #146 ) ) REPRESENTATION_CONTEXT ( 'NONE', 'WORKASPACE' ) );
#111 = EDGE_LOOP ( 'NONE', ( #77, #318 ) ) ;
#112 = DIRECTION ( 'NONE',  ( 0.000000000000000000, 0.000000000000000000, -1.000000000000000000 ) ) ;
#113 = PRESENTATION_STYLE_ASSIGNMENT (( #224 ) ) ;
#114 = STYLED_ITEM ( 'NONE', ( #198 ), #133 ) ;
#115 = EDGE_CURVE ( 'NONE', #369, #353, #61, .T. ) ;
#116 = DIRECTION ( 'NONE',  ( -1.000000000000000000, 0.000000000000000000, 0.000000000000000000 ) ) ;
#117 = DIRECTION ( 'NONE',  ( 0.000000000000000000, 0.000000000000000000, -1.000000000000000000 ) ) ;
#118 = FILL_AREA_STYLE ('',( #178 ) ) ;
#119 = DIRECTION ( 'NONE',  ( 0.000000000000000000, 0.000000000000000000, -1.000000000000000000 ) ) ;
#120 = MECHANICAL_DESIGN_GEOMETRIC_PRESENTATION_REPRESENTATION (  '', ( #181 ), #90 ) ;
#121 = MECHANICAL_DESIGN_GEOMETRIC_PRESENTATION_REPRESENTATION (  '', ( #233 ), #316 ) ;
#122 = APPLICATION_PROTOCOL_DEFINITION ( 'draft international standard', 'automotive_design', 1998, #96 ) ;
#123 = SURFACE_STYLE_FILL_AREA ( #244 ) ;
#124 = SURFACE_STYLE_FILL_AREA ( #187 ) ;
#125 = LINE ( 'NONE', #12, #197 ) ;
#126 = PLANE ( 'NONE',  #189 ) ;
#127 = MANIFOLD_SOLID_BREP ( 'Revolve - Tool Body (Straight Shanked)', #355 ) ;
#128 = ORIENTED_EDGE ( 'NONE', *, *, #8, .T. ) ;
#129 = AXIS2_PLACEMENT_3D ( 'NONE', #218, #70, #117 ) ;
#130 =( NAMED_UNIT ( * ) SI_UNIT ( $, .STERADIAN. ) SOLID_ANGLE_UNIT ( ) );
#131 = CIRCLE ( 'NONE', #245, 0.2499999999999998335 ) ;
#132 = ORIENTED_EDGE ( 'NONE', *, *, #327, .T. ) ;
#133 = MANIFOLD_SOLID_BREP ( 'Revolve - Cutting Edge', #172 ) ;
#134 = VERTEX_POINT ( 'NONE', #93 ) ;
#135 =( LENGTH_UNIT ( ) NAMED_UNIT ( * ) SI_UNIT ( $, .METRE. ) );
#136 = VECTOR ( 'NONE', #35, 39.37007874015748143 ) ;
#137 = DIRECTION ( 'NONE',  ( 0.000000000000000000, 0.000000000000000000, 1.000000000000000000 ) ) ;
#138 = PRODUCT ( '81934', '81934', '', ( #359 ) ) ;
#139 = ADVANCED_FACE ( 'NONE', ( #147 ), #88, .T. ) ;
#140 = AXIS2_PLACEMENT_3D ( 'NONE', #27, #109, #235 ) ;
#141 = ORIENTED_EDGE ( 'NONE', *, *, #107, .T. ) ;
#142 = EDGE_LOOP ( 'NONE', ( #165, #343, #62, #263 ) ) ;
#143 =( CONVERSION_BASED_UNIT ( 'INCH', #91 ) LENGTH_UNIT ( ) NAMED_UNIT ( #174 ) );
#144 = EDGE_LOOP ( 'NONE', ( #283, #340, #171, #371 ) ) ;
#145 = SURFACE_SIDE_STYLE ('',( #36 ) ) ;
#146 =( NAMED_UNIT ( * ) SI_UNIT ( $, .STERADIAN. ) SOLID_ANGLE_UNIT ( ) );
#147 = FACE_OUTER_BOUND ( 'NONE', #51, .T. ) ;
#148 = AXIS2_PLACEMENT_3D ( 'NONE', #193, #344, #20 ) ;
#149 = SURFACE_STYLE_USAGE ( .BOTH. , #361 ) ;
#150 = CARTESIAN_POINT ( 'NONE',  ( 0.000000000000000000, 1.625000000000000000, -0.2499999999999998335 ) ) ;
#151 = DIRECTION ( 'NONE',  ( 0.000000000000000000, 0.000000000000000000, -1.000000000000000000 ) ) ;
#152 = CARTESIAN_POINT ( 'NONE',  ( 3.061616997868381785E-17, 1.625000000000000000, 0.2499999999999998335 ) ) ;
#153 = AXIS2_PLACEMENT_3D ( 'NONE', #305, #366, #41 ) ;
#154 = SURFACE_STYLE_USAGE ( .BOTH. , #302 ) ;
#155 = DIRECTION ( 'NONE',  ( -1.224646799147353207E-16, 1.000000000000000000, -0.000000000000000000 ) ) ;
#156 = STYLED_ITEM ( 'NONE', ( #255 ), #127 ) ;
#157 = CYLINDRICAL_SURFACE ( 'NONE', #100, 0.2499999999999998057 ) ;
#158 = UNCERTAINTY_MEASURE_WITH_UNIT (LENGTH_MEASURE( 1.000000000000000082E-05 ), #299, 'distance_accuracy_value', 'NONE');
#159 = PRESENTATION_STYLE_ASSIGNMENT (( #223 ) ) ;
#160 = CARTESIAN_POINT ( 'NONE',  ( -0.2499999999999999167, 4.000000000000000000, 0.000000000000000000 ) ) ;
#161 = ADVANCED_FACE ( 'NONE', ( #190 ), #157, .T. ) ;
#162 = ORIENTED_EDGE ( 'NONE', *, *, #67, .F. ) ;
#163 = DIRECTION ( 'NONE',  ( -1.000000000000000000, 0.000000000000000000, 0.000000000000000000 ) ) ;
#164 = FACE_OUTER_BOUND ( 'NONE', #168, .T. ) ;
#165 = ORIENTED_EDGE ( 'NONE', *, *, #256, .T. ) ;
#166 = CARTESIAN_POINT ( 'NONE',  ( -0.2499999999999994726, 1.625000000000000000, 0.000000000000000000 ) ) ;
#167 =( LENGTH_UNIT ( ) NAMED_UNIT ( * ) SI_UNIT ( $, .METRE. ) );
#168 = EDGE_LOOP ( 'NONE', ( #268, #258 ) ) ;
#169 = DIRECTION ( 'NONE',  ( 1.000000000000000000, 1.224646799147353207E-16, 0.000000000000000000 ) ) ;
#170 = PRESENTATION_LAYER_ASSIGNMENT (  '', '', ( #284 ) ) ;
#171 = ORIENTED_EDGE ( 'NONE', *, *, #195, .T. ) ;
#172 = CLOSED_SHELL ( 'NONE', ( #59, #139, #213, #16, #295 ) ) ;
#173 = DIRECTION ( 'NONE',  ( 0.000000000000000000, 0.000000000000000000, -1.000000000000000000 ) ) ;
#174 = DIMENSIONAL_EXPONENTS ( 1.000000000000000000, 0.000000000000000000, 0.000000000000000000, 0.000000000000000000, 0.000000000000000000, 0.000000000000000000, 0.000000000000000000 ) ;
#175 = SURFACE_SIDE_STYLE ('',( #37 ) ) ;
#176 = CIRCLE ( 'NONE', #219, 0.2499999999999999722 ) ;
#177 = EDGE_LOOP ( 'NONE', ( #280, #128, #192, #89 ) ) ;
#178 = FILL_AREA_STYLE_COLOUR ( '', #290 ) ;
#179 = DIRECTION ( 'NONE',  ( -1.000000000000000000, 0.000000000000000000, 0.000000000000000000 ) ) ;
#180 = PRODUCT_DEFINITION_CONTEXT ( 'detailed design', #96, 'design' ) ;
#181 = STYLED_ITEM ( 'NONE', ( #272 ), #59 ) ;
#182 = LENGTH_MEASURE_WITH_UNIT ( LENGTH_MEASURE( 0.02539999999999999897 ), #360 );
#183 = CIRCLE ( 'NONE', #7, 0.2500000000000000555 ) ;
#184 = CARTESIAN_POINT ( 'NONE',  ( 0.2499999999999996669, 4.000000000000000000, 3.061616997868380553E-17 ) ) ;
#185 = CARTESIAN_POINT ( 'NONE',  ( -1.530808498934191201E-17, -3.414809992080329023E-17, 0.000000000000000000 ) ) ;
#186 =( NAMED_UNIT ( * ) PLANE_ANGLE_UNIT ( ) SI_UNIT ( $, .RADIAN. ) );
#187 = FILL_AREA_STYLE ('',( #329 ) ) ;
#188 =( CONVERSION_BASED_UNIT ( 'INCH', #15 ) LENGTH_UNIT ( ) NAMED_UNIT ( #85 ) );
#189 = AXIS2_PLACEMENT_3D ( 'NONE', #52, #82, #169 ) ;
#190 = FACE_OUTER_BOUND ( 'NONE', #177, .T. ) ;
#191 = LENGTH_MEASURE_WITH_UNIT ( LENGTH_MEASURE( 0.02539999999999999897 ), #33 );
#192 = ORIENTED_EDGE ( 'NONE', *, *, #199, .T. ) ;
#193 = CARTESIAN_POINT ( 'NONE',  ( 1.683889348827610752E-16, 1.625000000000000000, 0.000000000000000000 ) ) ;
#194 = DIRECTION ( 'NONE',  ( -1.224646799147353207E-16, 1.000000000000000000, -0.000000000000000000 ) ) ;
#195 = EDGE_CURVE ( 'NONE', #207, #134, #215, .T. ) ;
#196 = COLOUR_RGB ( '',1.000000000000000000, 0.000000000000000000, 0.000000000000000000 ) ;
#197 = VECTOR ( 'NONE', #72, 39.37007874015748143 ) ;
#198 = PRESENTATION_STYLE_ASSIGNMENT (( #81 ) ) ;
#199 = EDGE_CURVE ( 'NONE', #210, #353, #333, .T. ) ;
#200 = EDGE_LOOP ( 'NONE', ( #351, #352 ) ) ;
#201 = UNCERTAINTY_MEASURE_WITH_UNIT (LENGTH_MEASURE( 1.000000000000000082E-05 ), #324, 'distance_accuracy_value', 'NONE');
#202 = AXIS2_PLACEMENT_3D ( 'NONE', #240, #269, #116 ) ;
#203 = DIMENSIONAL_EXPONENTS ( 1.000000000000000000, 0.000000000000000000, 0.000000000000000000, 0.000000000000000000, 0.000000000000000000, 0.000000000000000000, 0.000000000000000000 ) ;
#204 = LENGTH_MEASURE_WITH_UNIT ( LENGTH_MEASURE( 0.02539999999999999897 ), #167 );
#205 = CYLINDRICAL_SURFACE ( 'NONE', #129, 0.2499999999999999167 ) ;
#206 = VERTEX_POINT ( 'NONE', #49 ) ;
#207 = VERTEX_POINT ( 'NONE', #44 ) ;
#208 = ORIENTED_EDGE ( 'NONE', *, *, #314, .F. ) ;
#209 = DIRECTION ( 'NONE',  ( -0.000000000000000000, -1.000000000000000000, -0.000000000000000000 ) ) ;
#210 = VERTEX_POINT ( 'NONE', #166 ) ;
#211 =( LENGTH_UNIT ( ) NAMED_UNIT ( * ) SI_UNIT ( $, .METRE. ) );
#212 = CARTESIAN_POINT ( 'NONE',  ( -0.2500000000000000555, 0.2500000000000000555, 3.061616997868383018E-17 ) ) ;
#213 = ADVANCED_FACE ( 'NONE', ( #281 ), #14, .T. ) ;
#214 = FILL_AREA_STYLE_COLOUR ( '', #196 ) ;
#215 = CIRCLE ( 'NONE', #310, 0.2500000000000000555 ) ;
#216 = LENGTH_MEASURE_WITH_UNIT ( LENGTH_MEASURE( 0.02539999999999999897 ), #323 );
#217 = PRESENTATION_LAYER_ASSIGNMENT (  '', '', ( #315 ) ) ;
#218 = CARTESIAN_POINT ( 'NONE',  ( 0.000000000000000000, 0.000000000000000000, 0.000000000000000000 ) ) ;
#219 = AXIS2_PLACEMENT_3D ( 'NONE', #312, #370, #339 ) ;
#220 = CARTESIAN_POINT ( 'NONE',  ( 0.000000000000000000, 1.625000000000000000, 0.000000000000000000 ) ) ;
#221 = UNCERTAINTY_MEASURE_WITH_UNIT (LENGTH_MEASURE( 1.000000000000000082E-05 ), #143, 'distance_accuracy_value', 'NONE');
#222 = AXIS2_PLACEMENT_3D ( 'NONE', #227, #248, #363 ) ;
#223 = SURFACE_STYLE_USAGE ( .BOTH. , #145 ) ;
#224 = SURFACE_STYLE_USAGE ( .BOTH. , #275 ) ;
#225 = DIRECTION ( 'NONE',  ( 0.000000000000000000, 0.000000000000000000, -1.000000000000000000 ) ) ;
#226 = LENGTH_MEASURE_WITH_UNIT ( LENGTH_MEASURE( 0.02539999999999999897 ), #98 );
#227 = CARTESIAN_POINT ( 'NONE',  ( 0.000000000000000000, 1.625000000000000000, 0.000000000000000000 ) ) ;
#228 = MECHANICAL_DESIGN_GEOMETRIC_PRESENTATION_REPRESENTATION (  '', ( #114 ), #101 ) ;
#229 =( NAMED_UNIT ( * ) PLANE_ANGLE_UNIT ( ) SI_UNIT ( $, .RADIAN. ) );
#230 = PRODUCT_DEFINITION ( 'UNKNOWN', '', #75, #180 ) ;
#231 = VERTEX_POINT ( 'NONE', #150 ) ;
#232 = AXIS2_PLACEMENT_3D ( 'NONE', #4, #325, #112 ) ;
#233 = STYLED_ITEM ( 'NONE', ( #159 ), #295 ) ;
#234 = PRESENTATION_STYLE_ASSIGNMENT (( #23 ) ) ;
#235 = DIRECTION ( 'NONE',  ( -1.000000000000000000, 0.000000000000000000, 0.000000000000000000 ) ) ;
#236 =( GEOMETRIC_REPRESENTATION_CONTEXT ( 3 ) GLOBAL_UNCERTAINTY_ASSIGNED_CONTEXT ( ( #45 ) ) GLOBAL_UNIT_ASSIGNED_CONTEXT ( ( #57, #287, #357 ) ) REPRESENTATION_CONTEXT ( 'NONE', 'WORKASPACE' ) );
#237 = EDGE_CURVE ( 'NONE', #60, #22, #125, .T. ) ;
#238 =( GEOMETRIC_REPRESENTATION_CONTEXT ( 3 ) GLOBAL_UNCERTAINTY_ASSIGNED_CONTEXT ( ( #78 ) ) GLOBAL_UNIT_ASSIGNED_CONTEXT ( ( #188, #364, #99 ) ) REPRESENTATION_CONTEXT ( 'NONE', 'WORKASPACE' ) );
#239 = SURFACE_STYLE_FILL_AREA ( #286 ) ;
#240 = CARTESIAN_POINT ( 'NONE',  ( -1.224646799147352714E-16, 4.000000000000000000, 0.000000000000000000 ) ) ;
#241 = COLOUR_RGB ( '',1.000000000000000000, 0.000000000000000000, 0.000000000000000000 ) ;
#242 = ORIENTED_EDGE ( 'NONE', *, *, #102, .T. ) ;
#243 = SPHERICAL_SURFACE ( 'NONE', #25, 0.2500000000000000555 ) ;
#244 = FILL_AREA_STYLE ('',( #214 ) ) ;
#245 = AXIS2_PLACEMENT_3D ( 'NONE', #220, #330, #119 ) ;
#246 = LINE ( 'NONE', #69, #136 ) ;
#247 =( LENGTH_UNIT ( ) NAMED_UNIT ( * ) SI_UNIT ( $, .METRE. ) );
#248 = DIRECTION ( 'NONE',  ( 0.000000000000000000, 1.000000000000000000, 0.000000000000000000 ) ) ;
#249 = CARTESIAN_POINT ( 'NONE',  ( 3.061616997868383634E-17, 0.2500000000000000555, 0.2500000000000000555 ) ) ;
#250 = CARTESIAN_POINT ( 'NONE',  ( -1.224646799147352714E-16, 4.000000000000000000, 0.000000000000000000 ) ) ;
#251 = PRESENTATION_LAYER_ASSIGNMENT (  '', '', ( #319 ) ) ;
#252 = CIRCLE ( 'NONE', #276, 0.2499999999999996669 ) ;
#253 = EDGE_CURVE ( 'NONE', #206, #369, #10, .T. ) ;
#254 = FILL_AREA_STYLE ('',( #341 ) ) ;
#255 = PRESENTATION_STYLE_ASSIGNMENT (( #154 ) ) ;
#256 = EDGE_CURVE ( 'NONE', #210, #206, #252, .T. ) ;
#257 = CARTESIAN_POINT ( 'NONE',  ( 0.2499999999999998335, 4.000000000000000000, 3.061616997868381785E-17 ) ) ;
#258 = ORIENTED_EDGE ( 'NONE', *, *, #115, .T. ) ;
#259 = MECHANICAL_DESIGN_GEOMETRIC_PRESENTATION_REPRESENTATION (  '', ( #156 ), #71 ) ;
#260 = AXIS2_PLACEMENT_3D ( 'NONE', #274, #342, #76 ) ;
#261 = EDGE_LOOP ( 'NONE', ( #46, #292, #141, #21, #162 ) ) ;
#262 = EDGE_CURVE ( 'NONE', #134, #48, #26, .T. ) ;
#263 = ORIENTED_EDGE ( 'NONE', *, *, #199, .F. ) ;
#264 = EDGE_CURVE ( 'NONE', #60, #231, #131, .T. ) ;
#265 = DIRECTION ( 'NONE',  ( 0.000000000000000000, 0.000000000000000000, 1.000000000000000000 ) ) ;
#266 = AXIS2_PLACEMENT_3D ( 'NONE', #289, #265, #3 ) ;
#267 = DIRECTION ( 'NONE',  ( 0.000000000000000000, 0.000000000000000000, -1.000000000000000000 ) ) ;
#268 = ORIENTED_EDGE ( 'NONE', *, *, #372, .T. ) ;
#269 = DIRECTION ( 'NONE',  ( -1.224646799147353207E-16, 1.000000000000000000, -0.000000000000000000 ) ) ;
#270 = CARTESIAN_POINT ( 'NONE',  ( 1.683889348827610999E-16, 1.625000000000000000, 0.000000000000000000 ) ) ;
#271 = SHAPE_DEFINITION_REPRESENTATION ( #273, #53 ) ;
#272 = PRESENTATION_STYLE_ASSIGNMENT (( #149 ) ) ;
#273 = PRODUCT_DEFINITION_SHAPE ( 'NONE', 'NONE',  #230 ) ;
#274 = CARTESIAN_POINT ( 'NONE',  ( 0.000000000000000000, 0.2500000000000000555, 0.000000000000000000 ) ) ;
#275 = SURFACE_SIDE_STYLE ('',( #123 ) ) ;
#276 = AXIS2_PLACEMENT_3D ( 'NONE', #270, #300, #179 ) ;
#277 = ORIENTED_EDGE ( 'NONE', *, *, #107, .F. ) ;
#278 = ORIENTED_EDGE ( 'NONE', *, *, #67, .T. ) ;
#279 = CARTESIAN_POINT ( 'NONE',  ( -0.2500000000000001110, 4.000000000000000000, 0.000000000000000000 ) ) ;
#280 = ORIENTED_EDGE ( 'NONE', *, *, #253, .F. ) ;
#281 = FACE_OUTER_BOUND ( 'NONE', #200, .T. ) ;
#282 = UNCERTAINTY_MEASURE_WITH_UNIT (LENGTH_MEASURE( 1.000000000000000082E-05 ), #338, 'distance_accuracy_value', 'NONE');
#283 = ORIENTED_EDGE ( 'NONE', *, *, #327, .F. ) ;
#284 = STYLED_ITEM ( 'NONE', ( #234 ), #213 ) ;
#285 = COLOUR_RGB ( '',0.7921568627450980005, 0.8196078431372548767, 0.9333333333333333481 ) ;
#286 = FILL_AREA_STYLE ('',( #29 ) ) ;
#287 =( NAMED_UNIT ( * ) PLANE_ANGLE_UNIT ( ) SI_UNIT ( $, .RADIAN. ) );
#288 = ADVANCED_FACE ( 'NONE', ( #74 ), #38, .T. ) ;
#289 = CARTESIAN_POINT ( 'NONE',  ( 0.000000000000000000, 0.000000000000000000, 0.000000000000000000 ) ) ;
#290 = COLOUR_RGB ( '',1.000000000000000000, 0.000000000000000000, 0.000000000000000000 ) ;
#291 =( CONVERSION_BASED_UNIT ( 'INCH', #216 ) LENGTH_UNIT ( ) NAMED_UNIT ( #1 ) );
#292 = ORIENTED_EDGE ( 'NONE', *, *, #264, .T. ) ;
#293 = SURFACE_STYLE_USAGE ( .BOTH. , #175 ) ;
#294 = SURFACE_STYLE_FILL_AREA ( #118 ) ;
#295 = ADVANCED_FACE ( 'NONE', ( #332 ), #24, .T. ) ;
#296 = COLOUR_RGB ( '',0.7921568627450980005, 0.8196078431372548767, 0.9333333333333333481 ) ;
#297 = FILL_AREA_STYLE_COLOUR ( '', #106 ) ;
#298 = AXIS2_PLACEMENT_3D ( 'NONE', #303, #151, #43 ) ;
#299 =( CONVERSION_BASED_UNIT ( 'INCH', #182 ) LENGTH_UNIT ( ) NAMED_UNIT ( #30 ) );
#300 = DIRECTION ( 'NONE',  ( -1.224646799147353207E-16, 1.000000000000000000, -0.000000000000000000 ) ) ;
#301 = PRODUCT_RELATED_PRODUCT_CATEGORY ( 'part', '', ( #138 ) ) ;
#302 = SURFACE_SIDE_STYLE ('',( #124 ) ) ;
#303 = CARTESIAN_POINT ( 'NONE',  ( -3.061616997868383018E-17, 0.2500000000000000000, 0.000000000000000000 ) ) ;
#304 = VECTOR ( 'NONE', #306, 39.37007874015748143 ) ;
#305 = CARTESIAN_POINT ( 'NONE',  ( 0.000000000000000000, 0.000000000000000000, 0.000000000000000000 ) ) ;
#306 = DIRECTION ( 'NONE',  ( -1.224646799147353207E-16, 1.000000000000000000, -0.000000000000000000 ) ) ;
#307 = FACE_OUTER_BOUND ( 'NONE', #111, .T. ) ;
#308 = ORIENTED_EDGE ( 'NONE', *, *, #237, .T. ) ;
#309 = CARTESIAN_POINT ( 'NONE',  ( -1.224646799147352714E-16, 4.000000000000000000, 0.000000000000000000 ) ) ;
#310 = AXIS2_PLACEMENT_3D ( 'NONE', #104, #47, #225 ) ;
#311 =( NAMED_UNIT ( * ) PLANE_ANGLE_UNIT ( ) SI_UNIT ( $, .RADIAN. ) );
#312 = CARTESIAN_POINT ( 'NONE',  ( -1.224646799147352714E-16, 4.000000000000000000, 0.000000000000000000 ) ) ;
#313 = SURFACE_STYLE_FILL_AREA ( #254 ) ;
#314 = EDGE_CURVE ( 'NONE', #134, #22, #64, .T. ) ;
#315 = STYLED_ITEM ( 'NONE', ( #354 ), #139 ) ;
#316 =( GEOMETRIC_REPRESENTATION_CONTEXT ( 3 ) GLOBAL_UNCERTAINTY_ASSIGNED_CONTEXT ( ( #334 ) ) GLOBAL_UNIT_ASSIGNED_CONTEXT ( ( #373, #229, #130 ) ) REPRESENTATION_CONTEXT ( 'NONE', 'WORKASPACE' ) );
#317 = APPLICATION_PROTOCOL_DEFINITION ( 'draft international standard', 'automotive_design', 1998, #18 ) ;
#318 = ORIENTED_EDGE ( 'NONE', *, *, #8, .F. ) ;
#319 = STYLED_ITEM ( 'NONE', ( #113 ), #16 ) ;
#320 = EDGE_LOOP ( 'NONE', ( #278, #132, #336, #322 ) ) ;
#321 = DIRECTION ( 'NONE',  ( 0.000000000000000000, 0.000000000000000000, 1.000000000000000000 ) ) ;
#322 = ORIENTED_EDGE ( 'NONE', *, *, #314, .T. ) ;
#323 =( LENGTH_UNIT ( ) NAMED_UNIT ( * ) SI_UNIT ( $, .METRE. ) );
#324 =( CONVERSION_BASED_UNIT ( 'INCH', #65 ) LENGTH_UNIT ( ) NAMED_UNIT ( #5 ) );
#325 = DIRECTION ( 'NONE',  ( -0.000000000000000000, -1.000000000000000000, -0.000000000000000000 ) ) ;
#326 = FILL_AREA_STYLE ('',( #66 ) ) ;
#327 = EDGE_CURVE ( 'NONE', #83, #48, #183, .T. ) ;
#328 = UNCERTAINTY_MEASURE_WITH_UNIT (LENGTH_MEASURE( 1.000000000000000082E-05 ), #291, 'distance_accuracy_value', 'NONE');
#329 = FILL_AREA_STYLE_COLOUR ( '', #296 ) ;
#330 = DIRECTION ( 'NONE',  ( -0.000000000000000000, -1.000000000000000000, -0.000000000000000000 ) ) ;
#331 =( NAMED_UNIT ( * ) SI_UNIT ( $, .STERADIAN. ) SOLID_ANGLE_UNIT ( ) );
#332 = FACE_OUTER_BOUND ( 'NONE', #144, .T. ) ;
#333 = LINE ( 'NONE', #160, #304 ) ;
#334 = UNCERTAINTY_MEASURE_WITH_UNIT (LENGTH_MEASURE( 1.000000000000000082E-05 ), #373, 'distance_accuracy_value', 'NONE');
#335 = PRESENTATION_LAYER_ASSIGNMENT (  '', '', ( #114 ) ) ;
#336 = ORIENTED_EDGE ( 'NONE', *, *, #262, .F. ) ;
#337 =( NAMED_UNIT ( * ) PLANE_ANGLE_UNIT ( ) SI_UNIT ( $, .RADIAN. ) );
#338 =( CONVERSION_BASED_UNIT ( 'INCH', #226 ) LENGTH_UNIT ( ) NAMED_UNIT ( #54 ) );
#339 = DIRECTION ( 'NONE',  ( -1.000000000000000000, 0.000000000000000000, 0.000000000000000000 ) ) ;
#340 = ORIENTED_EDGE ( 'NONE', *, *, #92, .T. ) ;
#341 = FILL_AREA_STYLE_COLOUR ( '', #241 ) ;
#342 = DIRECTION ( 'NONE',  ( -0.000000000000000000, -1.000000000000000000, -0.000000000000000000 ) ) ;
#343 = ORIENTED_EDGE ( 'NONE', *, *, #253, .T. ) ;
#344 = DIRECTION ( 'NONE',  ( -1.224646799147353207E-16, 1.000000000000000000, 0.000000000000000000 ) ) ;
#345 = CARTESIAN_POINT ( 'NONE',  ( -3.061616997868383018E-17, 0.2500000000000000000, 0.000000000000000000 ) ) ;
#346 =( GEOMETRIC_REPRESENTATION_CONTEXT ( 3 ) GLOBAL_UNCERTAINTY_ASSIGNED_CONTEXT ( ( #158 ) ) GLOBAL_UNIT_ASSIGNED_CONTEXT ( ( #299, #337, #331 ) ) REPRESENTATION_CONTEXT ( 'NONE', 'WORKASPACE' ) );
#347 = SURFACE_SIDE_STYLE ('',( #239 ) ) ;
#348 = ADVANCED_FACE ( 'NONE', ( #164 ), #126, .F. ) ;
#349 = MECHANICAL_DESIGN_GEOMETRIC_PRESENTATION_REPRESENTATION (  '', ( #319 ), #110 ) ;
#350 = AXIS2_PLACEMENT_3D ( 'NONE', #103, #137, #108 ) ;
#351 = ORIENTED_EDGE ( 'NONE', *, *, #102, .F. ) ;
#352 = ORIENTED_EDGE ( 'NONE', *, *, #264, .F. ) ;
#353 = VERTEX_POINT ( 'NONE', #279 ) ;
#354 = PRESENTATION_STYLE_ASSIGNMENT (( #293 ) ) ;
#355 = CLOSED_SHELL ( 'NONE', ( #288, #362, #161, #348 ) ) ;
#356 = CARTESIAN_POINT ( 'NONE',  ( -3.061616997868383018E-17, 0.2500000000000000000, 0.000000000000000000 ) ) ;
#357 =( NAMED_UNIT ( * ) SI_UNIT ( $, .STERADIAN. ) SOLID_ANGLE_UNIT ( ) );
#358 = CARTESIAN_POINT ( 'NONE',  ( 0.000000000000000000, 0.2500000000000000555, 0.000000000000000000 ) ) ;
#359 = PRODUCT_CONTEXT ( 'NONE', #18, 'mechanical' ) ;
#360 =( LENGTH_UNIT ( ) NAMED_UNIT ( * ) SI_UNIT ( $, .METRE. ) );
#361 = SURFACE_SIDE_STYLE ('',( #294 ) ) ;
#362 = ADVANCED_FACE ( 'NONE', ( #307 ), #367, .F. ) ;
#363 = DIRECTION ( 'NONE',  ( 0.000000000000000000, -0.000000000000000000, 1.000000000000000000 ) ) ;
#364 =( NAMED_UNIT ( * ) PLANE_ANGLE_UNIT ( ) SI_UNIT ( $, .RADIAN. ) );
#365 = SURFACE_SIDE_STYLE ('',( #313 ) ) ;
#366 = DIRECTION ( 'NONE',  ( -0.000000000000000000, -1.000000000000000000, -0.000000000000000000 ) ) ;
#367 = PLANE ( 'NONE',  #148 ) ;
#368 = AXIS2_PLACEMENT_3D ( 'NONE', #358, #209, #173 ) ;
#369 = VERTEX_POINT ( 'NONE', #257 ) ;
#370 = DIRECTION ( 'NONE',  ( -1.224646799147353207E-16, 1.000000000000000000, -0.000000000000000000 ) ) ;
#371 = ORIENTED_EDGE ( 'NONE', *, *, #262, .T. ) ;
#372 = EDGE_CURVE ( 'NONE', #353, #369, #176, .T. ) ;
#373 =( CONVERSION_BASED_UNIT ( 'INCH', #191 ) LENGTH_UNIT ( ) NAMED_UNIT ( #58 ) );
ENDSEC;
END-ISO-10303-21;
