ISO-10303-21;
HEADER;
FILE_DESCRIPTION (( 'STEP AP214' ),
    '1' );
FILE_NAME ('Micro_BEM-046-02X.STEP',
    '2021-09-03T12:57:37',
    ( '' ),
    ( '' ),
    'SwSTEP 2.0',
    'SolidWorks 2020',
    '' );
FILE_SCHEMA (( 'AUTOMOTIVE_DESIGN' ));
ENDSEC;

DATA;
#1 = VECTOR ( 'NONE', #83, 39.37007874015748854 ) ;
#2 = PRESENTATION_LAYER_ASSIGNMENT (  '', '', ( #217 ) ) ;
#3 = FILL_AREA_STYLE ('',( #215 ) ) ;
#4 = ORIENTED_EDGE ( 'NONE', *, *, #15, .T. ) ;
#5 = EDGE_LOOP ( 'NONE', ( #161, #316, #291, #143 ) ) ;
#6 = CIRCLE ( 'NONE', #183, 0.02337660000000000432 ) ;
#7 = ORIENTED_EDGE ( 'NONE', *, *, #30, .F. ) ;
#8 = SHAPE_DEFINITION_REPRESENTATION ( #17, #219 ) ;
#9 = LINE ( 'NONE', #81, #258 ) ;
#10 = EDGE_CURVE ( 'NONE', #319, #26, #54, .T. ) ;
#11 = CARTESIAN_POINT ( 'NONE',  ( 0.0000000000000000000, 0.0000000000000000000, 1.500000000000000222 ) ) ;
#12 = VECTOR ( 'NONE', #107, 39.37007874015748143 ) ;
#13 = DIRECTION ( 'NONE',  ( -1.224646799147353700E-16, -0.0000000000000000000, -1.000000000000000000 ) ) ;
#14 = DIRECTION ( 'NONE',  ( -1.000000000000000000, 0.0000000000000000000, 1.224646799147353454E-16 ) ) ;
#15 = EDGE_CURVE ( 'NONE', #272, #249, #177, .T. ) ;
#16 = CARTESIAN_POINT ( 'NONE',  ( -0.06250000000000002776, 0.0000000000000000000, 1.500000000000000222 ) ) ;
#17 = PRODUCT_DEFINITION_SHAPE ( 'NONE', 'NONE',  #242 ) ;
#18 = EDGE_LOOP ( 'NONE', ( #199, #50, #223, #213 ) ) ;
#19 = VECTOR ( 'NONE', #241, 39.37007874015748143 ) ;
#20 = EDGE_CURVE ( 'NONE', #240, #279, #247, .T. ) ;
#21 = ORIENTED_EDGE ( 'NONE', *, *, #308, .F. ) ;
#22 = CARTESIAN_POINT ( 'NONE',  ( 0.0000000000000000000, 0.0000000000000000000, 1.500000000000000222 ) ) ;
#23 = DIRECTION ( 'NONE',  ( 1.224646799147353700E-16, 0.0000000000000000000, 1.000000000000000000 ) ) ;
#24 = AXIS2_PLACEMENT_3D ( 'NONE', #76, #77, #224 ) ;
#25 = FACE_OUTER_BOUND ( 'NONE', #63, .T. ) ;
#26 = VERTEX_POINT ( 'NONE', #174 ) ;
#27 = CARTESIAN_POINT ( 'NONE',  ( 0.02337660000000001126, 0.0000000000000000000, 0.1089999999999999997 ) ) ;
#28 = ORIENTED_EDGE ( 'NONE', *, *, #20, .T. ) ;
#29 = CARTESIAN_POINT ( 'NONE',  ( 2.862807836494802985E-18, 0.0000000000000000000, 0.02337660000000000432 ) ) ;
#30 = EDGE_CURVE ( 'NONE', #240, #235, #248, .T. ) ;
#31 = AXIS2_PLACEMENT_3D ( 'NONE', #134, #35, #233 ) ;
#32 = DIRECTION ( 'NONE',  ( 0.0000000000000000000, -1.000000000000000000, 0.0000000000000000000 ) ) ;
#33 = DIRECTION ( 'NONE',  ( 0.0000000000000000000, 1.000000000000000000, 0.0000000000000000000 ) ) ;
#34 = SURFACE_STYLE_FILL_AREA ( #204 ) ;
#35 = DIRECTION ( 'NONE',  ( 1.224646799147353700E-16, 0.0000000000000000000, 1.000000000000000000 ) ) ;
#36 = EDGE_CURVE ( 'NONE', #279, #251, #280, .T. ) ;
#37 = ORIENTED_EDGE ( 'NONE', *, *, #308, .T. ) ;
#38 = AXIS2_PLACEMENT_3D ( 'NONE', #236, #86, #290 ) ;
#39 =( GEOMETRIC_REPRESENTATION_CONTEXT ( 3 ) GLOBAL_UNCERTAINTY_ASSIGNED_CONTEXT ( ( #264 ) ) GLOBAL_UNIT_ASSIGNED_CONTEXT ( ( #137, #211, #194 ) ) REPRESENTATION_CONTEXT ( 'NONE', 'WORKASPACE' ) );
#40 =( NAMED_UNIT ( * ) PLANE_ANGLE_UNIT ( ) SI_UNIT ( $, .RADIAN. ) );
#41 = ORIENTED_EDGE ( 'NONE', *, *, #51, .F. ) ;
#42 = FACE_OUTER_BOUND ( 'NONE', #5, .T. ) ;
#43 = EDGE_LOOP ( 'NONE', ( #138, #140, #191, #110 ) ) ;
#44 = DIRECTION ( 'NONE',  ( -1.000000000000000000, 0.0000000000000000000, 1.825976613408455680E-16 ) ) ;
#45 = ORIENTED_EDGE ( 'NONE', *, *, #93, .F. ) ;
#46 = ORIENTED_EDGE ( 'NONE', *, *, #36, .T. ) ;
#47 = EDGE_CURVE ( 'NONE', #26, #319, #303, .T. ) ;
#48 = DIRECTION ( 'NONE',  ( 1.000000000000000000, 0.0000000000000000000, 0.0000000000000000000 ) ) ;
#49 = APPLICATION_CONTEXT ( 'automotive_design' ) ;
#50 = ORIENTED_EDGE ( 'NONE', *, *, #30, .T. ) ;
#51 = EDGE_CURVE ( 'NONE', #240, #123, #302, .T. ) ;
#52 = CARTESIAN_POINT ( 'NONE',  ( -0.02337659999999998697, 2.862807836494801445E-18, 0.1089999999999999997 ) ) ;
#53 = CYLINDRICAL_SURFACE ( 'NONE', #159, 0.06250000000000002776 ) ;
#54 = CIRCLE ( 'NONE', #122, 0.06250000000000002776 ) ;
#55 = VECTOR ( 'NONE', #125, 39.37007874015748143 ) ;
#56 = ORIENTED_EDGE ( 'NONE', *, *, #115, .F. ) ;
#57 = DIRECTION ( 'NONE',  ( -0.0000000000000000000, -0.0000000000000000000, -1.000000000000000000 ) ) ;
#58 = DIRECTION ( 'NONE',  ( -1.000000000000000000, 0.0000000000000000000, 0.0000000000000000000 ) ) ;
#59 = CARTESIAN_POINT ( 'NONE',  ( 0.0000000000000000000, 0.0000000000000000000, 1.500000000000000222 ) ) ;
#60 = CARTESIAN_POINT ( 'NONE',  ( 4.052109212114275620E-17, 0.0000000000000000000, 0.3308798271416305559 ) ) ;
#61 = CYLINDRICAL_SURFACE ( 'NONE', #216, 0.06250000000000002776 ) ;
#62 = ADVANCED_FACE ( 'NONE', ( #253 ), #250, .T. ) ;
#63 = EDGE_LOOP ( 'NONE', ( #7, #28, #293, #172 ) ) ;
#64 = DIRECTION ( 'NONE',  ( -1.224646799147353700E-16, -0.0000000000000000000, -1.000000000000000000 ) ) ;
#65 = ORIENTED_EDGE ( 'NONE', *, *, #73, .F. ) ;
#66 = AXIS2_PLACEMENT_3D ( 'NONE', #97, #277, #179 ) ;
#67 = LENGTH_MEASURE_WITH_UNIT ( LENGTH_MEASURE( 0.02539999999999999897 ), #91 );
#68 = CARTESIAN_POINT ( 'NONE',  ( 1.334865011070615584E-17, 0.0000000000000000000, 0.1089999999999999997 ) ) ;
#69 = ORIENTED_EDGE ( 'NONE', *, *, #10, .F. ) ;
#70 = SURFACE_STYLE_USAGE ( .BOTH. , #267 ) ;
#71 = AXIS2_PLACEMENT_3D ( 'NONE', #60, #13, #182 ) ;
#72 = EDGE_CURVE ( 'NONE', #26, #123, #119, .T. ) ;
#73 = EDGE_CURVE ( 'NONE', #87, #26, #9, .T. ) ;
#74 = PRODUCT_CONTEXT ( 'NONE', #49, 'mechanical' ) ;
#75 = CLOSED_SHELL ( 'NONE', ( #62, #232, #246, #175, #186, #104, #276, #128, #282, #142, #121 ) ) ;
#76 = CARTESIAN_POINT ( 'NONE',  ( 1.334865011070615584E-17, 0.0000000000000000000, 0.1089999999999999997 ) ) ;
#77 = DIRECTION ( 'NONE',  ( -1.224646799147353700E-16, -0.0000000000000000000, -1.000000000000000000 ) ) ;
#78 = DIRECTION ( 'NONE',  ( -1.224646799147353700E-16, -0.0000000000000000000, -1.000000000000000000 ) ) ;
#79 = CARTESIAN_POINT ( 'NONE',  ( 0.04750000000000064587, 6.735557395310483192E-18, 1.500000000000000222 ) ) ;
#80 = AXIS2_PLACEMENT_3D ( 'NONE', #11, #180, #58 ) ;
#81 = CARTESIAN_POINT ( 'NONE',  ( 0.04750000000000064587, 5.817072295950006528E-18, 1.500000000000000222 ) ) ;
#82 = DIRECTION ( 'NONE',  ( 0.0000000000000000000, 0.0000000000000000000, 1.000000000000000000 ) ) ;
#83 = DIRECTION ( 'NONE',  ( -0.7071067811865462405, 0.0000000000000000000, -0.7071067811865486830 ) ) ;
#84 =( GEOMETRIC_REPRESENTATION_CONTEXT ( 3 ) GLOBAL_UNCERTAINTY_ASSIGNED_CONTEXT ( ( #313 ) ) GLOBAL_UNIT_ASSIGNED_CONTEXT ( ( #297, #163, #114 ) ) REPRESENTATION_CONTEXT ( 'NONE', 'WORKASPACE' ) );
#85 = EDGE_CURVE ( 'NONE', #251, #123, #106, .T. ) ;
#86 = DIRECTION ( 'NONE',  ( -1.224646799147353700E-16, -0.0000000000000000000, -1.000000000000000000 ) ) ;
#87 = VERTEX_POINT ( 'NONE', #79 ) ;
#88 = ORIENTED_EDGE ( 'NONE', *, *, #15, .F. ) ;
#89 = ORIENTED_EDGE ( 'NONE', *, *, #321, .F. ) ;
#90 = MECHANICAL_DESIGN_GEOMETRIC_PRESENTATION_REPRESENTATION (  '', ( #217 ), #39 ) ;
#91 =( LENGTH_UNIT ( ) NAMED_UNIT ( * ) SI_UNIT ( $, .METRE. ) );
#92 = SURFACE_STYLE_FILL_AREA ( #3 ) ;
#93 = EDGE_CURVE ( 'NONE', #279, #240, #234, .T. ) ;
#94 = AXIS2_PLACEMENT_3D ( 'NONE', #256, #33, #129 ) ;
#95 = APPLICATION_PROTOCOL_DEFINITION ( 'draft international standard', 'automotive_design', 1998, #49 ) ;
#96 = DIRECTION ( 'NONE',  ( 0.0000000000000000000, 0.0000000000000000000, -1.000000000000000000 ) ) ;
#97 = CARTESIAN_POINT ( 'NONE',  ( 2.862807836494802985E-18, 0.0000000000000000000, 0.02337660000000000432 ) ) ;
#98 = DIRECTION ( 'NONE',  ( 0.0000000000000000000, 0.0000000000000000000, 1.000000000000000000 ) ) ;
#99 = DIRECTION ( 'NONE',  ( 0.7071067811865462405, 8.659560562354916834E-17, -0.7071067811865486830 ) ) ;
#100 = DIRECTION ( 'NONE',  ( -1.000000000000000000, 0.0000000000000000000, 0.0000000000000000000 ) ) ;
#101 = DIRECTION ( 'NONE',  ( -1.224646799147353700E-16, -0.0000000000000000000, -1.000000000000000000 ) ) ;
#102 = CIRCLE ( 'NONE', #201, 0.02337660000000000432 ) ;
#103 = CARTESIAN_POINT ( 'NONE',  ( -0.02337659999999999738, 0.0000000000000000000, 0.02337660000000000779 ) ) ;
#104 = ADVANCED_FACE ( 'NONE', ( #281 ), #53, .T. ) ;
#105 = CARTESIAN_POINT ( 'NONE',  ( 0.0000000000000000000, 0.0000000000000000000, 1.500000000000000222 ) ) ;
#106 = CIRCLE ( 'NONE', #126, 0.06250000000000002776 ) ;
#107 = DIRECTION ( 'NONE',  ( -0.0000000000000000000, -0.0000000000000000000, -1.000000000000000000 ) ) ;
#108 = ORIENTED_EDGE ( 'NONE', *, *, #261, .T. ) ;
#109 = FACE_OUTER_BOUND ( 'NONE', #18, .T. ) ;
#110 = ORIENTED_EDGE ( 'NONE', *, *, #222, .F. ) ;
#111 = CIRCLE ( 'NONE', #31, 0.02337660000000000432 ) ;
#112 = CARTESIAN_POINT ( 'NONE',  ( -0.02337659999999998697, 5.258425165582881421E-18, 0.1089999999999999997 ) ) ;
#113 = ORIENTED_EDGE ( 'NONE', *, *, #261, .F. ) ;
#114 =( NAMED_UNIT ( * ) SI_UNIT ( $, .STERADIAN. ) SOLID_ANGLE_UNIT ( ) );
#115 = EDGE_CURVE ( 'NONE', #272, #235, #102, .T. ) ;
#116 = PLANE ( 'NONE',  #288 ) ;
#117 = ORIENTED_EDGE ( 'NONE', *, *, #198, .T. ) ;
#118 = STYLED_ITEM ( 'NONE', ( #315 ), #252 ) ;
#119 = LINE ( 'NONE', #197, #55 ) ;
#120 = CARTESIAN_POINT ( 'NONE',  ( 0.0000000000000000000, 0.0000000000000000000, 1.485000000000000764 ) ) ;
#121 = ADVANCED_FACE ( 'NONE', ( #225 ), #151, .T. ) ;
#122 = AXIS2_PLACEMENT_3D ( 'NONE', #120, #96, #173 ) ;
#123 = VERTEX_POINT ( 'NONE', #200 ) ;
#124 = AXIS2_PLACEMENT_3D ( 'NONE', #105, #82, #286 ) ;
#125 = DIRECTION ( 'NONE',  ( -0.0000000000000000000, -0.0000000000000000000, -1.000000000000000000 ) ) ;
#126 = AXIS2_PLACEMENT_3D ( 'NONE', #306, #78, #176 ) ;
#127 = DIRECTION ( 'NONE',  ( 0.0000000000000000000, 0.0000000000000000000, -1.000000000000000000 ) ) ;
#128 = ADVANCED_FACE ( 'NONE', ( #226 ), #192, .T. ) ;
#129 = DIRECTION ( 'NONE',  ( 1.000000000000000000, 0.0000000000000000000, 0.0000000000000000000 ) ) ;
#130 = CIRCLE ( 'NONE', #71, 0.06250000000000002776 ) ;
#131 = PRODUCT_DEFINITION_FORMATION_WITH_SPECIFIED_SOURCE ( 'ANY', '', #238, .NOT_KNOWN. ) ;
#132 = FACE_OUTER_BOUND ( 'NONE', #206, .T. ) ;
#133 =( LENGTH_UNIT ( ) NAMED_UNIT ( * ) SI_UNIT ( $, .METRE. ) );
#134 = CARTESIAN_POINT ( 'NONE',  ( 2.862807836494802985E-18, 0.0000000000000000000, 0.02337660000000000432 ) ) ;
#135 = VECTOR ( 'NONE', #311, 39.37007874015748143 ) ;
#136 = CARTESIAN_POINT ( 'NONE',  ( 0.0000000000000000000, 0.0000000000000000000, 1.500000000000000222 ) ) ;
#137 =( CONVERSION_BASED_UNIT ( 'INCH', #67 ) LENGTH_UNIT ( ) NAMED_UNIT ( #273 ) );
#138 = ORIENTED_EDGE ( 'NONE', *, *, #10, .T. ) ;
#139 = DIRECTION ( 'NONE',  ( 1.000000000000000000, 0.0000000000000000000, 0.0000000000000000000 ) ) ;
#140 = ORIENTED_EDGE ( 'NONE', *, *, #72, .T. ) ;
#141 = AXIS2_PLACEMENT_3D ( 'NONE', #22, #169, #168 ) ;
#142 = ADVANCED_FACE ( 'NONE', ( #25 ), #257, .T. ) ;
#143 = ORIENTED_EDGE ( 'NONE', *, *, #205, .T. ) ;
#144 = AXIS2_PLACEMENT_3D ( 'NONE', #136, #184, #231 ) ;
#145 = EDGE_LOOP ( 'NONE', ( #65, #21, #117, #162 ) ) ;
#146 = ORIENTED_EDGE ( 'NONE', *, *, #47, .T. ) ;
#147 = CARTESIAN_POINT ( 'NONE',  ( 0.0000000000000000000, 0.0000000000000000000, 1.485000000000000764 ) ) ;
#148 = DIRECTION ( 'NONE',  ( -1.000000000000000000, 0.0000000000000000000, 0.0000000000000000000 ) ) ;
#149 = UNCERTAINTY_MEASURE_WITH_UNIT (LENGTH_MEASURE( 1.000000000000000082E-05 ), #158, 'distance_accuracy_value', 'NONE');
#150 = DIMENSIONAL_EXPONENTS ( 1.000000000000000000, 0.0000000000000000000, 0.0000000000000000000, 0.0000000000000000000, 0.0000000000000000000, 0.0000000000000000000, 0.0000000000000000000 ) ;
#151 = SPHERICAL_SURFACE ( 'NONE', #94, 0.02337660000000000432 ) ;
#152 = DIRECTION ( 'NONE',  ( -0.0000000000000000000, -0.0000000000000000000, -1.000000000000000000 ) ) ;
#153 = AXIS2_PLACEMENT_3D ( 'NONE', #29, #304, #221 ) ;
#154 = MECHANICAL_DESIGN_GEOMETRIC_PRESENTATION_REPRESENTATION (  '', ( #118 ), #254 ) ;
#155 = AXIS2_PLACEMENT_3D ( 'NONE', #307, #98, #301 ) ;
#156 = CARTESIAN_POINT ( 'NONE',  ( 0.02337660000000001126, 0.0000000000000000000, 0.1089999999999999997 ) ) ;
#157 = SURFACE_STYLE_USAGE ( .BOTH. , #314 ) ;
#158 =( CONVERSION_BASED_UNIT ( 'INCH', #262 ) LENGTH_UNIT ( ) NAMED_UNIT ( #270 ) );
#159 = AXIS2_PLACEMENT_3D ( 'NONE', #284, #57, #148 ) ;
#160 = PRODUCT_RELATED_PRODUCT_CATEGORY ( 'part', '', ( #238 ) ) ;
#161 = ORIENTED_EDGE ( 'NONE', *, *, #36, .F. ) ;
#162 = ORIENTED_EDGE ( 'NONE', *, *, #47, .F. ) ;
#163 =( NAMED_UNIT ( * ) PLANE_ANGLE_UNIT ( ) SI_UNIT ( $, .RADIAN. ) );
#164 = EDGE_CURVE ( 'NONE', #235, #249, #111, .T. ) ;
#165 = DIRECTION ( 'NONE',  ( 1.224646799147353700E-16, 0.0000000000000000000, 1.000000000000000000 ) ) ;
#166 = AXIS2_PLACEMENT_3D ( 'NONE', #207, #64, #14 ) ;
#167 = EDGE_LOOP ( 'NONE', ( #45, #46, #263, #41 ) ) ;
#168 = DIRECTION ( 'NONE',  ( 1.000000000000000000, 0.0000000000000000000, 0.0000000000000000000 ) ) ;
#169 = DIRECTION ( 'NONE',  ( 0.0000000000000000000, 0.0000000000000000000, 1.000000000000000000 ) ) ;
#170 = APPLICATION_PROTOCOL_DEFINITION ( 'draft international standard', 'automotive_design', 1998, #317 ) ;
#171 = CONICAL_SURFACE ( 'NONE', #212, 0.02337659999999999738, 0.1745329251994338082 ) ;
#172 = ORIENTED_EDGE ( 'NONE', *, *, #321, .T. ) ;
#173 = DIRECTION ( 'NONE',  ( 1.000000000000000000, 0.0000000000000000000, 0.0000000000000000000 ) ) ;
#174 = CARTESIAN_POINT ( 'NONE',  ( 0.06250000000000002776, 7.654042494670959086E-18, 1.485000000000000764 ) ) ;
#175 = ADVANCED_FACE ( 'NONE', ( #132 ), #296, .T. ) ;
#176 = DIRECTION ( 'NONE',  ( 1.000000000000000000, 0.0000000000000000000, 0.0000000000000000000 ) ) ;
#177 = CIRCLE ( 'NONE', #153, 0.02337660000000000432 ) ;
#178 = AXIS2_PLACEMENT_3D ( 'NONE', #294, #259, #187 ) ;
#179 = DIRECTION ( 'NONE',  ( 1.000000000000000000, 0.0000000000000000000, 0.0000000000000000000 ) ) ;
#180 = DIRECTION ( 'NONE',  ( 0.0000000000000000000, 0.0000000000000000000, -1.000000000000000000 ) ) ;
#181 = FILL_AREA_STYLE_COLOUR ( '', #227 ) ;
#182 = DIRECTION ( 'NONE',  ( 1.000000000000000000, 0.0000000000000000000, 0.0000000000000000000 ) ) ;
#183 = AXIS2_PLACEMENT_3D ( 'NONE', #193, #165, #44 ) ;
#184 = DIRECTION ( 'NONE',  ( 0.0000000000000000000, 0.0000000000000000000, -1.000000000000000000 ) ) ;
#185 = CARTESIAN_POINT ( 'NONE',  ( 0.02337660000000000779, 2.862807836494801830E-18, 0.02337659999999999738 ) ) ;
#186 = ADVANCED_FACE ( 'NONE', ( #209 ), #61, .T. ) ;
#187 = DIRECTION ( 'NONE',  ( 1.000000000000000000, 0.0000000000000000000, 0.0000000000000000000 ) ) ;
#188 = VECTOR ( 'NONE', #309, 39.37007874015748143 ) ;
#189 =( LENGTH_UNIT ( ) NAMED_UNIT ( * ) SI_UNIT ( $, .METRE. ) );
#190 = VERTEX_POINT ( 'NONE', #318 ) ;
#191 = ORIENTED_EDGE ( 'NONE', *, *, #85, .F. ) ;
#192 = CONICAL_SURFACE ( 'NONE', #80, 0.04750000000000064587, 0.7853981633974466137 ) ;
#193 = CARTESIAN_POINT ( 'NONE',  ( 2.862807836494802985E-18, 0.0000000000000000000, 0.02337660000000000432 ) ) ;
#194 =( NAMED_UNIT ( * ) SI_UNIT ( $, .STERADIAN. ) SOLID_ANGLE_UNIT ( ) );
#195 = DIRECTION ( 'NONE',  ( 0.0000000000000000000, 0.0000000000000000000, -1.000000000000000000 ) ) ;
#196 = CIRCLE ( 'NONE', #141, 0.04750000000000064587 ) ;
#197 = CARTESIAN_POINT ( 'NONE',  ( 0.06250000000000002776, 7.654042494670959086E-18, 1.500000000000000222 ) ) ;
#198 = EDGE_CURVE ( 'NONE', #190, #319, #230, .T. ) ;
#199 = ORIENTED_EDGE ( 'NONE', *, *, #93, .T. ) ;
#200 = CARTESIAN_POINT ( 'NONE',  ( 0.06250000000000006939, 7.654042494670963708E-18, 0.3308798271416305559 ) ) ;
#201 = AXIS2_PLACEMENT_3D ( 'NONE', #255, #32, #127 ) ;
#202 = CARTESIAN_POINT ( 'NONE',  ( 0.02337660000000000432, 2.862807836494801830E-18, -2.862807836494802985E-18 ) ) ;
#203 = DIRECTION ( 'NONE',  ( -1.000000000000000000, 0.0000000000000000000, 0.0000000000000000000 ) ) ;
#204 = FILL_AREA_STYLE ('',( #181 ) ) ;
#205 = EDGE_CURVE ( 'NONE', #123, #251, #130, .T. ) ;
#206 = EDGE_LOOP ( 'NONE', ( #113, #324, #69, #278 ) ) ;
#207 = CARTESIAN_POINT ( 'NONE',  ( 0.0000000000000000000, 0.0000000000000000000, 0.0000000000000000000 ) ) ;
#208 = ORIENTED_EDGE ( 'NONE', *, *, #164, .F. ) ;
#209 = FACE_OUTER_BOUND ( 'NONE', #43, .T. ) ;
#210 = ORIENTED_EDGE ( 'NONE', *, *, #222, .T. ) ;
#211 =( NAMED_UNIT ( * ) PLANE_ANGLE_UNIT ( ) SI_UNIT ( $, .RADIAN. ) );
#212 = AXIS2_PLACEMENT_3D ( 'NONE', #68, #23, #139 ) ;
#213 = ORIENTED_EDGE ( 'NONE', *, *, #287, .F. ) ;
#214 = EDGE_LOOP ( 'NONE', ( #37, #108 ) ) ;
#215 = FILL_AREA_STYLE_COLOUR ( '', #229 ) ;
#216 = AXIS2_PLACEMENT_3D ( 'NONE', #59, #152, #203 ) ;
#217 = STYLED_ITEM ( 'NONE', ( #218 ), #219 ) ;
#218 = PRESENTATION_STYLE_ASSIGNMENT (( #70 ) ) ;
#219 = ADVANCED_BREP_SHAPE_REPRESENTATION ( 'Micro_BEM-046-02X', ( #252, #155 ), #84 ) ;
#220 = DIRECTION ( 'NONE',  ( -0.1736481776669311083, 2.126576849575782084E-17, 0.9848077530122080203 ) ) ;
#221 = DIRECTION ( 'NONE',  ( -1.000000000000000000, 1.224646799147352961E-16, 0.0000000000000000000 ) ) ;
#222 = EDGE_CURVE ( 'NONE', #319, #251, #289, .T. ) ;
#223 = ORIENTED_EDGE ( 'NONE', *, *, #164, .T. ) ;
#224 = DIRECTION ( 'NONE',  ( -1.000000000000000000, 0.0000000000000000000, 0.0000000000000000000 ) ) ;
#225 = FACE_OUTER_BOUND ( 'NONE', #239, .T. ) ;
#226 = FACE_OUTER_BOUND ( 'NONE', #145, .T. ) ;
#227 = COLOUR_RGB ( '',0.7921568627450980005, 0.8196078431372548767, 0.9333333333333333481 ) ;
#228 = CARTESIAN_POINT ( 'NONE',  ( -0.04750000000000064587, 0.0000000000000000000, 1.500000000000000222 ) ) ;
#229 = COLOUR_RGB ( '',0.7921568627450980005, 0.8196078431372548767, 0.9333333333333333481 ) ;
#230 = LINE ( 'NONE', #228, #1 ) ;
#231 = DIRECTION ( 'NONE',  ( -1.000000000000000000, 0.0000000000000000000, 0.0000000000000000000 ) ) ;
#232 = ADVANCED_FACE ( 'NONE', ( #109 ), #312, .T. ) ;
#233 = DIRECTION ( 'NONE',  ( -1.000000000000000000, 0.0000000000000000000, 1.825976613408455680E-16 ) ) ;
#234 = CIRCLE ( 'NONE', #283, 0.02337659999999999738 ) ;
#235 = VERTEX_POINT ( 'NONE', #185 ) ;
#236 = CARTESIAN_POINT ( 'NONE',  ( 0.0000000000000000000, 0.0000000000000000000, 0.0000000000000000000 ) ) ;
#237 = EDGE_LOOP ( 'NONE', ( #320, #146, #210, #268 ) ) ;
#238 = PRODUCT ( 'Micro_BEM-046-02X', 'Micro_BEM-046-02X', '', ( #74 ) ) ;
#239 = EDGE_LOOP ( 'NONE', ( #88, #244, #89 ) ) ;
#240 = VERTEX_POINT ( 'NONE', #156 ) ;
#241 = DIRECTION ( 'NONE',  ( -1.224646799147353700E-16, -0.0000000000000000000, -1.000000000000000000 ) ) ;
#242 = PRODUCT_DEFINITION ( 'UNKNOWN', '', #131, #305 ) ;
#243 = DIRECTION ( 'NONE',  ( 0.0000000000000000000, 0.0000000000000000000, 1.000000000000000000 ) ) ;
#244 = ORIENTED_EDGE ( 'NONE', *, *, #115, .T. ) ;
#245 = LINE ( 'NONE', #322, #19 ) ;
#246 = ADVANCED_FACE ( 'NONE', ( #260 ), #266, .T. ) ;
#247 = CIRCLE ( 'NONE', #24, 0.02337659999999999738 ) ;
#248 = LINE ( 'NONE', #202, #135 ) ;
#249 = VERTEX_POINT ( 'NONE', #103 ) ;
#250 = SPHERICAL_SURFACE ( 'NONE', #66, 0.02337660000000000432 ) ;
#251 = VERTEX_POINT ( 'NONE', #292 ) ;
#252 = MANIFOLD_SOLID_BREP ( 'Fillet1', #75 ) ;
#253 = FACE_OUTER_BOUND ( 'NONE', #295, .T. ) ;
#254 =( GEOMETRIC_REPRESENTATION_CONTEXT ( 3 ) GLOBAL_UNCERTAINTY_ASSIGNED_CONTEXT ( ( #149 ) ) GLOBAL_UNIT_ASSIGNED_CONTEXT ( ( #158, #40, #265 ) ) REPRESENTATION_CONTEXT ( 'NONE', 'WORKASPACE' ) );
#255 = CARTESIAN_POINT ( 'NONE',  ( 2.862807836494802985E-18, 0.0000000000000000000, 0.02337660000000000432 ) ) ;
#256 = CARTESIAN_POINT ( 'NONE',  ( 2.862807836494802985E-18, 0.0000000000000000000, 0.02337660000000000432 ) ) ;
#257 = CYLINDRICAL_SURFACE ( 'NONE', #166, 0.02337660000000000432 ) ;
#258 = VECTOR ( 'NONE', #99, 39.37007874015748854 ) ;
#259 = DIRECTION ( 'NONE',  ( 1.224646799147353700E-16, 0.0000000000000000000, 1.000000000000000000 ) ) ;
#260 = FACE_OUTER_BOUND ( 'NONE', #167, .T. ) ;
#261 = EDGE_CURVE ( 'NONE', #87, #190, #299, .T. ) ;
#262 = LENGTH_MEASURE_WITH_UNIT ( LENGTH_MEASURE( 0.02539999999999999897 ), #133 );
#263 = ORIENTED_EDGE ( 'NONE', *, *, #85, .T. ) ;
#264 = UNCERTAINTY_MEASURE_WITH_UNIT (LENGTH_MEASURE( 1.000000000000000082E-05 ), #137, 'distance_accuracy_value', 'NONE');
#265 =( NAMED_UNIT ( * ) SI_UNIT ( $, .STERADIAN. ) SOLID_ANGLE_UNIT ( ) );
#266 = CONICAL_SURFACE ( 'NONE', #178, 0.02337659999999999738, 0.1745329251994338082 ) ;
#267 = SURFACE_SIDE_STYLE ('',( #92 ) ) ;
#268 = ORIENTED_EDGE ( 'NONE', *, *, #205, .F. ) ;
#269 = LENGTH_MEASURE_WITH_UNIT ( LENGTH_MEASURE( 0.02539999999999999897 ), #189 );
#270 = DIMENSIONAL_EXPONENTS ( 1.000000000000000000, 0.0000000000000000000, 0.0000000000000000000, 0.0000000000000000000, 0.0000000000000000000, 0.0000000000000000000, 0.0000000000000000000 ) ;
#271 = FACE_OUTER_BOUND ( 'NONE', #214, .T. ) ;
#272 = VERTEX_POINT ( 'NONE', #325 ) ;
#273 = DIMENSIONAL_EXPONENTS ( 1.000000000000000000, 0.0000000000000000000, 0.0000000000000000000, 0.0000000000000000000, 0.0000000000000000000, 0.0000000000000000000, 0.0000000000000000000 ) ;
#274 = VECTOR ( 'NONE', #220, 39.37007874015747433 ) ;
#275 = CARTESIAN_POINT ( 'NONE',  ( -0.06250000000000002776, 0.0000000000000000000, 1.485000000000000764 ) ) ;
#276 = ADVANCED_FACE ( 'NONE', ( #271 ), #116, .T. ) ;
#277 = DIRECTION ( 'NONE',  ( 0.0000000000000000000, 1.000000000000000000, 0.0000000000000000000 ) ) ;
#278 = ORIENTED_EDGE ( 'NONE', *, *, #198, .F. ) ;
#279 = VERTEX_POINT ( 'NONE', #112 ) ;
#280 = LINE ( 'NONE', #52, #274 ) ;
#281 = FACE_OUTER_BOUND ( 'NONE', #237, .T. ) ;
#282 = ADVANCED_FACE ( 'NONE', ( #42 ), #171, .T. ) ;
#283 = AXIS2_PLACEMENT_3D ( 'NONE', #285, #101, #100 ) ;
#284 = CARTESIAN_POINT ( 'NONE',  ( 0.0000000000000000000, 0.0000000000000000000, 1.500000000000000222 ) ) ;
#285 = CARTESIAN_POINT ( 'NONE',  ( 1.334865011070615584E-17, 0.0000000000000000000, 0.1089999999999999997 ) ) ;
#286 = DIRECTION ( 'NONE',  ( 1.000000000000000000, 0.0000000000000000000, 0.0000000000000000000 ) ) ;
#287 = EDGE_CURVE ( 'NONE', #279, #249, #245, .T. ) ;
#288 = AXIS2_PLACEMENT_3D ( 'NONE', #300, #243, #298 ) ;
#289 = LINE ( 'NONE', #16, #12 ) ;
#290 = DIRECTION ( 'NONE',  ( -1.000000000000000000, 0.0000000000000000000, 1.224646799147353454E-16 ) ) ;
#291 = ORIENTED_EDGE ( 'NONE', *, *, #51, .T. ) ;
#292 = CARTESIAN_POINT ( 'NONE',  ( -0.06249999999999997918, 0.0000000000000000000, 0.3308798271416305559 ) ) ;
#293 = ORIENTED_EDGE ( 'NONE', *, *, #287, .T. ) ;
#294 = CARTESIAN_POINT ( 'NONE',  ( 1.334865011070615584E-17, 0.0000000000000000000, 0.1089999999999999997 ) ) ;
#295 = EDGE_LOOP ( 'NONE', ( #56, #4, #208 ) ) ;
#296 = CONICAL_SURFACE ( 'NONE', #144, 0.04750000000000064587, 0.7853981633974466137 ) ;
#297 =( CONVERSION_BASED_UNIT ( 'INCH', #269 ) LENGTH_UNIT ( ) NAMED_UNIT ( #150 ) );
#298 = DIRECTION ( 'NONE',  ( 1.000000000000000000, 0.0000000000000000000, -0.0000000000000000000 ) ) ;
#299 = CIRCLE ( 'NONE', #124, 0.04750000000000064587 ) ;
#300 = CARTESIAN_POINT ( 'NONE',  ( 0.0000000000000000000, 0.0000000000000000000, 1.500000000000000222 ) ) ;
#301 = DIRECTION ( 'NONE',  ( 1.000000000000000000, 0.0000000000000000000, 0.0000000000000000000 ) ) ;
#302 = LINE ( 'NONE', #27, #188 ) ;
#303 = CIRCLE ( 'NONE', #323, 0.06250000000000002776 ) ;
#304 = DIRECTION ( 'NONE',  ( 1.224646799147353207E-16, 1.000000000000000000, -0.0000000000000000000 ) ) ;
#305 = PRODUCT_DEFINITION_CONTEXT ( 'detailed design', #317, 'design' ) ;
#306 = CARTESIAN_POINT ( 'NONE',  ( 4.052109212114275620E-17, 0.0000000000000000000, 0.3308798271416305559 ) ) ;
#307 = CARTESIAN_POINT ( 'NONE',  ( 0.0000000000000000000, 0.0000000000000000000, 0.0000000000000000000 ) ) ;
#308 = EDGE_CURVE ( 'NONE', #190, #87, #196, .T. ) ;
#309 = DIRECTION ( 'NONE',  ( 0.1736481776669313026, 0.0000000000000000000, 0.9848077530122077983 ) ) ;
#310 = PRESENTATION_LAYER_ASSIGNMENT (  '', '', ( #118 ) ) ;
#311 = DIRECTION ( 'NONE',  ( -1.224646799147353700E-16, -0.0000000000000000000, -1.000000000000000000 ) ) ;
#312 = CYLINDRICAL_SURFACE ( 'NONE', #38, 0.02337660000000000432 ) ;
#313 = UNCERTAINTY_MEASURE_WITH_UNIT (LENGTH_MEASURE( 1.000000000000000082E-05 ), #297, 'distance_accuracy_value', 'NONE');
#314 = SURFACE_SIDE_STYLE ('',( #34 ) ) ;
#315 = PRESENTATION_STYLE_ASSIGNMENT (( #157 ) ) ;
#316 = ORIENTED_EDGE ( 'NONE', *, *, #20, .F. ) ;
#317 = APPLICATION_CONTEXT ( 'automotive_design' ) ;
#318 = CARTESIAN_POINT ( 'NONE',  ( -0.04750000000000064587, 0.0000000000000000000, 1.500000000000000222 ) ) ;
#319 = VERTEX_POINT ( 'NONE', #275 ) ;
#320 = ORIENTED_EDGE ( 'NONE', *, *, #72, .F. ) ;
#321 = EDGE_CURVE ( 'NONE', #249, #235, #6, .T. ) ;
#322 = CARTESIAN_POINT ( 'NONE',  ( -0.02337660000000000432, 0.0000000000000000000, 2.862807836494802985E-18 ) ) ;
#323 = AXIS2_PLACEMENT_3D ( 'NONE', #147, #195, #48 ) ;
#324 = ORIENTED_EDGE ( 'NONE', *, *, #73, .T. ) ;
#325 = CARTESIAN_POINT ( 'NONE',  ( 4.294211754742204093E-18, 0.0000000000000000000, 0.0000000000000000000 ) ) ;
ENDSEC;
END-ISO-10303-21;
