ISO-10303-21;
HEADER;
FILE_DESCRIPTION (( 'STEP AP214' ),
    '1' );
FILE_NAME ('Micro_GEC-250-3-030X.STEP',
    '2021-09-03T17:15:00',
    ( '' ),
    ( '' ),
    'SwSTEP 2.0',
    'SolidWorks 2020',
    '' );
FILE_SCHEMA (( 'AUTOMOTIVE_DESIGN' ));
ENDSEC;

DATA;
#1 = CIRCLE ( 'NONE', #336, 0.1250000000000000000 ) ;
#2 = EDGE_CURVE ( 'NONE', #304, #255, #315, .T. ) ;
#3 = EDGE_LOOP ( 'NONE', ( #331, #204, #33, #27 ) ) ;
#4 = ORIENTED_EDGE ( 'NONE', *, *, #105, .T. ) ;
#5 = ORIENTED_EDGE ( 'NONE', *, *, #223, .F. ) ;
#6 = CARTESIAN_POINT ( 'NONE',  ( 9.184850993605150903E-17, 0.0000000000000000000, 0.7500000000000001110 ) ) ;
#7 = EDGE_CURVE ( 'NONE', #168, #61, #185, .T. ) ;
#8 = AXIS2_PLACEMENT_3D ( 'NONE', #156, #269, #219 ) ;
#9 = ORIENTED_EDGE ( 'NONE', *, *, #7, .T. ) ;
#10 = DIRECTION ( 'NONE',  ( 0.0000000000000000000, 0.0000000000000000000, 1.000000000000000000 ) ) ;
#11 = EDGE_CURVE ( 'NONE', #255, #325, #177, .T. ) ;
#12 = ORIENTED_EDGE ( 'NONE', *, *, #181, .T. ) ;
#13 = CARTESIAN_POINT ( 'NONE',  ( -0.1248749999999999166, 1.529277690435257475E-17, 0.7500000000000001110 ) ) ;
#14 = DIRECTION ( 'NONE',  ( 1.000000000000000000, 0.0000000000000000000, -0.0000000000000000000 ) ) ;
#15 = EDGE_CURVE ( 'NONE', #31, #268, #56, .T. ) ;
#16 = VECTOR ( 'NONE', #100, 39.37007874015748143 ) ;
#17 = DIRECTION ( 'NONE',  ( 1.000000000000000000, 0.0000000000000000000, 0.0000000000000000000 ) ) ;
#18 = EDGE_CURVE ( 'NONE', #31, #113, #260, .T. ) ;
#19 = VECTOR ( 'NONE', #154, 39.37007874015748143 ) ;
#20 = ADVANCED_FACE ( 'NONE', ( #149 ), #37, .T. ) ;
#21 = DIRECTION ( 'NONE',  ( -0.0000000000000000000, -0.0000000000000000000, -1.000000000000000000 ) ) ;
#22 = AXIS2_PLACEMENT_3D ( 'NONE', #127, #148, #65 ) ;
#23 = TOROIDAL_SURFACE ( 'NONE', #87, 0.09487500000000000100, 0.02999999999999999889 ) ;
#24 = PLANE ( 'NONE',  #283 ) ;
#25 = DIRECTION ( 'NONE',  ( 0.7071067811865499042, 8.659560562354961208E-17, -0.7071067811865451302 ) ) ;
#26 = CARTESIAN_POINT ( 'NONE',  ( -0.1248749999999999999, 0.0000000000000000000, 0.03000000000000000583 ) ) ;
#27 = ORIENTED_EDGE ( 'NONE', *, *, #105, .F. ) ;
#28 = CIRCLE ( 'NONE', #57, 0.1248749999999999999 ) ;
#29 = CIRCLE ( 'NONE', #67, 0.02999999999999999889 ) ;
#30 = CARTESIAN_POINT ( 'NONE',  ( 0.09487500000000000100, 0.0000000000000000000, 0.0000000000000000000 ) ) ;
#31 = VERTEX_POINT ( 'NONE', #335 ) ;
#32 = CARTESIAN_POINT ( 'NONE',  ( 0.0000000000000000000, 0.0000000000000000000, 2.500000000000000000 ) ) ;
#33 = ORIENTED_EDGE ( 'NONE', *, *, #223, .T. ) ;
#34 = EDGE_LOOP ( 'NONE', ( #251, #147, #189, #5 ) ) ;
#35 = DIRECTION ( 'NONE',  ( 1.224646799147353207E-16, 0.0000000000000000000, 1.000000000000000000 ) ) ;
#36 = DIRECTION ( 'NONE',  ( -1.000000000000000000, 1.224646799147352714E-16, 0.0000000000000000000 ) ) ;
#37 = CYLINDRICAL_SURFACE ( 'NONE', #160, 0.1250000000000000000 ) ;
#38 = AXIS2_PLACEMENT_3D ( 'NONE', #279, #146, #254 ) ;
#39 = LINE ( 'NONE', #178, #287 ) ;
#40 = PRODUCT_DEFINITION_CONTEXT ( 'detailed design', #191, 'design' ) ;
#41 = FILL_AREA_STYLE ('',( #180 ) ) ;
#42 = ADVANCED_FACE ( 'NONE', ( #59 ), #306, .T. ) ;
#43 = PRESENTATION_STYLE_ASSIGNMENT (( #237 ) ) ;
#44 = PRESENTATION_LAYER_ASSIGNMENT (  '', '', ( #197 ) ) ;
#45 = LINE ( 'NONE', #158, #190 ) ;
#46 = CARTESIAN_POINT ( 'NONE',  ( -0.1248749999999999999, 0.0000000000000000000, 1.529277690435257475E-17 ) ) ;
#47 = UNCERTAINTY_MEASURE_WITH_UNIT (LENGTH_MEASURE( 1.000000000000000082E-05 ), #211, 'distance_accuracy_value', 'NONE');
#48 = ORIENTED_EDGE ( 'NONE', *, *, #18, .F. ) ;
#49 = DIRECTION ( 'NONE',  ( -1.224646799147353207E-16, -0.0000000000000000000, -1.000000000000000000 ) ) ;
#50 = DIRECTION ( 'NONE',  ( 0.0000000000000000000, 0.0000000000000000000, -1.000000000000000000 ) ) ;
#51 = PRODUCT_DEFINITION_FORMATION_WITH_SPECIFIED_SOURCE ( 'ANY', '', #144, .NOT_KNOWN. ) ;
#52 =( NAMED_UNIT ( * ) PLANE_ANGLE_UNIT ( ) SI_UNIT ( $, .RADIAN. ) );
#53 = DIRECTION ( 'NONE',  ( 1.000000000000000000, 0.0000000000000000000, 0.0000000000000000000 ) ) ;
#54 = FACE_OUTER_BOUND ( 'NONE', #226, .T. ) ;
#55 = ORIENTED_EDGE ( 'NONE', *, *, #266, .F. ) ;
#56 = CIRCLE ( 'NONE', #92, 0.03000000000000000583 ) ;
#57 = AXIS2_PLACEMENT_3D ( 'NONE', #81, #296, #53 ) ;
#58 = ADVANCED_FACE ( 'NONE', ( #257 ), #98, .T. ) ;
#59 = FACE_OUTER_BOUND ( 'NONE', #298, .T. ) ;
#60 = ORIENTED_EDGE ( 'NONE', *, *, #95, .T. ) ;
#61 = VERTEX_POINT ( 'NONE', #97 ) ;
#62 = CARTESIAN_POINT ( 'NONE',  ( 0.1248750000000000970, 0.0000000000000000000, 0.7500000000000001110 ) ) ;
#63 = ORIENTED_EDGE ( 'NONE', *, *, #203, .T. ) ;
#64 = ORIENTED_EDGE ( 'NONE', *, *, #258, .T. ) ;
#65 = DIRECTION ( 'NONE',  ( 1.000000000000000000, 0.0000000000000000000, 0.0000000000000000000 ) ) ;
#66 = APPLICATION_CONTEXT ( 'automotive_design' ) ;
#67 = AXIS2_PLACEMENT_3D ( 'NONE', #89, #199, #118 ) ;
#68 = PLANE ( 'NONE',  #88 ) ;
#69 = DIRECTION ( 'NONE',  ( -1.000000000000000000, 0.0000000000000000000, 1.224646799147353454E-16 ) ) ;
#70 =( LENGTH_UNIT ( ) NAMED_UNIT ( * ) SI_UNIT ( $, .METRE. ) );
#71 = CIRCLE ( 'NONE', #326, 0.1250000000000000000 ) ;
#72 = LINE ( 'NONE', #339, #16 ) ;
#73 = EDGE_CURVE ( 'NONE', #304, #273, #261, .T. ) ;
#74 = CARTESIAN_POINT ( 'NONE',  ( 0.1248750000000000970, 0.0000000000000000000, 0.7500000000000001110 ) ) ;
#75 = SURFACE_STYLE_FILL_AREA ( #213 ) ;
#76 = DIRECTION ( 'NONE',  ( -1.000000000000000000, 0.0000000000000000000, 1.224646799147353454E-16 ) ) ;
#77 = COLOUR_RGB ( '',0.7921568627450980005, 0.8196078431372548767, 0.9333333333333333481 ) ;
#78 = CARTESIAN_POINT ( 'NONE',  ( 0.0000000000000000000, 0.0000000000000000000, 0.0000000000000000000 ) ) ;
#79 = CARTESIAN_POINT ( 'NONE',  ( 0.0000000000000000000, 0.0000000000000000000, 2.500000000000000000 ) ) ;
#80 =( LENGTH_UNIT ( ) NAMED_UNIT ( * ) SI_UNIT ( $, .METRE. ) );
#81 = CARTESIAN_POINT ( 'NONE',  ( 3.673940397442059960E-18, 0.0000000000000000000, 0.03000000000000000583 ) ) ;
#82 = EDGE_LOOP ( 'NONE', ( #309, #328, #278, #145 ) ) ;
#83 = TOROIDAL_SURFACE ( 'NONE', #179, 0.09487500000000000100, 0.02999999999999999889 ) ;
#84 =( NAMED_UNIT ( * ) SI_UNIT ( $, .STERADIAN. ) SOLID_ANGLE_UNIT ( ) );
#85 = ORIENTED_EDGE ( 'NONE', *, *, #135, .F. ) ;
#86 = ORIENTED_EDGE ( 'NONE', *, *, #2, .T. ) ;
#87 = AXIS2_PLACEMENT_3D ( 'NONE', #215, #242, #103 ) ;
#88 = AXIS2_PLACEMENT_3D ( 'NONE', #32, #10, #14 ) ;
#89 = CARTESIAN_POINT ( 'NONE',  ( 0.09487500000000000100, 0.0000000000000000000, 0.02999999999999999889 ) ) ;
#90 = ORIENTED_EDGE ( 'NONE', *, *, #266, .T. ) ;
#91 = DIRECTION ( 'NONE',  ( 1.000000000000000000, 0.0000000000000000000, 0.0000000000000000000 ) ) ;
#92 = AXIS2_PLACEMENT_3D ( 'NONE', #205, #330, #36 ) ;
#93 = EDGE_LOOP ( 'NONE', ( #60, #12, #55, #275 ) ) ;
#94 = DIRECTION ( 'NONE',  ( -1.224646799147353207E-16, -0.0000000000000000000, -1.000000000000000000 ) ) ;
#95 = EDGE_CURVE ( 'NONE', #119, #244, #292, .T. ) ;
#96 = VECTOR ( 'NONE', #348, 39.37007874015748143 ) ;
#97 = CARTESIAN_POINT ( 'NONE',  ( 0.1100000000000001948, 1.438959988998141146E-17, 2.500000000000000000 ) ) ;
#98 = CONICAL_SURFACE ( 'NONE', #293, 0.1248749999999999999, 0.1745329251994338082 ) ;
#99 =( NAMED_UNIT ( * ) PLANE_ANGLE_UNIT ( ) SI_UNIT ( $, .RADIAN. ) );
#100 = DIRECTION ( 'NONE',  ( -0.0000000000000000000, -0.0000000000000000000, -1.000000000000000000 ) ) ;
#101 = CARTESIAN_POINT ( 'NONE',  ( 9.184850993605150903E-17, 0.0000000000000000000, 0.7500000000000001110 ) ) ;
#102 = AXIS2_PLACEMENT_3D ( 'NONE', #285, #308, #115 ) ;
#103 = DIRECTION ( 'NONE',  ( 1.000000000000000000, 0.0000000000000000000, 0.0000000000000000000 ) ) ;
#104 = CIRCLE ( 'NONE', #290, 0.1248749999999999999 ) ;
#105 = EDGE_CURVE ( 'NONE', #244, #119, #167, .T. ) ;
#106 = CARTESIAN_POINT ( 'NONE',  ( 3.673940397442059960E-18, 0.0000000000000000000, 0.03000000000000000583 ) ) ;
#107 = DIRECTION ( 'NONE',  ( 1.000000000000000000, 0.0000000000000000000, 0.0000000000000000000 ) ) ;
#108 = CARTESIAN_POINT ( 'NONE',  ( 0.1250000000000000833, 1.530808498934192433E-17, 0.7507089102274522308 ) ) ;
#109 = ORIENTED_EDGE ( 'NONE', *, *, #181, .F. ) ;
#110 = ORIENTED_EDGE ( 'NONE', *, *, #139, .F. ) ;
#111 = CIRCLE ( 'NONE', #324, 0.09487500000000000100 ) ;
#112 = DIRECTION ( 'NONE',  ( -0.0000000000000000000, -0.0000000000000000000, -1.000000000000000000 ) ) ;
#113 = VERTEX_POINT ( 'NONE', #30 ) ;
#114 = DIRECTION ( 'NONE',  ( 1.000000000000000000, 0.0000000000000000000, 0.0000000000000000000 ) ) ;
#115 = DIRECTION ( 'NONE',  ( 1.000000000000000000, 0.0000000000000000000, 0.0000000000000000000 ) ) ;
#116 = MECHANICAL_DESIGN_GEOMETRIC_PRESENTATION_REPRESENTATION (  '', ( #232 ), #134 ) ;
#117 = ORIENTED_EDGE ( 'NONE', *, *, #15, .F. ) ;
#118 = DIRECTION ( 'NONE',  ( 0.0000000000000000000, 0.0000000000000000000, -1.000000000000000000 ) ) ;
#119 = VERTEX_POINT ( 'NONE', #196 ) ;
#120 = AXIS2_PLACEMENT_3D ( 'NONE', #125, #229, #332 ) ;
#121 =( CONVERSION_BASED_UNIT ( 'INCH', #136 ) LENGTH_UNIT ( ) NAMED_UNIT ( #247 ) );
#122 = ORIENTED_EDGE ( 'NONE', *, *, #333, .F. ) ;
#123 = ADVANCED_FACE ( 'NONE', ( #301 ), #68, .T. ) ;
#124 = DIRECTION ( 'NONE',  ( -0.1736481776669311083, 2.126576849575782084E-17, 0.9848077530122080203 ) ) ;
#125 = CARTESIAN_POINT ( 'NONE',  ( 0.0000000000000000000, 0.0000000000000000000, 2.485000000000000320 ) ) ;
#126 =( GEOMETRIC_REPRESENTATION_CONTEXT ( 3 ) GLOBAL_UNCERTAINTY_ASSIGNED_CONTEXT ( ( #216 ) ) GLOBAL_UNIT_ASSIGNED_CONTEXT ( ( #263, #99, #208 ) ) REPRESENTATION_CONTEXT ( 'NONE', 'WORKASPACE' ) );
#127 = CARTESIAN_POINT ( 'NONE',  ( 9.184850993605150903E-17, 0.0000000000000000000, 0.7500000000000001110 ) ) ;
#128 = SURFACE_SIDE_STYLE ('',( #151 ) ) ;
#129 = CYLINDRICAL_SURFACE ( 'NONE', #231, 0.1248749999999999999 ) ;
#130 = AXIS2_PLACEMENT_3D ( 'NONE', #78, #347, #107 ) ;
#131 = DIRECTION ( 'NONE',  ( -0.7071067811865499042, 0.0000000000000000000, -0.7071067811865451302 ) ) ;
#132 = ADVANCED_FACE ( 'NONE', ( #206 ), #230, .T. ) ;
#133 = CARTESIAN_POINT ( 'NONE',  ( 3.673940397442059190E-18, 0.0000000000000000000, 0.02999999999999999889 ) ) ;
#134 =( GEOMETRIC_REPRESENTATION_CONTEXT ( 3 ) GLOBAL_UNCERTAINTY_ASSIGNED_CONTEXT ( ( #47 ) ) GLOBAL_UNIT_ASSIGNED_CONTEXT ( ( #211, #270, #84 ) ) REPRESENTATION_CONTEXT ( 'NONE', 'WORKASPACE' ) );
#135 = EDGE_CURVE ( 'NONE', #325, #273, #71, .T. ) ;
#136 = LENGTH_MEASURE_WITH_UNIT ( LENGTH_MEASURE( 0.02539999999999999897 ), #80 );
#137 = LINE ( 'NONE', #351, #96 ) ;
#138 = AXIS2_PLACEMENT_3D ( 'NONE', #150, #276, #284 ) ;
#139 = EDGE_CURVE ( 'NONE', #113, #253, #29, .T. ) ;
#140 = CARTESIAN_POINT ( 'NONE',  ( 0.0000000000000000000, 0.0000000000000000000, 0.0000000000000000000 ) ) ;
#141 = ORIENTED_EDGE ( 'NONE', *, *, #297, .T. ) ;
#142 = CARTESIAN_POINT ( 'NONE',  ( 9.193532640014472135E-17, 0.0000000000000000000, 0.7507089102274522308 ) ) ;
#143 = DIRECTION ( 'NONE',  ( -1.000000000000000000, 0.0000000000000000000, 0.0000000000000000000 ) ) ;
#144 = PRODUCT ( 'Micro_GEC-250-3-030X', 'Micro_GEC-250-3-030X', '', ( #212 ) ) ;
#145 = ORIENTED_EDGE ( 'NONE', *, *, #135, .T. ) ;
#146 = DIRECTION ( 'NONE',  ( 0.0000000000000000000, 0.0000000000000000000, -1.000000000000000000 ) ) ;
#147 = ORIENTED_EDGE ( 'NONE', *, *, #343, .T. ) ;
#148 = DIRECTION ( 'NONE',  ( 1.224646799147353207E-16, 0.0000000000000000000, 1.000000000000000000 ) ) ;
#149 = FACE_OUTER_BOUND ( 'NONE', #93, .T. ) ;
#150 = CARTESIAN_POINT ( 'NONE',  ( 0.0000000000000000000, 0.0000000000000000000, 2.485000000000000320 ) ) ;
#151 = SURFACE_STYLE_FILL_AREA ( #41 ) ;
#152 = DIRECTION ( 'NONE',  ( -1.224646799147353207E-16, -0.0000000000000000000, -1.000000000000000000 ) ) ;
#153 = ADVANCED_FACE ( 'NONE', ( #305 ), #238, .T. ) ;
#154 = DIRECTION ( 'NONE',  ( -1.224646799147353207E-16, -0.0000000000000000000, -1.000000000000000000 ) ) ;
#155 = DIRECTION ( 'NONE',  ( 1.000000000000000000, 0.0000000000000000000, 0.0000000000000000000 ) ) ;
#156 = CARTESIAN_POINT ( 'NONE',  ( 0.0000000000000000000, 0.0000000000000000000, 2.500000000000000000 ) ) ;
#157 = AXIS2_PLACEMENT_3D ( 'NONE', #101, #152, #319 ) ;
#158 = CARTESIAN_POINT ( 'NONE',  ( 0.1248749999999999999, 1.529277690435257475E-17, -1.529277690435257475E-17 ) ) ;
#159 = LINE ( 'NONE', #271, #262 ) ;
#160 = AXIS2_PLACEMENT_3D ( 'NONE', #259, #338, #202 ) ;
#161 = ORIENTED_EDGE ( 'NONE', *, *, #174, .T. ) ;
#162 = DIRECTION ( 'NONE',  ( -1.224646799147353207E-16, -0.0000000000000000000, -1.000000000000000000 ) ) ;
#163 = CIRCLE ( 'NONE', #157, 0.1248749999999999999 ) ;
#164 = DIMENSIONAL_EXPONENTS ( 1.000000000000000000, 0.0000000000000000000, 0.0000000000000000000, 0.0000000000000000000, 0.0000000000000000000, 0.0000000000000000000, 0.0000000000000000000 ) ;
#165 = DIRECTION ( 'NONE',  ( -1.224646799147353207E-16, -0.0000000000000000000, -1.000000000000000000 ) ) ;
#166 = EDGE_LOOP ( 'NONE', ( #109, #4, #141, #85 ) ) ;
#167 = CIRCLE ( 'NONE', #138, 0.1250000000000000000 ) ;
#168 = VERTEX_POINT ( 'NONE', #227 ) ;
#169 = CARTESIAN_POINT ( 'NONE',  ( 0.0000000000000000000, 0.0000000000000000000, 2.500000000000000000 ) ) ;
#170 = ORIENTED_EDGE ( 'NONE', *, *, #214, .F. ) ;
#171 = CARTESIAN_POINT ( 'NONE',  ( 9.184850993605150903E-17, 0.0000000000000000000, 0.7500000000000001110 ) ) ;
#172 = ORIENTED_EDGE ( 'NONE', *, *, #258, .F. ) ;
#173 = ORIENTED_EDGE ( 'NONE', *, *, #2, .F. ) ;
#174 = EDGE_CURVE ( 'NONE', #255, #304, #163, .T. ) ;
#175 = DIRECTION ( 'NONE',  ( 0.1736481776669313026, 0.0000000000000000000, 0.9848077530122077983 ) ) ;
#176 = DIRECTION ( 'NONE',  ( 0.0000000000000000000, 0.0000000000000000000, 1.000000000000000000 ) ) ;
#177 = LINE ( 'NONE', #62, #218 ) ;
#178 = CARTESIAN_POINT ( 'NONE',  ( -0.1100000000000001948, 0.0000000000000000000, 2.500000000000000000 ) ) ;
#179 = AXIS2_PLACEMENT_3D ( 'NONE', #133, #176, #114 ) ;
#180 = FILL_AREA_STYLE_COLOUR ( '', #344 ) ;
#181 = EDGE_CURVE ( 'NONE', #244, #325, #72, .T. ) ;
#182 = FACE_OUTER_BOUND ( 'NONE', #256, .T. ) ;
#183 = FILL_AREA_STYLE_COLOUR ( '', #77 ) ;
#184 = APPLICATION_PROTOCOL_DEFINITION ( 'draft international standard', 'automotive_design', 1998, #66 ) ;
#185 = CIRCLE ( 'NONE', #295, 0.1100000000000001948 ) ;
#186 = ADVANCED_BREP_SHAPE_REPRESENTATION ( 'Micro_GEC-250-3-030X', ( #241, #130 ), #126 ) ;
#187 = FACE_OUTER_BOUND ( 'NONE', #166, .T. ) ;
#188 = DIRECTION ( 'NONE',  ( 1.000000000000000000, 0.0000000000000000000, -0.0000000000000000000 ) ) ;
#189 = ORIENTED_EDGE ( 'NONE', *, *, #95, .F. ) ;
#190 = VECTOR ( 'NONE', #162, 39.37007874015748143 ) ;
#191 = APPLICATION_CONTEXT ( 'automotive_design' ) ;
#192 = PRESENTATION_STYLE_ASSIGNMENT (( #233 ) ) ;
#193 = ORIENTED_EDGE ( 'NONE', *, *, #203, .F. ) ;
#194 = ADVANCED_FACE ( 'NONE', ( #182 ), #23, .T. ) ;
#195 = ORIENTED_EDGE ( 'NONE', *, *, #73, .T. ) ;
#196 = CARTESIAN_POINT ( 'NONE',  ( -0.1250000000000000000, 0.0000000000000000000, 2.485000000000000320 ) ) ;
#197 = STYLED_ITEM ( 'NONE', ( #192 ), #186 ) ;
#198 = ORIENTED_EDGE ( 'NONE', *, *, #18, .T. ) ;
#199 = DIRECTION ( 'NONE',  ( 0.0000000000000000000, -1.000000000000000000, 0.0000000000000000000 ) ) ;
#200 = EDGE_LOOP ( 'NONE', ( #9, #299 ) ) ;
#201 = ORIENTED_EDGE ( 'NONE', *, *, #340, .T. ) ;
#202 = DIRECTION ( 'NONE',  ( -1.000000000000000000, 0.0000000000000000000, 0.0000000000000000000 ) ) ;
#203 = EDGE_CURVE ( 'NONE', #113, #31, #111, .T. ) ;
#204 = ORIENTED_EDGE ( 'NONE', *, *, #7, .F. ) ;
#205 = CARTESIAN_POINT ( 'NONE',  ( -0.09487500000000000100, 1.161883650691051402E-17, 0.02999999999999999889 ) ) ;
#206 = FACE_OUTER_BOUND ( 'NONE', #281, .T. ) ;
#207 = VECTOR ( 'NONE', #124, 39.37007874015747433 ) ;
#208 =( NAMED_UNIT ( * ) SI_UNIT ( $, .STERADIAN. ) SOLID_ANGLE_UNIT ( ) );
#209 = FACE_OUTER_BOUND ( 'NONE', #311, .T. ) ;
#210 =( GEOMETRIC_REPRESENTATION_CONTEXT ( 3 ) GLOBAL_UNCERTAINTY_ASSIGNED_CONTEXT ( ( #316 ) ) GLOBAL_UNIT_ASSIGNED_CONTEXT ( ( #121, #52, #248 ) ) REPRESENTATION_CONTEXT ( 'NONE', 'WORKASPACE' ) );
#211 =( CONVERSION_BASED_UNIT ( 'INCH', #264 ) LENGTH_UNIT ( ) NAMED_UNIT ( #164 ) );
#212 = PRODUCT_CONTEXT ( 'NONE', #66, 'mechanical' ) ;
#213 = FILL_AREA_STYLE ('',( #183 ) ) ;
#214 = EDGE_CURVE ( 'NONE', #304, #268, #291, .T. ) ;
#215 = CARTESIAN_POINT ( 'NONE',  ( 3.673940397442059190E-18, 0.0000000000000000000, 0.02999999999999999889 ) ) ;
#216 = UNCERTAINTY_MEASURE_WITH_UNIT (LENGTH_MEASURE( 1.000000000000000082E-05 ), #263, 'distance_accuracy_value', 'NONE');
#217 = DIRECTION ( 'NONE',  ( 0.0000000000000000000, 0.0000000000000000000, 1.000000000000000000 ) ) ;
#218 = VECTOR ( 'NONE', #175, 39.37007874015748143 ) ;
#219 = DIRECTION ( 'NONE',  ( 1.000000000000000000, 0.0000000000000000000, 0.0000000000000000000 ) ) ;
#220 = AXIS2_PLACEMENT_3D ( 'NONE', #79, #50, #265 ) ;
#221 = ADVANCED_FACE ( 'NONE', ( #209 ), #129, .T. ) ;
#222 = ORIENTED_EDGE ( 'NONE', *, *, #15, .T. ) ;
#223 = EDGE_CURVE ( 'NONE', #168, #119, #39, .T. ) ;
#224 = DIRECTION ( 'NONE',  ( -1.224646799147353207E-16, -0.0000000000000000000, -1.000000000000000000 ) ) ;
#225 = MECHANICAL_DESIGN_GEOMETRIC_PRESENTATION_REPRESENTATION (  '', ( #197 ), #210 ) ;
#226 = EDGE_LOOP ( 'NONE', ( #48, #222, #122, #110 ) ) ;
#227 = CARTESIAN_POINT ( 'NONE',  ( -0.1100000000000001948, 0.0000000000000000000, 2.500000000000000000 ) ) ;
#228 = ORIENTED_EDGE ( 'NONE', *, *, #139, .T. ) ;
#229 = DIRECTION ( 'NONE',  ( 0.0000000000000000000, 0.0000000000000000000, -1.000000000000000000 ) ) ;
#230 = CYLINDRICAL_SURFACE ( 'NONE', #240, 0.1248749999999999999 ) ;
#231 = AXIS2_PLACEMENT_3D ( 'NONE', #314, #321, #76 ) ;
#232 = STYLED_ITEM ( 'NONE', ( #43 ), #241 ) ;
#233 = SURFACE_STYLE_USAGE ( .BOTH. , #128 ) ;
#234 =( LENGTH_UNIT ( ) NAMED_UNIT ( * ) SI_UNIT ( $, .METRE. ) );
#235 = DIRECTION ( 'NONE',  ( 0.0000000000000000000, 0.0000000000000000000, 1.000000000000000000 ) ) ;
#236 = CARTESIAN_POINT ( 'NONE',  ( 3.673940397442059190E-18, 0.0000000000000000000, 0.0000000000000000000 ) ) ;
#237 = SURFACE_STYLE_USAGE ( .BOTH. , #239 ) ;
#238 = CONICAL_SURFACE ( 'NONE', #38, 0.1100000000000001948, 0.7853981633974517207 ) ;
#239 = SURFACE_SIDE_STYLE ('',( #75 ) ) ;
#240 = AXIS2_PLACEMENT_3D ( 'NONE', #313, #165, #69 ) ;
#241 = MANIFOLD_SOLID_BREP ( 'Fillet1', #280 ) ;
#242 = DIRECTION ( 'NONE',  ( 0.0000000000000000000, 0.0000000000000000000, 1.000000000000000000 ) ) ;
#243 = ADVANCED_FACE ( 'NONE', ( #54 ), #83, .T. ) ;
#244 = VERTEX_POINT ( 'NONE', #342 ) ;
#245 = FACE_OUTER_BOUND ( 'NONE', #302, .T. ) ;
#246 = CARTESIAN_POINT ( 'NONE',  ( -0.1249999999999999167, 0.0000000000000000000, 0.7507089102274522308 ) ) ;
#247 = DIMENSIONAL_EXPONENTS ( 1.000000000000000000, 0.0000000000000000000, 0.0000000000000000000, 0.0000000000000000000, 0.0000000000000000000, 0.0000000000000000000, 0.0000000000000000000 ) ;
#248 =( NAMED_UNIT ( * ) SI_UNIT ( $, .STERADIAN. ) SOLID_ANGLE_UNIT ( ) );
#249 = AXIS2_PLACEMENT_3D ( 'NONE', #169, #112, #143 ) ;
#250 = CARTESIAN_POINT ( 'NONE',  ( 0.0000000000000000000, 0.0000000000000000000, 2.500000000000000000 ) ) ;
#251 = ORIENTED_EDGE ( 'NONE', *, *, #318, .F. ) ;
#252 = PRODUCT_DEFINITION_SHAPE ( 'NONE', 'NONE',  #267 ) ;
#253 = VERTEX_POINT ( 'NONE', #320 ) ;
#254 = DIRECTION ( 'NONE',  ( -1.000000000000000000, 0.0000000000000000000, 0.0000000000000000000 ) ) ;
#255 = VERTEX_POINT ( 'NONE', #74 ) ;
#256 = EDGE_LOOP ( 'NONE', ( #117, #193, #228, #329 ) ) ;
#257 = FACE_OUTER_BOUND ( 'NONE', #82, .T. ) ;
#258 = EDGE_CURVE ( 'NONE', #255, #253, #45, .T. ) ;
#259 = CARTESIAN_POINT ( 'NONE',  ( 0.0000000000000000000, 0.0000000000000000000, 2.500000000000000000 ) ) ;
#260 = CIRCLE ( 'NONE', #102, 0.09487500000000000100 ) ;
#261 = LINE ( 'NONE', #13, #207 ) ;
#262 = VECTOR ( 'NONE', #25, 39.37007874015748143 ) ;
#263 =( CONVERSION_BASED_UNIT ( 'INCH', #337 ) LENGTH_UNIT ( ) NAMED_UNIT ( #277 ) );
#264 = LENGTH_MEASURE_WITH_UNIT ( LENGTH_MEASURE( 0.02539999999999999897 ), #70 );
#265 = DIRECTION ( 'NONE',  ( -1.000000000000000000, 0.0000000000000000000, 0.0000000000000000000 ) ) ;
#266 = EDGE_CURVE ( 'NONE', #273, #325, #1, .T. ) ;
#267 = PRODUCT_DEFINITION ( 'UNKNOWN', '', #51, #40 ) ;
#268 = VERTEX_POINT ( 'NONE', #26 ) ;
#269 = DIRECTION ( 'NONE',  ( 0.0000000000000000000, 0.0000000000000000000, 1.000000000000000000 ) ) ;
#270 =( NAMED_UNIT ( * ) PLANE_ANGLE_UNIT ( ) SI_UNIT ( $, .RADIAN. ) );
#271 = CARTESIAN_POINT ( 'NONE',  ( 0.1100000000000001948, 1.347111479062090784E-17, 2.500000000000000000 ) ) ;
#272 = ADVANCED_FACE ( 'NONE', ( #187 ), #345, .T. ) ;
#273 = VERTEX_POINT ( 'NONE', #246 ) ;
#274 = CONICAL_SURFACE ( 'NONE', #220, 0.1100000000000001948, 0.7853981633974517207 ) ;
#275 = ORIENTED_EDGE ( 'NONE', *, *, #297, .F. ) ;
#276 = DIRECTION ( 'NONE',  ( 0.0000000000000000000, 0.0000000000000000000, -1.000000000000000000 ) ) ;
#277 = DIMENSIONAL_EXPONENTS ( 1.000000000000000000, 0.0000000000000000000, 0.0000000000000000000, 0.0000000000000000000, 0.0000000000000000000, 0.0000000000000000000, 0.0000000000000000000 ) ;
#278 = ORIENTED_EDGE ( 'NONE', *, *, #11, .T. ) ;
#279 = CARTESIAN_POINT ( 'NONE',  ( 0.0000000000000000000, 0.0000000000000000000, 2.500000000000000000 ) ) ;
#280 = CLOSED_SHELL ( 'NONE', ( #243, #132, #42, #153, #20, #272, #123, #350, #58, #221, #286, #194 ) ) ;
#281 = EDGE_LOOP ( 'NONE', ( #86, #64, #310, #170 ) ) ;
#282 = DIRECTION ( 'NONE',  ( -1.000000000000000000, 0.0000000000000000000, 0.0000000000000000000 ) ) ;
#283 = AXIS2_PLACEMENT_3D ( 'NONE', #140, #217, #188 ) ;
#284 = DIRECTION ( 'NONE',  ( 1.000000000000000000, 0.0000000000000000000, 0.0000000000000000000 ) ) ;
#285 = CARTESIAN_POINT ( 'NONE',  ( 3.673940397442059190E-18, 0.0000000000000000000, 0.0000000000000000000 ) ) ;
#286 = ADVANCED_FACE ( 'NONE', ( #245 ), #24, .F. ) ;
#287 = VECTOR ( 'NONE', #131, 39.37007874015748143 ) ;
#288 = DIRECTION ( 'NONE',  ( 1.000000000000000000, 0.0000000000000000000, 0.0000000000000000000 ) ) ;
#289 = SHAPE_DEFINITION_REPRESENTATION ( #252, #186 ) ;
#290 = AXIS2_PLACEMENT_3D ( 'NONE', #106, #323, #322 ) ;
#291 = LINE ( 'NONE', #46, #19 ) ;
#292 = CIRCLE ( 'NONE', #120, 0.1250000000000000000 ) ;
#293 = AXIS2_PLACEMENT_3D ( 'NONE', #171, #35, #91 ) ;
#294 = FACE_OUTER_BOUND ( 'NONE', #3, .T. ) ;
#295 = AXIS2_PLACEMENT_3D ( 'NONE', #250, #235, #17 ) ;
#296 = DIRECTION ( 'NONE',  ( 0.0000000000000000000, 0.0000000000000000000, 1.000000000000000000 ) ) ;
#297 = EDGE_CURVE ( 'NONE', #119, #273, #137, .T. ) ;
#298 = EDGE_LOOP ( 'NONE', ( #173, #195, #90, #307 ) ) ;
#299 = ORIENTED_EDGE ( 'NONE', *, *, #318, .T. ) ;
#300 = CARTESIAN_POINT ( 'NONE',  ( 9.193532640014472135E-17, 0.0000000000000000000, 0.7507089102274522308 ) ) ;
#301 = FACE_OUTER_BOUND ( 'NONE', #200, .T. ) ;
#302 = EDGE_LOOP ( 'NONE', ( #63, #198 ) ) ;
#303 = PRODUCT_RELATED_PRODUCT_CATEGORY ( 'part', '', ( #144 ) ) ;
#304 = VERTEX_POINT ( 'NONE', #346 ) ;
#305 = FACE_OUTER_BOUND ( 'NONE', #34, .T. ) ;
#306 = CONICAL_SURFACE ( 'NONE', #22, 0.1248749999999999999, 0.1745329251994338082 ) ;
#307 = ORIENTED_EDGE ( 'NONE', *, *, #11, .F. ) ;
#308 = DIRECTION ( 'NONE',  ( -0.0000000000000000000, -0.0000000000000000000, -1.000000000000000000 ) ) ;
#309 = ORIENTED_EDGE ( 'NONE', *, *, #73, .F. ) ;
#310 = ORIENTED_EDGE ( 'NONE', *, *, #333, .T. ) ;
#311 = EDGE_LOOP ( 'NONE', ( #172, #161, #349, #201 ) ) ;
#312 = PRESENTATION_LAYER_ASSIGNMENT (  '', '', ( #232 ) ) ;
#313 = CARTESIAN_POINT ( 'NONE',  ( 0.0000000000000000000, 0.0000000000000000000, 0.0000000000000000000 ) ) ;
#314 = CARTESIAN_POINT ( 'NONE',  ( 0.0000000000000000000, 0.0000000000000000000, 0.0000000000000000000 ) ) ;
#315 = CIRCLE ( 'NONE', #334, 0.1248749999999999999 ) ;
#316 = UNCERTAINTY_MEASURE_WITH_UNIT (LENGTH_MEASURE( 1.000000000000000082E-05 ), #121, 'distance_accuracy_value', 'NONE');
#317 = APPLICATION_PROTOCOL_DEFINITION ( 'draft international standard', 'automotive_design', 1998, #191 ) ;
#318 = EDGE_CURVE ( 'NONE', #61, #168, #341, .T. ) ;
#319 = DIRECTION ( 'NONE',  ( -1.000000000000000000, 0.0000000000000000000, 0.0000000000000000000 ) ) ;
#320 = CARTESIAN_POINT ( 'NONE',  ( 0.1248749999999999999, 1.529277690435257475E-17, 0.03000000000000000583 ) ) ;
#321 = DIRECTION ( 'NONE',  ( -1.224646799147353207E-16, -0.0000000000000000000, -1.000000000000000000 ) ) ;
#322 = DIRECTION ( 'NONE',  ( 1.000000000000000000, 0.0000000000000000000, 0.0000000000000000000 ) ) ;
#323 = DIRECTION ( 'NONE',  ( 0.0000000000000000000, 0.0000000000000000000, 1.000000000000000000 ) ) ;
#324 = AXIS2_PLACEMENT_3D ( 'NONE', #236, #21, #288 ) ;
#325 = VERTEX_POINT ( 'NONE', #108 ) ;
#326 = AXIS2_PLACEMENT_3D ( 'NONE', #142, #224, #327 ) ;
#327 = DIRECTION ( 'NONE',  ( 1.000000000000000000, 0.0000000000000000000, 0.0000000000000000000 ) ) ;
#328 = ORIENTED_EDGE ( 'NONE', *, *, #174, .F. ) ;
#329 = ORIENTED_EDGE ( 'NONE', *, *, #340, .F. ) ;
#330 = DIRECTION ( 'NONE',  ( 1.224646799147353207E-16, 1.000000000000000000, -0.0000000000000000000 ) ) ;
#331 = ORIENTED_EDGE ( 'NONE', *, *, #343, .F. ) ;
#332 = DIRECTION ( 'NONE',  ( 1.000000000000000000, 0.0000000000000000000, 0.0000000000000000000 ) ) ;
#333 = EDGE_CURVE ( 'NONE', #253, #268, #104, .T. ) ;
#334 = AXIS2_PLACEMENT_3D ( 'NONE', #6, #94, #282 ) ;
#335 = CARTESIAN_POINT ( 'NONE',  ( -0.09487500000000000100, 1.345580670563154592E-17, 0.0000000000000000000 ) ) ;
#336 = AXIS2_PLACEMENT_3D ( 'NONE', #300, #49, #155 ) ;
#337 = LENGTH_MEASURE_WITH_UNIT ( LENGTH_MEASURE( 0.02539999999999999897 ), #234 );
#338 = DIRECTION ( 'NONE',  ( -0.0000000000000000000, -0.0000000000000000000, -1.000000000000000000 ) ) ;
#339 = CARTESIAN_POINT ( 'NONE',  ( 0.1250000000000000000, 1.530808498934191509E-17, 2.500000000000000000 ) ) ;
#340 = EDGE_CURVE ( 'NONE', #268, #253, #28, .T. ) ;
#341 = CIRCLE ( 'NONE', #8, 0.1100000000000001948 ) ;
#342 = CARTESIAN_POINT ( 'NONE',  ( 0.1250000000000000000, 1.530808498934191509E-17, 2.485000000000000320 ) ) ;
#343 = EDGE_CURVE ( 'NONE', #61, #244, #159, .T. ) ;
#344 = COLOUR_RGB ( '',0.7921568627450980005, 0.8196078431372548767, 0.9333333333333333481 ) ;
#345 = CYLINDRICAL_SURFACE ( 'NONE', #249, 0.1250000000000000000 ) ;
#346 = CARTESIAN_POINT ( 'NONE',  ( -0.1248749999999999166, 1.530043094684724646E-17, 0.7500000000000001110 ) ) ;
#347 = DIRECTION ( 'NONE',  ( 0.0000000000000000000, 0.0000000000000000000, 1.000000000000000000 ) ) ;
#348 = DIRECTION ( 'NONE',  ( -0.0000000000000000000, -0.0000000000000000000, -1.000000000000000000 ) ) ;
#349 = ORIENTED_EDGE ( 'NONE', *, *, #214, .T. ) ;
#350 = ADVANCED_FACE ( 'NONE', ( #294 ), #274, .T. ) ;
#351 = CARTESIAN_POINT ( 'NONE',  ( -0.1250000000000000000, 0.0000000000000000000, 2.500000000000000000 ) ) ;
ENDSEC;
END-ISO-10303-21;
