ISO-10303-21;
HEADER;
FILE_DESCRIPTION (( 'STEP AP214' ),
    '1' );
FILE_NAME ('56737.STEP',
    '2023-06-30T22:13:46',
    ( '' ),
    ( '' ),
    'SwSTEP 2.0',
    'SolidWorks 2023',
    '' );
FILE_SCHEMA (( 'AUTOMOTIVE_DESIGN' ));
ENDSEC;

DATA;
#1 =( GEOMETRIC_REPRESENTATION_CONTEXT ( 3 ) GLOBAL_UNCERTAINTY_ASSIGNED_CONTEXT ( ( #145 ) ) GLOBAL_UNIT_ASSIGNED_CONTEXT ( ( #175, #56, #236 ) ) REPRESENTATION_CONTEXT ( 'NONE', 'WORKASPACE' ) );
#2 = PRESENTATION_LAYER_ASSIGNMENT (  '', '', ( #226 ) ) ;
#3 = FILL_AREA_STYLE_COLOUR ( '', #225 ) ;
#4 = FILL_AREA_STYLE_COLOUR ( '', #78 ) ;
#5 = MECHANICAL_DESIGN_GEOMETRIC_PRESENTATION_REPRESENTATION (  '', ( #43 ), #106 ) ;
#6 = FILL_AREA_STYLE ('',( #4 ) ) ;
#7 = DIRECTION ( 'NONE',  ( -1.000000000000000000, 0.000000000000000000, 0.000000000000000000 ) ) ;
#8 = EDGE_CURVE ( 'NONE', #129, #191, #304, .T. ) ;
#9 = CIRCLE ( 'NONE', #83, 0.4999999999999997224 ) ;
#10 = CARTESIAN_POINT ( 'NONE',  ( 0.4999999999999996669, 5.000000000000000000, 0.000000000000000000 ) ) ;
#11 = EDGE_LOOP ( 'NONE', ( #41, #101, #331, #96, #214 ) ) ;
#12 = DIRECTION ( 'NONE',  ( -1.000000000000000000, 0.000000000000000000, 0.000000000000000000 ) ) ;
#13 = FILL_AREA_STYLE ('',( #353 ) ) ;
#14 = DIRECTION ( 'NONE',  ( 0.000000000000000000, 0.000000000000000000, -1.000000000000000000 ) ) ;
#15 = MANIFOLD_SOLID_BREP ( 'Revolve - Tool Body (Straight Shanked)', #189 ) ;
#16 = UNCERTAINTY_MEASURE_WITH_UNIT (LENGTH_MEASURE( 1.000000000000000082E-05 ), #284, 'distance_accuracy_value', 'NONE');
#17 =( LENGTH_UNIT ( ) NAMED_UNIT ( * ) SI_UNIT ( $, .METRE. ) );
#18 = DIMENSIONAL_EXPONENTS ( 1.000000000000000000, 0.000000000000000000, 0.000000000000000000, 0.000000000000000000, 0.000000000000000000, 0.000000000000000000, 0.000000000000000000 ) ;
#19 = AXIS2_PLACEMENT_3D ( 'NONE', #95, #206, #162 ) ;
#20 = MECHANICAL_DESIGN_GEOMETRIC_PRESENTATION_REPRESENTATION (  '', ( #226 ), #114 ) ;
#21 = FILL_AREA_STYLE ('',( #171 ) ) ;
#22 = CARTESIAN_POINT ( 'NONE',  ( 0.000000000000000000, 2.625000000000000000, -0.4999999999999996669 ) ) ;
#23 = DIRECTION ( 'NONE',  ( 0.000000000000000000, 0.000000000000000000, 1.000000000000000000 ) ) ;
#24 = AXIS2_PLACEMENT_3D ( 'NONE', #324, #296, #232 ) ;
#25 = APPLICATION_PROTOCOL_DEFINITION ( 'draft international standard', 'automotive_design', 1998, #195 ) ;
#26 = MANIFOLD_SOLID_BREP ( 'Revolve - Cutting Edge', #340 ) ;
#27 = EDGE_CURVE ( 'NONE', #94, #342, #199, .T. ) ;
#28 = CARTESIAN_POINT ( 'NONE',  ( 6.123233995736764803E-17, 0.000000000000000000, 0.4999999999999998335 ) ) ;
#29 = FILL_AREA_STYLE_COLOUR ( '', #238 ) ;
#30 = LENGTH_MEASURE_WITH_UNIT ( LENGTH_MEASURE( 0.02539999999999999897 ), #260 );
#31 = MECHANICAL_DESIGN_GEOMETRIC_PRESENTATION_REPRESENTATION (  '', ( #57 ), #77 ) ;
#32 = EDGE_CURVE ( 'NONE', #329, #313, #228, .T. ) ;
#33 = PRESENTATION_STYLE_ASSIGNMENT (( #295 ) ) ;
#34 = COLOUR_RGB ( '',1.000000000000000000, 0.000000000000000000, 0.000000000000000000 ) ;
#35 = FILL_AREA_STYLE ('',( #3 ) ) ;
#36 = DIRECTION ( 'NONE',  ( 0.000000000000000000, 0.000000000000000000, -1.000000000000000000 ) ) ;
#37 = ORIENTED_EDGE ( 'NONE', *, *, #32, .T. ) ;
#38 = PRODUCT_RELATED_PRODUCT_CATEGORY ( 'part', '', ( #40 ) ) ;
#39 = DIRECTION ( 'NONE',  ( -0.000000000000000000, -1.000000000000000000, -0.000000000000000000 ) ) ;
#40 = PRODUCT ( '56737', '56737', '', ( #229 ) ) ;
#41 = ORIENTED_EDGE ( 'NONE', *, *, #54, .T. ) ;
#42 = DIMENSIONAL_EXPONENTS ( 1.000000000000000000, 0.000000000000000000, 0.000000000000000000, 0.000000000000000000, 0.000000000000000000, 0.000000000000000000, 0.000000000000000000 ) ;
#43 = STYLED_ITEM ( 'NONE', ( #216 ), #141 ) ;
#44 = CIRCLE ( 'NONE', #84, 0.5000000000000000000 ) ;
#45 = AXIS2_PLACEMENT_3D ( 'NONE', #285, #223, #55 ) ;
#46 = ORIENTED_EDGE ( 'NONE', *, *, #254, .T. ) ;
#47 = CARTESIAN_POINT ( 'NONE',  ( -0.4999999999999992228, 2.625000000000000000, 0.000000000000000000 ) ) ;
#48 = SURFACE_STYLE_USAGE ( .BOTH. , #102 ) ;
#49 = DIRECTION ( 'NONE',  ( -1.224646799147352961E-16, 1.000000000000000000, -0.000000000000000000 ) ) ;
#50 = DIRECTION ( 'NONE',  ( -1.000000000000000000, 0.000000000000000000, 0.000000000000000000 ) ) ;
#51 =( NAMED_UNIT ( * ) SI_UNIT ( $, .STERADIAN. ) SOLID_ANGLE_UNIT ( ) );
#52 = AXIS2_PLACEMENT_3D ( 'NONE', #116, #310, #50 ) ;
#53 = PRESENTATION_STYLE_ASSIGNMENT (( #311 ) ) ;
#54 = EDGE_CURVE ( 'NONE', #342, #94, #90, .T. ) ;
#55 = DIRECTION ( 'NONE',  ( 0.000000000000000000, -0.000000000000000000, 1.000000000000000000 ) ) ;
#56 =( NAMED_UNIT ( * ) PLANE_ANGLE_UNIT ( ) SI_UNIT ( $, .RADIAN. ) );
#57 = STYLED_ITEM ( 'NONE', ( #293 ), #26 ) ;
#58 = PRESENTATION_STYLE_ASSIGNMENT (( #209 ) ) ;
#59 = LINE ( 'NONE', #28, #124 ) ;
#60 = MECHANICAL_DESIGN_GEOMETRIC_PRESENTATION_REPRESENTATION (  '', ( #272 ), #113 ) ;
#61 = MECHANICAL_DESIGN_GEOMETRIC_PRESENTATION_REPRESENTATION (  '', ( #154 ), #239 ) ;
#62 = SURFACE_SIDE_STYLE ('',( #347 ) ) ;
#63 = FILL_AREA_STYLE ('',( #29 ) ) ;
#64 = FACE_OUTER_BOUND ( 'NONE', #74, .T. ) ;
#65 = SURFACE_STYLE_FILL_AREA ( #6 ) ;
#66 = EDGE_CURVE ( 'NONE', #191, #129, #9, .T. ) ;
#67 = ORIENTED_EDGE ( 'NONE', *, *, #252, .F. ) ;
#68 = DIRECTION ( 'NONE',  ( -1.224646799147352961E-16, 1.000000000000000000, -0.000000000000000000 ) ) ;
#69 = PRODUCT_DEFINITION_SHAPE ( 'NONE', 'NONE',  #127 ) ;
#70 = ORIENTED_EDGE ( 'NONE', *, *, #100, .F. ) ;
#71 =( LENGTH_UNIT ( ) NAMED_UNIT ( * ) SI_UNIT ( $, .METRE. ) );
#72 = FILL_AREA_STYLE_COLOUR ( '', #34 ) ;
#73 = DIMENSIONAL_EXPONENTS ( 1.000000000000000000, 0.000000000000000000, 0.000000000000000000, 0.000000000000000000, 0.000000000000000000, 0.000000000000000000, 0.000000000000000000 ) ;
#74 = EDGE_LOOP ( 'NONE', ( #67, #327 ) ) ;
#75 = CARTESIAN_POINT ( 'NONE',  ( 6.123233995736766036E-17, 0.5000000000000000000, 0.5000000000000000000 ) ) ;
#76 = LENGTH_MEASURE_WITH_UNIT ( LENGTH_MEASURE( 0.02539999999999999897 ), #140 );
#77 =( GEOMETRIC_REPRESENTATION_CONTEXT ( 3 ) GLOBAL_UNCERTAINTY_ASSIGNED_CONTEXT ( ( #219 ) ) GLOBAL_UNIT_ASSIGNED_CONTEXT ( ( #264, #326, #87 ) ) REPRESENTATION_CONTEXT ( 'NONE', 'WORKASPACE' ) );
#78 = COLOUR_RGB ( '',1.000000000000000000, 0.000000000000000000, 0.000000000000000000 ) ;
#79 = UNCERTAINTY_MEASURE_WITH_UNIT (LENGTH_MEASURE( 1.000000000000000082E-05 ), #373, 'distance_accuracy_value', 'NONE');
#80 = CARTESIAN_POINT ( 'NONE',  ( -6.123233995736759873E-17, 5.000000000000000000, 0.000000000000000000 ) ) ;
#81 = EDGE_CURVE ( 'NONE', #313, #191, #294, .T. ) ;
#82 =( CONVERSION_BASED_UNIT ( 'INCH', #258 ) LENGTH_UNIT ( ) NAMED_UNIT ( #42 ) );
#83 = AXIS2_PLACEMENT_3D ( 'NONE', #234, #269, #7 ) ;
#84 = AXIS2_PLACEMENT_3D ( 'NONE', #169, #307, #14 ) ;
#85 = DIMENSIONAL_EXPONENTS ( 1.000000000000000000, 0.000000000000000000, 0.000000000000000000, 0.000000000000000000, 0.000000000000000000, 0.000000000000000000, 0.000000000000000000 ) ;
#86 = APPLICATION_PROTOCOL_DEFINITION ( 'draft international standard', 'automotive_design', 1998, #268 ) ;
#87 =( NAMED_UNIT ( * ) SI_UNIT ( $, .STERADIAN. ) SOLID_ANGLE_UNIT ( ) );
#88 = SURFACE_STYLE_FILL_AREA ( #21 ) ;
#89 = ADVANCED_BREP_SHAPE_REPRESENTATION ( '56737', ( #26, #15, #133 ), #250 ) ;
#90 = CIRCLE ( 'NONE', #19, 0.4999999999999996669 ) ;
#91 = EDGE_CURVE ( 'NONE', #301, #306, #341, .T. ) ;
#92 = FACE_OUTER_BOUND ( 'NONE', #299, .T. ) ;
#93 = ADVANCED_FACE ( 'NONE', ( #131 ), #158, .T. ) ;
#94 = VERTEX_POINT ( 'NONE', #302 ) ;
#95 = CARTESIAN_POINT ( 'NONE',  ( 0.000000000000000000, 2.625000000000000000, 0.000000000000000000 ) ) ;
#96 = ORIENTED_EDGE ( 'NONE', *, *, #91, .F. ) ;
#97 = STYLED_ITEM ( 'NONE', ( #371 ), #15 ) ;
#98 = ORIENTED_EDGE ( 'NONE', *, *, #66, .T. ) ;
#99 = DIRECTION ( 'NONE',  ( -1.000000000000000000, 0.000000000000000000, 0.000000000000000000 ) ) ;
#100 = EDGE_CURVE ( 'NONE', #235, #325, #173, .T. ) ;
#101 = ORIENTED_EDGE ( 'NONE', *, *, #367, .T. ) ;
#102 = SURFACE_SIDE_STYLE ('',( #243 ) ) ;
#103 = ORIENTED_EDGE ( 'NONE', *, *, #254, .F. ) ;
#104 = FACE_OUTER_BOUND ( 'NONE', #211, .T. ) ;
#105 = PRESENTATION_STYLE_ASSIGNMENT (( #363 ) ) ;
#106 =( GEOMETRIC_REPRESENTATION_CONTEXT ( 3 ) GLOBAL_UNCERTAINTY_ASSIGNED_CONTEXT ( ( #16 ) ) GLOBAL_UNIT_ASSIGNED_CONTEXT ( ( #284, #193, #335 ) ) REPRESENTATION_CONTEXT ( 'NONE', 'WORKASPACE' ) );
#107 = PRESENTATION_LAYER_ASSIGNMENT (  '', '', ( #154 ) ) ;
#108 = CYLINDRICAL_SURFACE ( 'NONE', #305, 0.4999999999999996114 ) ;
#109 = UNCERTAINTY_MEASURE_WITH_UNIT (LENGTH_MEASURE( 1.000000000000000082E-05 ), #279, 'distance_accuracy_value', 'NONE');
#110 = DIRECTION ( 'NONE',  ( 0.000000000000000000, 0.000000000000000000, -1.000000000000000000 ) ) ;
#111 = CARTESIAN_POINT ( 'NONE',  ( 2.296212748401287479E-16, 2.625000000000000000, 0.000000000000000000 ) ) ;
#112 = SURFACE_STYLE_USAGE ( .BOTH. , #143 ) ;
#113 =( GEOMETRIC_REPRESENTATION_CONTEXT ( 3 ) GLOBAL_UNCERTAINTY_ASSIGNED_CONTEXT ( ( #139 ) ) GLOBAL_UNIT_ASSIGNED_CONTEXT ( ( #157, #263, #321 ) ) REPRESENTATION_CONTEXT ( 'NONE', 'WORKASPACE' ) );
#114 =( GEOMETRIC_REPRESENTATION_CONTEXT ( 3 ) GLOBAL_UNCERTAINTY_ASSIGNED_CONTEXT ( ( #362 ) ) GLOBAL_UNIT_ASSIGNED_CONTEXT ( ( #328, #126, #220 ) ) REPRESENTATION_CONTEXT ( 'NONE', 'WORKASPACE' ) );
#115 = ORIENTED_EDGE ( 'NONE', *, *, #81, .T. ) ;
#116 = CARTESIAN_POINT ( 'NONE',  ( -6.123233995736758640E-17, 5.000000000000000000, 0.000000000000000000 ) ) ;
#117 = DIRECTION ( 'NONE',  ( -0.000000000000000000, -1.000000000000000000, -0.000000000000000000 ) ) ;
#118 = AXIS2_PLACEMENT_3D ( 'NONE', #111, #49, #12 ) ;
#119 = DIRECTION ( 'NONE',  ( -0.000000000000000000, -1.000000000000000000, -0.000000000000000000 ) ) ;
#120 = ADVANCED_FACE ( 'NONE', ( #357 ), #166, .F. ) ;
#121 =( NAMED_UNIT ( * ) SI_UNIT ( $, .STERADIAN. ) SOLID_ANGLE_UNIT ( ) );
#122 = DIRECTION ( 'NONE',  ( 0.000000000000000000, 0.000000000000000000, -1.000000000000000000 ) ) ;
#123 = VECTOR ( 'NONE', #128, 39.37007874015748143 ) ;
#124 = VECTOR ( 'NONE', #117, 39.37007874015748143 ) ;
#125 = CARTESIAN_POINT ( 'NONE',  ( -6.123233995736766036E-17, 0.5000000000000000000, 0.000000000000000000 ) ) ;
#126 =( NAMED_UNIT ( * ) PLANE_ANGLE_UNIT ( ) SI_UNIT ( $, .RADIAN. ) );
#127 = PRODUCT_DEFINITION ( 'UNKNOWN', '', #178, #230 ) ;
#128 = DIRECTION ( 'NONE',  ( -1.224646799147352961E-16, 1.000000000000000000, -0.000000000000000000 ) ) ;
#129 = VERTEX_POINT ( 'NONE', #308 ) ;
#130 = LENGTH_MEASURE_WITH_UNIT ( LENGTH_MEASURE( 0.02539999999999999897 ), #71 );
#131 = FACE_OUTER_BOUND ( 'NONE', #163, .T. ) ;
#132 = DIRECTION ( 'NONE',  ( 0.000000000000000000, 0.000000000000000000, -1.000000000000000000 ) ) ;
#133 = AXIS2_PLACEMENT_3D ( 'NONE', #201, #255, #292 ) ;
#134 = DIRECTION ( 'NONE',  ( 0.000000000000000000, 0.000000000000000000, 1.000000000000000000 ) ) ;
#135 = DIMENSIONAL_EXPONENTS ( 1.000000000000000000, 0.000000000000000000, 0.000000000000000000, 0.000000000000000000, 0.000000000000000000, 0.000000000000000000, 0.000000000000000000 ) ;
#136 = DIRECTION ( 'NONE',  ( 0.000000000000000000, 0.000000000000000000, -1.000000000000000000 ) ) ;
#137 = ORIENTED_EDGE ( 'NONE', *, *, #244, .T. ) ;
#138 = SPHERICAL_SURFACE ( 'NONE', #289, 0.5000000000000000000 ) ;
#139 = UNCERTAINTY_MEASURE_WITH_UNIT (LENGTH_MEASURE( 1.000000000000000082E-05 ), #157, 'distance_accuracy_value', 'NONE');
#140 =( LENGTH_UNIT ( ) NAMED_UNIT ( * ) SI_UNIT ( $, .METRE. ) );
#141 = ADVANCED_FACE ( 'NONE', ( #237 ), #167, .T. ) ;
#142 = STYLED_ITEM ( 'NONE', ( #105 ), #185 ) ;
#143 = SURFACE_SIDE_STYLE ('',( #88 ) ) ;
#144 = CARTESIAN_POINT ( 'NONE',  ( -0.5000000000000000000, 0.5000000000000000000, 6.123233995736764803E-17 ) ) ;
#145 = UNCERTAINTY_MEASURE_WITH_UNIT (LENGTH_MEASURE( 1.000000000000000082E-05 ), #175, 'distance_accuracy_value', 'NONE');
#146 = SURFACE_STYLE_FILL_AREA ( #334 ) ;
#147 = DIRECTION ( 'NONE',  ( 1.000000000000000000, 0.000000000000000000, 0.000000000000000000 ) ) ;
#148 = AXIS2_PLACEMENT_3D ( 'NONE', #179, #119, #320 ) ;
#149 = ORIENTED_EDGE ( 'NONE', *, *, #168, .T. ) ;
#150 =( NAMED_UNIT ( * ) PLANE_ANGLE_UNIT ( ) SI_UNIT ( $, .RADIAN. ) );
#151 =( LENGTH_UNIT ( ) NAMED_UNIT ( * ) SI_UNIT ( $, .METRE. ) );
#152 = SURFACE_STYLE_FILL_AREA ( #63 ) ;
#153 = EDGE_CURVE ( 'NONE', #306, #325, #256, .T. ) ;
#154 = STYLED_ITEM ( 'NONE', ( #53 ), #233 ) ;
#155 = LENGTH_MEASURE_WITH_UNIT ( LENGTH_MEASURE( 0.02539999999999999897 ), #151 );
#156 = SHAPE_DEFINITION_REPRESENTATION ( #69, #89 ) ;
#157 =( CONVERSION_BASED_UNIT ( 'INCH', #262 ) LENGTH_UNIT ( ) NAMED_UNIT ( #18 ) );
#158 = CYLINDRICAL_SURFACE ( 'NONE', #322, 0.4999999999999998335 ) ;
#159 = PRESENTATION_LAYER_ASSIGNMENT (  '', '', ( #272 ) ) ;
#160 = CIRCLE ( 'NONE', #118, 0.4999999999999994449 ) ;
#161 = ORIENTED_EDGE ( 'NONE', *, *, #354, .T. ) ;
#162 = DIRECTION ( 'NONE',  ( 0.000000000000000000, 0.000000000000000000, -1.000000000000000000 ) ) ;
#163 = EDGE_LOOP ( 'NONE', ( #253, #227, #137, #103, #207 ) ) ;
#164 = DIRECTION ( 'NONE',  ( 1.224646799147353207E-16, -0.000000000000000000, 1.000000000000000000 ) ) ;
#165 = ORIENTED_EDGE ( 'NONE', *, *, #91, .T. ) ;
#166 = PLANE ( 'NONE',  #190 ) ;
#167 = CYLINDRICAL_SURFACE ( 'NONE', #202, 0.4999999999999998335 ) ;
#168 = EDGE_CURVE ( 'NONE', #329, #129, #221, .T. ) ;
#169 = CARTESIAN_POINT ( 'NONE',  ( 0.000000000000000000, 0.5000000000000000000, 0.000000000000000000 ) ) ;
#170 = CARTESIAN_POINT ( 'NONE',  ( 0.000000000000000000, 0.000000000000000000, 0.000000000000000000 ) ) ;
#171 = FILL_AREA_STYLE_COLOUR ( '', #261 ) ;
#172 = DIRECTION ( 'NONE',  ( -1.000000000000000000, 0.000000000000000000, 0.000000000000000000 ) ) ;
#173 = CIRCLE ( 'NONE', #266, 0.5000000000000000000 ) ;
#174 = CARTESIAN_POINT ( 'NONE',  ( 0.4999999999999997224, 2.625000000000000000, 6.123233995736762338E-17 ) ) ;
#175 =( CONVERSION_BASED_UNIT ( 'INCH', #366 ) LENGTH_UNIT ( ) NAMED_UNIT ( #85 ) );
#176 = EDGE_LOOP ( 'NONE', ( #70, #46, #165, #242 ) ) ;
#177 = AXIS2_PLACEMENT_3D ( 'NONE', #259, #298, #36 ) ;
#178 = PRODUCT_DEFINITION_FORMATION_WITH_SPECIFIED_SOURCE ( 'ANY', '', #40, .NOT_KNOWN. ) ;
#179 = CARTESIAN_POINT ( 'NONE',  ( 0.000000000000000000, 0.5000000000000000000, 0.000000000000000000 ) ) ;
#180 = SURFACE_STYLE_USAGE ( .BOTH. , #319 ) ;
#181 = DIRECTION ( 'NONE',  ( -1.000000000000000000, 0.000000000000000000, 0.000000000000000000 ) ) ;
#182 = SURFACE_SIDE_STYLE ('',( #65 ) ) ;
#183 = MECHANICAL_DESIGN_GEOMETRIC_PRESENTATION_REPRESENTATION (  '', ( #142 ), #1 ) ;
#184 = ORIENTED_EDGE ( 'NONE', *, *, #27, .F. ) ;
#185 = ADVANCED_FACE ( 'NONE', ( #213 ), #274, .T. ) ;
#186 = DIRECTION ( 'NONE',  ( -0.000000000000000000, -1.000000000000000000, -0.000000000000000000 ) ) ;
#187 = EDGE_LOOP ( 'NONE', ( #352, #37, #115, #336 ) ) ;
#188 = FILL_AREA_STYLE ('',( #72 ) ) ;
#189 = CLOSED_SHELL ( 'NONE', ( #303, #197, #318, #120 ) ) ;
#190 = AXIS2_PLACEMENT_3D ( 'NONE', #10, #309, #196 ) ;
#191 = VERTEX_POINT ( 'NONE', #356 ) ;
#192 = CARTESIAN_POINT ( 'NONE',  ( 0.5000000000000000000, 0.5000000000000000000, 0.000000000000000000 ) ) ;
#193 =( NAMED_UNIT ( * ) PLANE_ANGLE_UNIT ( ) SI_UNIT ( $, .RADIAN. ) );
#194 = SURFACE_SIDE_STYLE ('',( #146 ) ) ;
#195 = APPLICATION_CONTEXT ( 'automotive_design' ) ;
#196 = DIRECTION ( 'NONE',  ( 1.000000000000000000, 1.224646799147352961E-16, 0.000000000000000000 ) ) ;
#197 = ADVANCED_FACE ( 'NONE', ( #64 ), #350, .F. ) ;
#198 = CYLINDRICAL_SURFACE ( 'NONE', #257, 0.4999999999999996114 ) ;
#199 = CIRCLE ( 'NONE', #177, 0.4999999999999996669 ) ;
#200 =( LENGTH_UNIT ( ) NAMED_UNIT ( * ) SI_UNIT ( $, .METRE. ) );
#201 = CARTESIAN_POINT ( 'NONE',  ( 0.000000000000000000, 0.000000000000000000, 0.000000000000000000 ) ) ;
#202 = AXIS2_PLACEMENT_3D ( 'NONE', #280, #186, #136 ) ;
#203 = AXIS2_PLACEMENT_3D ( 'NONE', #270, #265, #267 ) ;
#204 = PLANE ( 'NONE',  #45 ) ;
#205 = ADVANCED_FACE ( 'NONE', ( #92 ), #204, .T. ) ;
#206 = DIRECTION ( 'NONE',  ( -0.000000000000000000, -1.000000000000000000, -0.000000000000000000 ) ) ;
#207 = ORIENTED_EDGE ( 'NONE', *, *, #354, .F. ) ;
#208 = DIRECTION ( 'NONE',  ( 1.000000000000000000, 0.000000000000000000, 0.000000000000000000 ) ) ;
#209 = SURFACE_STYLE_USAGE ( .BOTH. , #62 ) ;
#210 = AXIS2_PLACEMENT_3D ( 'NONE', #125, #134, #208 ) ;
#211 = EDGE_LOOP ( 'NONE', ( #161, #212, #218, #364 ) ) ;
#212 = ORIENTED_EDGE ( 'NONE', *, *, #100, .T. ) ;
#213 = FACE_OUTER_BOUND ( 'NONE', #176, .T. ) ;
#214 = ORIENTED_EDGE ( 'NONE', *, *, #244, .F. ) ;
#215 = CARTESIAN_POINT ( 'NONE',  ( 0.000000000000000000, 0.000000000000000000, -0.4999999999999998335 ) ) ;
#216 = PRESENTATION_STYLE_ASSIGNMENT (( #48 ) ) ;
#217 =( GEOMETRIC_REPRESENTATION_CONTEXT ( 3 ) GLOBAL_UNCERTAINTY_ASSIGNED_CONTEXT ( ( #282 ) ) GLOBAL_UNIT_ASSIGNED_CONTEXT ( ( #82, #317, #121 ) ) REPRESENTATION_CONTEXT ( 'NONE', 'WORKASPACE' ) );
#218 = ORIENTED_EDGE ( 'NONE', *, *, #153, .F. ) ;
#219 = UNCERTAINTY_MEASURE_WITH_UNIT (LENGTH_MEASURE( 1.000000000000000082E-05 ), #264, 'distance_accuracy_value', 'NONE');
#220 =( NAMED_UNIT ( * ) SI_UNIT ( $, .STERADIAN. ) SOLID_ANGLE_UNIT ( ) );
#221 = LINE ( 'NONE', #271, #315 ) ;
#222 =( LENGTH_UNIT ( ) NAMED_UNIT ( * ) SI_UNIT ( $, .METRE. ) );
#223 = DIRECTION ( 'NONE',  ( 0.000000000000000000, 1.000000000000000000, 0.000000000000000000 ) ) ;
#224 = FILL_AREA_STYLE_COLOUR ( '', #273 ) ;
#225 = COLOUR_RGB ( '',1.000000000000000000, 0.000000000000000000, 0.000000000000000000 ) ;
#226 = STYLED_ITEM ( 'NONE', ( #33 ), #205 ) ;
#227 = ORIENTED_EDGE ( 'NONE', *, *, #27, .T. ) ;
#228 = CIRCLE ( 'NONE', #297, 0.4999999999999994449 ) ;
#229 = PRODUCT_CONTEXT ( 'NONE', #268, 'mechanical' ) ;
#230 = PRODUCT_DEFINITION_CONTEXT ( 'detailed design', #195, 'design' ) ;
#231 = DIRECTION ( 'NONE',  ( -0.000000000000000000, -1.000000000000000000, -0.000000000000000000 ) ) ;
#232 = DIRECTION ( 'NONE',  ( 0.000000000000000000, 0.000000000000000000, -1.000000000000000000 ) ) ;
#233 = ADVANCED_FACE ( 'NONE', ( #104 ), #138, .T. ) ;
#234 = CARTESIAN_POINT ( 'NONE',  ( -6.123233995736758640E-17, 5.000000000000000000, 0.000000000000000000 ) ) ;
#235 = VERTEX_POINT ( 'NONE', #144 ) ;
#236 =( NAMED_UNIT ( * ) SI_UNIT ( $, .STERADIAN. ) SOLID_ANGLE_UNIT ( ) );
#237 = FACE_OUTER_BOUND ( 'NONE', #11, .T. ) ;
#238 = COLOUR_RGB ( '',0.7921568627450980005, 0.8196078431372548767, 0.9333333333333333481 ) ;
#239 =( GEOMETRIC_REPRESENTATION_CONTEXT ( 3 ) GLOBAL_UNCERTAINTY_ASSIGNED_CONTEXT ( ( #109 ) ) GLOBAL_UNIT_ASSIGNED_CONTEXT ( ( #279, #332, #51 ) ) REPRESENTATION_CONTEXT ( 'NONE', 'WORKASPACE' ) );
#240 = ORIENTED_EDGE ( 'NONE', *, *, #8, .T. ) ;
#241 = DIRECTION ( 'NONE',  ( -1.224646799147352961E-16, 1.000000000000000000, -0.000000000000000000 ) ) ;
#242 = ORIENTED_EDGE ( 'NONE', *, *, #153, .T. ) ;
#243 = SURFACE_STYLE_FILL_AREA ( #13 ) ;
#244 = EDGE_CURVE ( 'NONE', #342, #301, #359, .T. ) ;
#245 = VERTEX_POINT ( 'NONE', #75 ) ;
#246 = DIRECTION ( 'NONE',  ( -1.000000000000000000, 0.000000000000000000, 0.000000000000000000 ) ) ;
#247 = SURFACE_SIDE_STYLE ('',( #278 ) ) ;
#248 = PRESENTATION_LAYER_ASSIGNMENT (  '', '', ( #43 ) ) ;
#249 = CARTESIAN_POINT ( 'NONE',  ( 0.000000000000000000, 0.5000000000000000000, -0.5000000000000000000 ) ) ;
#250 =( GEOMETRIC_REPRESENTATION_CONTEXT ( 3 ) GLOBAL_UNCERTAINTY_ASSIGNED_CONTEXT ( ( #79 ) ) GLOBAL_UNIT_ASSIGNED_CONTEXT ( ( #373, #150, #346 ) ) REPRESENTATION_CONTEXT ( 'NONE', 'WORKASPACE' ) );
#251 = DIRECTION ( 'NONE',  ( -1.224646799147352961E-16, 1.000000000000000000, -0.000000000000000000 ) ) ;
#252 = EDGE_CURVE ( 'NONE', #313, #329, #160, .T. ) ;
#253 = ORIENTED_EDGE ( 'NONE', *, *, #367, .F. ) ;
#254 = EDGE_CURVE ( 'NONE', #235, #301, #44, .T. ) ;
#255 = DIRECTION ( 'NONE',  ( 0.000000000000000000, 0.000000000000000000, 1.000000000000000000 ) ) ;
#256 = CIRCLE ( 'NONE', #348, 0.5000000000000000000 ) ;
#257 = AXIS2_PLACEMENT_3D ( 'NONE', #277, #251, #246 ) ;
#258 = LENGTH_MEASURE_WITH_UNIT ( LENGTH_MEASURE( 0.02539999999999999897 ), #222 );
#259 = CARTESIAN_POINT ( 'NONE',  ( 0.000000000000000000, 2.625000000000000000, 0.000000000000000000 ) ) ;
#260 =( LENGTH_UNIT ( ) NAMED_UNIT ( * ) SI_UNIT ( $, .METRE. ) );
#261 = COLOUR_RGB ( '',0.7921568627450980005, 0.8196078431372548767, 0.9333333333333333481 ) ;
#262 = LENGTH_MEASURE_WITH_UNIT ( LENGTH_MEASURE( 0.02539999999999999897 ), #291 );
#263 =( NAMED_UNIT ( * ) PLANE_ANGLE_UNIT ( ) SI_UNIT ( $, .RADIAN. ) );
#264 =( CONVERSION_BASED_UNIT ( 'INCH', #155 ) LENGTH_UNIT ( ) NAMED_UNIT ( #286 ) );
#265 = DIRECTION ( 'NONE',  ( -1.224646799147352961E-16, 1.000000000000000000, 0.000000000000000000 ) ) ;
#266 = AXIS2_PLACEMENT_3D ( 'NONE', #275, #164, #338 ) ;
#267 = DIRECTION ( 'NONE',  ( -1.000000000000000000, -1.224646799147352961E-16, 0.000000000000000000 ) ) ;
#268 = APPLICATION_CONTEXT ( 'automotive_design' ) ;
#269 = DIRECTION ( 'NONE',  ( -1.224646799147352961E-16, 1.000000000000000000, -0.000000000000000000 ) ) ;
#270 = CARTESIAN_POINT ( 'NONE',  ( 2.296212748401287479E-16, 2.625000000000000000, 0.000000000000000000 ) ) ;
#271 = CARTESIAN_POINT ( 'NONE',  ( 0.4999999999999995004, 5.000000000000000000, 6.123233995736761105E-17 ) ) ;
#272 = STYLED_ITEM ( 'NONE', ( #58 ), #93 ) ;
#273 = COLOUR_RGB ( '',1.000000000000000000, 0.000000000000000000, 0.000000000000000000 ) ;
#274 = SPHERICAL_SURFACE ( 'NONE', #210, 0.5000000000000000000 ) ;
#275 = CARTESIAN_POINT ( 'NONE',  ( -6.123233995736766036E-17, 0.5000000000000000000, 0.000000000000000000 ) ) ;
#276 = ORIENTED_EDGE ( 'NONE', *, *, #81, .F. ) ;
#277 = CARTESIAN_POINT ( 'NONE',  ( -6.123233995736759873E-17, 5.000000000000000000, 0.000000000000000000 ) ) ;
#278 = SURFACE_STYLE_FILL_AREA ( #188 ) ;
#279 =( CONVERSION_BASED_UNIT ( 'INCH', #365 ) LENGTH_UNIT ( ) NAMED_UNIT ( #135 ) );
#280 = CARTESIAN_POINT ( 'NONE',  ( 0.000000000000000000, 0.000000000000000000, 0.000000000000000000 ) ) ;
#281 = CARTESIAN_POINT ( 'NONE',  ( -3.061616997868383018E-17, 0.000000000000000000, 0.000000000000000000 ) ) ;
#282 = UNCERTAINTY_MEASURE_WITH_UNIT (LENGTH_MEASURE( 1.000000000000000082E-05 ), #82, 'distance_accuracy_value', 'NONE');
#283 = CIRCLE ( 'NONE', #323, 0.5000000000000000000 ) ;
#284 =( CONVERSION_BASED_UNIT ( 'INCH', #76 ) LENGTH_UNIT ( ) NAMED_UNIT ( #330 ) );
#285 = CARTESIAN_POINT ( 'NONE',  ( 0.000000000000000000, 2.625000000000000000, 0.000000000000000000 ) ) ;
#286 = DIMENSIONAL_EXPONENTS ( 1.000000000000000000, 0.000000000000000000, 0.000000000000000000, 0.000000000000000000, 0.000000000000000000, 0.000000000000000000, 0.000000000000000000 ) ;
#287 = EDGE_LOOP ( 'NONE', ( #372, #149, #360, #276 ) ) ;
#288 = PRESENTATION_LAYER_ASSIGNMENT (  '', '', ( #57 ) ) ;
#289 = AXIS2_PLACEMENT_3D ( 'NONE', #368, #23, #147 ) ;
#290 = CARTESIAN_POINT ( 'NONE',  ( 0.000000000000000000, 0.5000000000000000000, 0.000000000000000000 ) ) ;
#291 =( LENGTH_UNIT ( ) NAMED_UNIT ( * ) SI_UNIT ( $, .METRE. ) );
#292 = DIRECTION ( 'NONE',  ( 1.000000000000000000, 0.000000000000000000, 0.000000000000000000 ) ) ;
#293 = PRESENTATION_STYLE_ASSIGNMENT (( #180 ) ) ;
#294 = LINE ( 'NONE', #351, #123 ) ;
#295 = SURFACE_STYLE_USAGE ( .BOTH. , #182 ) ;
#296 = DIRECTION ( 'NONE',  ( -0.000000000000000000, -1.000000000000000000, -0.000000000000000000 ) ) ;
#297 = AXIS2_PLACEMENT_3D ( 'NONE', #345, #68, #181 ) ;
#298 = DIRECTION ( 'NONE',  ( -0.000000000000000000, -1.000000000000000000, -0.000000000000000000 ) ) ;
#299 = EDGE_LOOP ( 'NONE', ( #355, #184 ) ) ;
#300 = CARTESIAN_POINT ( 'NONE',  ( -6.123233995736766036E-17, 0.5000000000000000000, 0.000000000000000000 ) ) ;
#301 = VERTEX_POINT ( 'NONE', #249 ) ;
#302 = CARTESIAN_POINT ( 'NONE',  ( 6.123233995736763571E-17, 2.625000000000000000, 0.4999999999999996669 ) ) ;
#303 = ADVANCED_FACE ( 'NONE', ( #337 ), #198, .T. ) ;
#304 = CIRCLE ( 'NONE', #52, 0.4999999999999997224 ) ;
#305 = AXIS2_PLACEMENT_3D ( 'NONE', #80, #314, #172 ) ;
#306 = VERTEX_POINT ( 'NONE', #192 ) ;
#307 = DIRECTION ( 'NONE',  ( -0.000000000000000000, -1.000000000000000000, -0.000000000000000000 ) ) ;
#308 = CARTESIAN_POINT ( 'NONE',  ( 0.4999999999999997224, 5.000000000000000000, 6.123233995736762338E-17 ) ) ;
#309 = DIRECTION ( 'NONE',  ( 1.224646799147352961E-16, -1.000000000000000000, 0.000000000000000000 ) ) ;
#310 = DIRECTION ( 'NONE',  ( -1.224646799147352961E-16, 1.000000000000000000, -0.000000000000000000 ) ) ;
#311 = SURFACE_STYLE_USAGE ( .BOTH. , #194 ) ;
#312 = MECHANICAL_DESIGN_GEOMETRIC_PRESENTATION_REPRESENTATION (  '', ( #97 ), #217 ) ;
#313 = VERTEX_POINT ( 'NONE', #47 ) ;
#314 = DIRECTION ( 'NONE',  ( -1.224646799147352961E-16, 1.000000000000000000, -0.000000000000000000 ) ) ;
#315 = VECTOR ( 'NONE', #241, 39.37007874015748143 ) ;
#316 = CIRCLE ( 'NONE', #148, 0.5000000000000000000 ) ;
#317 =( NAMED_UNIT ( * ) PLANE_ANGLE_UNIT ( ) SI_UNIT ( $, .RADIAN. ) );
#318 = ADVANCED_FACE ( 'NONE', ( #361 ), #108, .T. ) ;
#319 = SURFACE_SIDE_STYLE ('',( #152 ) ) ;
#320 = DIRECTION ( 'NONE',  ( 0.000000000000000000, 0.000000000000000000, -1.000000000000000000 ) ) ;
#321 =( NAMED_UNIT ( * ) SI_UNIT ( $, .STERADIAN. ) SOLID_ANGLE_UNIT ( ) );
#322 = AXIS2_PLACEMENT_3D ( 'NONE', #170, #39, #110 ) ;
#323 = AXIS2_PLACEMENT_3D ( 'NONE', #290, #231, #122 ) ;
#324 = CARTESIAN_POINT ( 'NONE',  ( 0.000000000000000000, 0.5000000000000000000, 0.000000000000000000 ) ) ;
#325 = VERTEX_POINT ( 'NONE', #281 ) ;
#326 =( NAMED_UNIT ( * ) PLANE_ANGLE_UNIT ( ) SI_UNIT ( $, .RADIAN. ) );
#327 = ORIENTED_EDGE ( 'NONE', *, *, #32, .F. ) ;
#328 =( CONVERSION_BASED_UNIT ( 'INCH', #130 ) LENGTH_UNIT ( ) NAMED_UNIT ( #73 ) );
#329 = VERTEX_POINT ( 'NONE', #174 ) ;
#330 = DIMENSIONAL_EXPONENTS ( 1.000000000000000000, 0.000000000000000000, 0.000000000000000000, 0.000000000000000000, 0.000000000000000000, 0.000000000000000000, 0.000000000000000000 ) ;
#331 = ORIENTED_EDGE ( 'NONE', *, *, #343, .F. ) ;
#332 =( NAMED_UNIT ( * ) PLANE_ANGLE_UNIT ( ) SI_UNIT ( $, .RADIAN. ) );
#333 = PRESENTATION_LAYER_ASSIGNMENT (  '', '', ( #97 ) ) ;
#334 = FILL_AREA_STYLE ('',( #224 ) ) ;
#335 =( NAMED_UNIT ( * ) SI_UNIT ( $, .STERADIAN. ) SOLID_ANGLE_UNIT ( ) );
#336 = ORIENTED_EDGE ( 'NONE', *, *, #8, .F. ) ;
#337 = FACE_OUTER_BOUND ( 'NONE', #287, .T. ) ;
#338 = DIRECTION ( 'NONE',  ( 1.000000000000000000, 0.000000000000000000, -1.224646799147353207E-16 ) ) ;
#339 = DIRECTION ( 'NONE',  ( -0.000000000000000000, -1.000000000000000000, -0.000000000000000000 ) ) ;
#340 = CLOSED_SHELL ( 'NONE', ( #233, #141, #205, #93, #185 ) ) ;
#341 = CIRCLE ( 'NONE', #24, 0.5000000000000000000 ) ;
#342 = VERTEX_POINT ( 'NONE', #22 ) ;
#343 = EDGE_CURVE ( 'NONE', #306, #245, #316, .T. ) ;
#344 = PRESENTATION_LAYER_ASSIGNMENT (  '', '', ( #142 ) ) ;
#345 = CARTESIAN_POINT ( 'NONE',  ( 2.296212748401287479E-16, 2.625000000000000000, 0.000000000000000000 ) ) ;
#346 =( NAMED_UNIT ( * ) SI_UNIT ( $, .STERADIAN. ) SOLID_ANGLE_UNIT ( ) );
#347 = SURFACE_STYLE_FILL_AREA ( #35 ) ;
#348 = AXIS2_PLACEMENT_3D ( 'NONE', #300, #132, #99 ) ;
#349 = VECTOR ( 'NONE', #339, 39.37007874015748143 ) ;
#350 = PLANE ( 'NONE',  #203 ) ;
#351 = CARTESIAN_POINT ( 'NONE',  ( -0.4999999999999996669, 5.000000000000000000, 0.000000000000000000 ) ) ;
#352 = ORIENTED_EDGE ( 'NONE', *, *, #168, .F. ) ;
#353 = FILL_AREA_STYLE_COLOUR ( '', #370 ) ;
#354 = EDGE_CURVE ( 'NONE', #245, #235, #283, .T. ) ;
#355 = ORIENTED_EDGE ( 'NONE', *, *, #54, .F. ) ;
#356 = CARTESIAN_POINT ( 'NONE',  ( -0.4999999999999997780, 5.000000000000000000, 0.000000000000000000 ) ) ;
#357 = FACE_OUTER_BOUND ( 'NONE', #358, .T. ) ;
#358 = EDGE_LOOP ( 'NONE', ( #98, #240 ) ) ;
#359 = LINE ( 'NONE', #215, #349 ) ;
#360 = ORIENTED_EDGE ( 'NONE', *, *, #66, .F. ) ;
#361 = FACE_OUTER_BOUND ( 'NONE', #187, .T. ) ;
#362 = UNCERTAINTY_MEASURE_WITH_UNIT (LENGTH_MEASURE( 1.000000000000000082E-05 ), #328, 'distance_accuracy_value', 'NONE');
#363 = SURFACE_STYLE_USAGE ( .BOTH. , #247 ) ;
#364 = ORIENTED_EDGE ( 'NONE', *, *, #343, .T. ) ;
#365 = LENGTH_MEASURE_WITH_UNIT ( LENGTH_MEASURE( 0.02539999999999999897 ), #200 );
#366 = LENGTH_MEASURE_WITH_UNIT ( LENGTH_MEASURE( 0.02539999999999999897 ), #17 );
#367 = EDGE_CURVE ( 'NONE', #94, #245, #59, .T. ) ;
#368 = CARTESIAN_POINT ( 'NONE',  ( -6.123233995736766036E-17, 0.5000000000000000000, 0.000000000000000000 ) ) ;
#369 = DIMENSIONAL_EXPONENTS ( 1.000000000000000000, 0.000000000000000000, 0.000000000000000000, 0.000000000000000000, 0.000000000000000000, 0.000000000000000000, 0.000000000000000000 ) ;
#370 = COLOUR_RGB ( '',1.000000000000000000, 0.000000000000000000, 0.000000000000000000 ) ;
#371 = PRESENTATION_STYLE_ASSIGNMENT (( #112 ) ) ;
#372 = ORIENTED_EDGE ( 'NONE', *, *, #252, .T. ) ;
#373 =( CONVERSION_BASED_UNIT ( 'INCH', #30 ) LENGTH_UNIT ( ) NAMED_UNIT ( #369 ) );
ENDSEC;
END-ISO-10303-21;
