ISO-10303-21;
HEADER;
FILE_DESCRIPTION (( 'STEP AP214' ),
    '1' );
FILE_NAME ('Micro_SFP-187-33.STEP',
    '2021-09-02T06:10:28',
    ( '' ),
    ( '' ),
    'SwSTEP 2.0',
    'SolidWorks 2020',
    '' );
FILE_SCHEMA (( 'AUTOMOTIVE_DESIGN' ));
ENDSEC;

DATA;
#1 = ORIENTED_EDGE ( 'NONE', *, *, #279, .F. ) ;
#2 = CYLINDRICAL_SURFACE ( 'NONE', #236, 0.09375000000000001388 ) ;
#3 = DIRECTION ( 'NONE',  ( 1.224646799147353207E-16, 0.0000000000000000000, 1.000000000000000000 ) ) ;
#4 = CARTESIAN_POINT ( 'NONE',  ( 0.0000000000000000000, 0.0000000000000000000, 0.0000000000000000000 ) ) ;
#5 = EDGE_CURVE ( 'NONE', #154, #97, #211, .T. ) ;
#6 = APPLICATION_CONTEXT ( 'automotive_design' ) ;
#7 = ORIENTED_EDGE ( 'NONE', *, *, #291, .T. ) ;
#8 = ADVANCED_FACE ( 'NONE', ( #76 ), #28, .T. ) ;
#9 = CARTESIAN_POINT ( 'NONE',  ( 6.123233995736766036E-17, 0.0000000000000000000, 0.5000000000000000000 ) ) ;
#10 = CARTESIAN_POINT ( 'NONE',  ( 0.0000000000000000000, 0.0000000000000000000, 2.000000000000000000 ) ) ;
#11 = SURFACE_STYLE_USAGE ( .BOTH. , #261 ) ;
#12 = DIRECTION ( 'NONE',  ( 1.000000000000000000, 0.0000000000000000000, 0.0000000000000000000 ) ) ;
#13 = FACE_OUTER_BOUND ( 'NONE', #62, .T. ) ;
#14 = AXIS2_PLACEMENT_3D ( 'NONE', #167, #54, #253 ) ;
#15 = PRODUCT_CONTEXT ( 'NONE', #232, 'mechanical' ) ;
#16 = DIRECTION ( 'NONE',  ( 0.0000000000000000000, 0.0000000000000000000, 1.000000000000000000 ) ) ;
#17 = DIRECTION ( 'NONE',  ( -1.000000000000000000, 0.0000000000000000000, 0.0000000000000000000 ) ) ;
#18 =( LENGTH_UNIT ( ) NAMED_UNIT ( * ) SI_UNIT ( $, .METRE. ) );
#19 = ORIENTED_EDGE ( 'NONE', *, *, #60, .F. ) ;
#20 = CARTESIAN_POINT ( 'NONE',  ( 0.09375000000000001388, 1.148106374200643863E-17, 2.000000000000000000 ) ) ;
#21 = CARTESIAN_POINT ( 'NONE',  ( 0.09375000000000001388, 1.148106374200643863E-17, 1.984999999999999654 ) ) ;
#22 = COLOUR_RGB ( '',0.7921568627450980005, 0.8196078431372548767, 0.9333333333333333481 ) ;
#23 = ORIENTED_EDGE ( 'NONE', *, *, #86, .T. ) ;
#24 = CARTESIAN_POINT ( 'NONE',  ( -0.07874999999999980627, 0.0000000000000000000, 2.000000000000000000 ) ) ;
#25 = ORIENTED_EDGE ( 'NONE', *, *, #44, .T. ) ;
#26 = FACE_OUTER_BOUND ( 'NONE', #178, .T. ) ;
#27 = CARTESIAN_POINT ( 'NONE',  ( 0.0000000000000000000, 0.0000000000000000000, 1.984999999999999654 ) ) ;
#28 = CYLINDRICAL_SURFACE ( 'NONE', #125, 0.09375000000000001388 ) ;
#29 = CARTESIAN_POINT ( 'NONE',  ( 0.07874999999999980627, 9.644093543285380530E-18, 2.000000000000000000 ) ) ;
#30 = PLANE ( 'NONE',  #84 ) ;
#31 = CARTESIAN_POINT ( 'NONE',  ( 0.07874999999999980627, 1.056257864264590573E-17, 2.000000000000000000 ) ) ;
#32 = EDGE_CURVE ( 'NONE', #297, #187, #85, .T. ) ;
#33 = EDGE_LOOP ( 'NONE', ( #19, #198, #7, #107 ) ) ;
#34 = VERTEX_POINT ( 'NONE', #185 ) ;
#35 = FILL_AREA_STYLE_COLOUR ( '', #22 ) ;
#36 = EDGE_CURVE ( 'NONE', #154, #197, #39, .T. ) ;
#37 = DIRECTION ( 'NONE',  ( -1.224646799147353207E-16, -0.0000000000000000000, -1.000000000000000000 ) ) ;
#38 =( LENGTH_UNIT ( ) NAMED_UNIT ( * ) SI_UNIT ( $, .METRE. ) );
#39 = CIRCLE ( 'NONE', #228, 0.09365624999999999645 ) ;
#40 = ADVANCED_FACE ( 'NONE', ( #192 ), #156, .T. ) ;
#41 =( NAMED_UNIT ( * ) SI_UNIT ( $, .STERADIAN. ) SOLID_ANGLE_UNIT ( ) );
#42 = AXIS2_PLACEMENT_3D ( 'NONE', #116, #3, #138 ) ;
#43 = ADVANCED_FACE ( 'NONE', ( #144 ), #139, .T. ) ;
#44 = EDGE_CURVE ( 'NONE', #34, #72, #217, .T. ) ;
#45 = CIRCLE ( 'NONE', #256, 0.09375000000000001388 ) ;
#46 = AXIS2_PLACEMENT_3D ( 'NONE', #299, #68, #17 ) ;
#47 =( CONVERSION_BASED_UNIT ( 'INCH', #112 ) LENGTH_UNIT ( ) NAMED_UNIT ( #244 ) );
#48 = ORIENTED_EDGE ( 'NONE', *, *, #279, .T. ) ;
#49 = DIRECTION ( 'NONE',  ( -1.224646799147353207E-16, -0.0000000000000000000, -1.000000000000000000 ) ) ;
#50 = COLOUR_RGB ( '',0.7921568627450980005, 0.8196078431372548767, 0.9333333333333333481 ) ;
#51 = ORIENTED_EDGE ( 'NONE', *, *, #285, .F. ) ;
#52 = CARTESIAN_POINT ( 'NONE',  ( 0.0000000000000000000, 0.0000000000000000000, 2.000000000000000000 ) ) ;
#53 = CYLINDRICAL_SURFACE ( 'NONE', #67, 0.09365624999999999645 ) ;
#54 = DIRECTION ( 'NONE',  ( 0.0000000000000000000, 0.0000000000000000000, -1.000000000000000000 ) ) ;
#55 = DIRECTION ( 'NONE',  ( -1.224646799147353207E-16, -0.0000000000000000000, -1.000000000000000000 ) ) ;
#56 = AXIS2_PLACEMENT_3D ( 'NONE', #234, #37, #12 ) ;
#57 = ORIENTED_EDGE ( 'NONE', *, *, #92, .T. ) ;
#58 = LINE ( 'NONE', #20, #238 ) ;
#59 = CIRCLE ( 'NONE', #263, 0.09365624999999999645 ) ;
#60 = EDGE_CURVE ( 'NONE', #154, #34, #286, .T. ) ;
#61 = CARTESIAN_POINT ( 'NONE',  ( 6.123233995736766036E-17, 0.0000000000000000000, 0.5000000000000000000 ) ) ;
#62 = EDGE_LOOP ( 'NONE', ( #163, #233, #267, #51 ) ) ;
#63 = CARTESIAN_POINT ( 'NONE',  ( 0.0000000000000000000, 0.0000000000000000000, 0.0000000000000000000 ) ) ;
#64 = EDGE_CURVE ( 'NONE', #197, #154, #59, .T. ) ;
#65 = ORIENTED_EDGE ( 'NONE', *, *, #5, .F. ) ;
#66 = DIRECTION ( 'NONE',  ( 1.000000000000000000, 0.0000000000000000000, 0.0000000000000000000 ) ) ;
#67 = AXIS2_PLACEMENT_3D ( 'NONE', #4, #55, #284 ) ;
#68 = DIRECTION ( 'NONE',  ( 0.0000000000000000000, 0.0000000000000000000, -1.000000000000000000 ) ) ;
#69 = SURFACE_SIDE_STYLE ('',( #91 ) ) ;
#70 = DIRECTION ( 'NONE',  ( -1.000000000000000000, 0.0000000000000000000, 0.0000000000000000000 ) ) ;
#71 = CARTESIAN_POINT ( 'NONE',  ( 6.129745230543758501E-17, 0.0000000000000000000, 0.5005316826705892286 ) ) ;
#72 = VERTEX_POINT ( 'NONE', #122 ) ;
#73 = DIRECTION ( 'NONE',  ( -1.224646799147353207E-16, -0.0000000000000000000, -1.000000000000000000 ) ) ;
#74 = VECTOR ( 'NONE', #49, 39.37007874015748143 ) ;
#75 = ORIENTED_EDGE ( 'NONE', *, *, #126, .F. ) ;
#76 = FACE_OUTER_BOUND ( 'NONE', #93, .T. ) ;
#77 = DIRECTION ( 'NONE',  ( -1.000000000000000000, 0.0000000000000000000, 1.224646799147352961E-16 ) ) ;
#78 = PRODUCT_DEFINITION_CONTEXT ( 'detailed design', #6, 'design' ) ;
#79 = APPLICATION_PROTOCOL_DEFINITION ( 'draft international standard', 'automotive_design', 1998, #6 ) ;
#80 = CONICAL_SURFACE ( 'NONE', #109, 0.09365624999999999645, 0.1745329251994338915 ) ;
#81 = DIRECTION ( 'NONE',  ( -0.7071067811865463515, 0.0000000000000000000, -0.7071067811865486830 ) ) ;
#82 = DIMENSIONAL_EXPONENTS ( 1.000000000000000000, 0.0000000000000000000, 0.0000000000000000000, 0.0000000000000000000, 0.0000000000000000000, 0.0000000000000000000, 0.0000000000000000000 ) ;
#83 = PRODUCT_DEFINITION_SHAPE ( 'NONE', 'NONE',  #130 ) ;
#84 = AXIS2_PLACEMENT_3D ( 'NONE', #120, #208, #276 ) ;
#85 = CIRCLE ( 'NONE', #193, 0.07874999999999980627 ) ;
#86 = EDGE_CURVE ( 'NONE', #197, #140, #161, .T. ) ;
#87 = FILL_AREA_STYLE ('',( #200 ) ) ;
#88 = EDGE_LOOP ( 'NONE', ( #95, #249, #280, #1 ) ) ;
#89 = DIRECTION ( 'NONE',  ( 1.224646799147353207E-16, 0.0000000000000000000, 1.000000000000000000 ) ) ;
#90 = ADVANCED_FACE ( 'NONE', ( #227 ), #30, .T. ) ;
#91 = SURFACE_STYLE_FILL_AREA ( #87 ) ;
#92 = EDGE_CURVE ( 'NONE', #187, #297, #196, .T. ) ;
#93 = EDGE_LOOP ( 'NONE', ( #99, #157, #48, #150 ) ) ;
#94 = LINE ( 'NONE', #164, #296 ) ;
#95 = ORIENTED_EDGE ( 'NONE', *, *, #126, .T. ) ;
#96 = DIRECTION ( 'NONE',  ( 1.000000000000000000, 0.0000000000000000000, -0.0000000000000000000 ) ) ;
#97 = VERTEX_POINT ( 'NONE', #251 ) ;
#98 = DIRECTION ( 'NONE',  ( -1.224646799147353207E-16, -0.0000000000000000000, -1.000000000000000000 ) ) ;
#99 = ORIENTED_EDGE ( 'NONE', *, *, #207, .F. ) ;
#100 = DIRECTION ( 'NONE',  ( -1.224646799147353207E-16, -0.0000000000000000000, -1.000000000000000000 ) ) ;
#101 = LINE ( 'NONE', #168, #289 ) ;
#102 = EDGE_CURVE ( 'NONE', #187, #218, #195, .T. ) ;
#103 = DIRECTION ( 'NONE',  ( 1.000000000000000000, 0.0000000000000000000, 0.0000000000000000000 ) ) ;
#104 = CONICAL_SURFACE ( 'NONE', #46, 0.07874999999999980627, 0.7853981633974466137 ) ;
#105 = STYLED_ITEM ( 'NONE', ( #252 ), #131 ) ;
#106 = DIRECTION ( 'NONE',  ( 1.000000000000000000, 0.0000000000000000000, 0.0000000000000000000 ) ) ;
#107 = ORIENTED_EDGE ( 'NONE', *, *, #287, .T. ) ;
#108 = DIRECTION ( 'NONE',  ( -0.0000000000000000000, -0.0000000000000000000, -1.000000000000000000 ) ) ;
#109 = AXIS2_PLACEMENT_3D ( 'NONE', #61, #89, #106 ) ;
#110 =( GEOMETRIC_REPRESENTATION_CONTEXT ( 3 ) GLOBAL_UNCERTAINTY_ASSIGNED_CONTEXT ( ( #159 ) ) GLOBAL_UNIT_ASSIGNED_CONTEXT ( ( #184, #188, #258 ) ) REPRESENTATION_CONTEXT ( 'NONE', 'WORKASPACE' ) );
#111 = ORIENTED_EDGE ( 'NONE', *, *, #92, .F. ) ;
#112 = LENGTH_MEASURE_WITH_UNIT ( LENGTH_MEASURE( 0.02539999999999999897 ), #262 );
#113 = ORIENTED_EDGE ( 'NONE', *, *, #36, .T. ) ;
#114 = CARTESIAN_POINT ( 'NONE',  ( 0.0000000000000000000, 0.0000000000000000000, 1.984999999999999654 ) ) ;
#115 = DIRECTION ( 'NONE',  ( 0.0000000000000000000, 0.0000000000000000000, -1.000000000000000000 ) ) ;
#116 = CARTESIAN_POINT ( 'NONE',  ( 6.123233995736766036E-17, 0.0000000000000000000, 0.5000000000000000000 ) ) ;
#117 = DIRECTION ( 'NONE',  ( 0.0000000000000000000, 0.0000000000000000000, -1.000000000000000000 ) ) ;
#118 = SURFACE_STYLE_USAGE ( .BOTH. , #69 ) ;
#119 = AXIS2_PLACEMENT_3D ( 'NONE', #63, #186, #96 ) ;
#120 = CARTESIAN_POINT ( 'NONE',  ( 0.0000000000000000000, 0.0000000000000000000, 2.000000000000000000 ) ) ;
#121 = DIRECTION ( 'NONE',  ( -1.224646799147353207E-16, -0.0000000000000000000, -1.000000000000000000 ) ) ;
#122 = CARTESIAN_POINT ( 'NONE',  ( 0.09375000000000006939, 1.148106374200644633E-17, 0.5005316826705892286 ) ) ;
#123 = ORIENTED_EDGE ( 'NONE', *, *, #275, .F. ) ;
#124 = FILL_AREA_STYLE ('',( #35 ) ) ;
#125 = AXIS2_PLACEMENT_3D ( 'NONE', #52, #260, #166 ) ;
#126 = EDGE_CURVE ( 'NONE', #218, #142, #199, .T. ) ;
#127 = ORIENTED_EDGE ( 'NONE', *, *, #36, .F. ) ;
#128 = FACE_OUTER_BOUND ( 'NONE', #222, .T. ) ;
#129 = DIRECTION ( 'NONE',  ( 0.0000000000000000000, 0.0000000000000000000, 1.000000000000000000 ) ) ;
#130 = PRODUCT_DEFINITION ( 'UNKNOWN', '', #282, #78 ) ;
#131 = ADVANCED_BREP_SHAPE_REPRESENTATION ( 'Micro_SFP-187-33', ( #147, #272 ), #110 ) ;
#132 = EDGE_LOOP ( 'NONE', ( #152, #111, #210, #201 ) ) ;
#133 = EDGE_LOOP ( 'NONE', ( #127, #134, #25, #179 ) ) ;
#134 = ORIENTED_EDGE ( 'NONE', *, *, #60, .T. ) ;
#135 = DIRECTION ( 'NONE',  ( 0.7071067811865463515, 8.659560562354916834E-17, -0.7071067811865486830 ) ) ;
#136 = CARTESIAN_POINT ( 'NONE',  ( 6.123233995736766036E-17, 0.0000000000000000000, 0.5000000000000000000 ) ) ;
#137 =( NAMED_UNIT ( * ) PLANE_ANGLE_UNIT ( ) SI_UNIT ( $, .RADIAN. ) );
#138 = DIRECTION ( 'NONE',  ( 1.000000000000000000, 0.0000000000000000000, 0.0000000000000000000 ) ) ;
#139 = CONICAL_SURFACE ( 'NONE', #42, 0.09365624999999999645, 0.1745329251994338915 ) ;
#140 = VERTEX_POINT ( 'NONE', #220 ) ;
#141 = DIRECTION ( 'NONE',  ( 1.000000000000000000, 0.0000000000000000000, 0.0000000000000000000 ) ) ;
#142 = VERTEX_POINT ( 'NONE', #21 ) ;
#143 = APPLICATION_PROTOCOL_DEFINITION ( 'draft international standard', 'automotive_design', 1998, #232 ) ;
#144 = FACE_OUTER_BOUND ( 'NONE', #133, .T. ) ;
#145 = DIRECTION ( 'NONE',  ( -1.224646799147353207E-16, -0.0000000000000000000, -1.000000000000000000 ) ) ;
#146 = AXIS2_PLACEMENT_3D ( 'NONE', #231, #145, #77 ) ;
#147 = MANIFOLD_SOLID_BREP ( 'Cut-Revolve1', #176 ) ;
#148 = PRESENTATION_LAYER_ASSIGNMENT (  '', '', ( #105 ) ) ;
#149 = EDGE_CURVE ( 'NONE', #297, #142, #266, .T. ) ;
#150 = ORIENTED_EDGE ( 'NONE', *, *, #287, .F. ) ;
#151 = DIMENSIONAL_EXPONENTS ( 1.000000000000000000, 0.0000000000000000000, 0.0000000000000000000, 0.0000000000000000000, 0.0000000000000000000, 0.0000000000000000000, 0.0000000000000000000 ) ;
#152 = ORIENTED_EDGE ( 'NONE', *, *, #149, .F. ) ;
#153 = FACE_OUTER_BOUND ( 'NONE', #88, .T. ) ;
#154 = VERTEX_POINT ( 'NONE', #204 ) ;
#155 = ORIENTED_EDGE ( 'NONE', *, *, #149, .T. ) ;
#156 = CONICAL_SURFACE ( 'NONE', #14, 0.07874999999999980627, 0.7853981633974466137 ) ;
#157 = ORIENTED_EDGE ( 'NONE', *, *, #172, .T. ) ;
#158 = FACE_OUTER_BOUND ( 'NONE', #245, .T. ) ;
#159 = UNCERTAINTY_MEASURE_WITH_UNIT (LENGTH_MEASURE( 1.000000000000000082E-05 ), #184, 'distance_accuracy_value', 'NONE');
#160 = PRODUCT ( 'Micro_SFP-187-33', 'Micro_SFP-187-33', '', ( #15 ) ) ;
#161 = LINE ( 'NONE', #254, #74 ) ;
#162 = DIRECTION ( 'NONE',  ( -1.000000000000000000, 0.0000000000000000000, 1.224646799147352961E-16 ) ) ;
#163 = ORIENTED_EDGE ( 'NONE', *, *, #86, .F. ) ;
#164 = CARTESIAN_POINT ( 'NONE',  ( 0.09365625000000006584, 0.0000000000000000000, 0.5000000000000000000 ) ) ;
#165 = STYLED_ITEM ( 'NONE', ( #278 ), #147 ) ;
#166 = DIRECTION ( 'NONE',  ( -1.000000000000000000, 0.0000000000000000000, 0.0000000000000000000 ) ) ;
#167 = CARTESIAN_POINT ( 'NONE',  ( 0.0000000000000000000, 0.0000000000000000000, 2.000000000000000000 ) ) ;
#168 = CARTESIAN_POINT ( 'NONE',  ( -0.09375000000000001388, 0.0000000000000000000, 2.000000000000000000 ) ) ;
#169 =( GEOMETRIC_REPRESENTATION_CONTEXT ( 3 ) GLOBAL_UNCERTAINTY_ASSIGNED_CONTEXT ( ( #194 ) ) GLOBAL_UNIT_ASSIGNED_CONTEXT ( ( #47, #137, #202 ) ) REPRESENTATION_CONTEXT ( 'NONE', 'WORKASPACE' ) );
#170 =( NAMED_UNIT ( * ) PLANE_ANGLE_UNIT ( ) SI_UNIT ( $, .RADIAN. ) );
#171 = PRESENTATION_LAYER_ASSIGNMENT (  '', '', ( #165 ) ) ;
#172 = EDGE_CURVE ( 'NONE', #142, #218, #45, .T. ) ;
#173 = LENGTH_MEASURE_WITH_UNIT ( LENGTH_MEASURE( 0.02539999999999999897 ), #18 );
#174 =( CONVERSION_BASED_UNIT ( 'INCH', #173 ) LENGTH_UNIT ( ) NAMED_UNIT ( #151 ) );
#175 = DIRECTION ( 'NONE',  ( -0.0000000000000000000, -0.0000000000000000000, -1.000000000000000000 ) ) ;
#176 = CLOSED_SHELL ( 'NONE', ( #264, #43, #182, #224, #8, #90, #40, #221, #248, #242 ) ) ;
#177 = CIRCLE ( 'NONE', #239, 0.09365624999999999645 ) ;
#178 = EDGE_LOOP ( 'NONE', ( #255, #155, #75, #214 ) ) ;
#179 = ORIENTED_EDGE ( 'NONE', *, *, #291, .F. ) ;
#180 = CARTESIAN_POINT ( 'NONE',  ( 0.0000000000000000000, 0.0000000000000000000, 2.000000000000000000 ) ) ;
#181 = MECHANICAL_DESIGN_GEOMETRIC_PRESENTATION_REPRESENTATION (  '', ( #165 ), #169 ) ;
#182 = ADVANCED_FACE ( 'NONE', ( #26 ), #104, .T. ) ;
#183 = DIRECTION ( 'NONE',  ( -0.1736481776669311916, 2.126576849575783316E-17, 0.9848077530122080203 ) ) ;
#184 =( CONVERSION_BASED_UNIT ( 'INCH', #215 ) LENGTH_UNIT ( ) NAMED_UNIT ( #82 ) );
#185 = CARTESIAN_POINT ( 'NONE',  ( -0.09374999999999994449, 0.0000000000000000000, 0.5005316826705892286 ) ) ;
#186 = DIRECTION ( 'NONE',  ( 0.0000000000000000000, 0.0000000000000000000, 1.000000000000000000 ) ) ;
#187 = VERTEX_POINT ( 'NONE', #24 ) ;
#188 =( NAMED_UNIT ( * ) PLANE_ANGLE_UNIT ( ) SI_UNIT ( $, .RADIAN. ) );
#189 =( GEOMETRIC_REPRESENTATION_CONTEXT ( 3 ) GLOBAL_UNCERTAINTY_ASSIGNED_CONTEXT ( ( #259 ) ) GLOBAL_UNIT_ASSIGNED_CONTEXT ( ( #174, #170, #41 ) ) REPRESENTATION_CONTEXT ( 'NONE', 'WORKASPACE' ) );
#190 = DIRECTION ( 'NONE',  ( 0.0000000000000000000, 0.0000000000000000000, 1.000000000000000000 ) ) ;
#191 = DIRECTION ( 'NONE',  ( -1.000000000000000000, 0.0000000000000000000, 1.224646799147352961E-16 ) ) ;
#192 = FACE_OUTER_BOUND ( 'NONE', #132, .T. ) ;
#193 = AXIS2_PLACEMENT_3D ( 'NONE', #10, #190, #283 ) ;
#194 = UNCERTAINTY_MEASURE_WITH_UNIT (LENGTH_MEASURE( 1.000000000000000082E-05 ), #47, 'distance_accuracy_value', 'NONE');
#195 = LINE ( 'NONE', #293, #295 ) ;
#196 = CIRCLE ( 'NONE', #213, 0.07874999999999980627 ) ;
#197 = VERTEX_POINT ( 'NONE', #206 ) ;
#198 = ORIENTED_EDGE ( 'NONE', *, *, #64, .F. ) ;
#199 = CIRCLE ( 'NONE', #223, 0.09375000000000001388 ) ;
#200 = FILL_AREA_STYLE_COLOUR ( '', #50 ) ;
#201 = ORIENTED_EDGE ( 'NONE', *, *, #172, .F. ) ;
#202 =( NAMED_UNIT ( * ) SI_UNIT ( $, .STERADIAN. ) SOLID_ANGLE_UNIT ( ) );
#203 = CARTESIAN_POINT ( 'NONE',  ( -0.09375000000000001388, 0.0000000000000000000, 1.984999999999999654 ) ) ;
#204 = CARTESIAN_POINT ( 'NONE',  ( -0.09365624999999992706, 1.147532321013543253E-17, 0.5000000000000000000 ) ) ;
#205 = CARTESIAN_POINT ( 'NONE',  ( -0.09365624999999992706, 1.146958267826442798E-17, 0.5000000000000000000 ) ) ;
#206 = CARTESIAN_POINT ( 'NONE',  ( 0.09365625000000006584, 0.0000000000000000000, 0.5000000000000000000 ) ) ;
#207 = EDGE_CURVE ( 'NONE', #142, #72, #58, .T. ) ;
#208 = DIRECTION ( 'NONE',  ( 0.0000000000000000000, 0.0000000000000000000, 1.000000000000000000 ) ) ;
#209 = DIRECTION ( 'NONE',  ( 0.1736481776669313859, 0.0000000000000000000, 0.9848077530122077983 ) ) ;
#210 = ORIENTED_EDGE ( 'NONE', *, *, #102, .T. ) ;
#211 = LINE ( 'NONE', #226, #294 ) ;
#212 = SURFACE_STYLE_FILL_AREA ( #124 ) ;
#213 = AXIS2_PLACEMENT_3D ( 'NONE', #269, #16, #66 ) ;
#214 = ORIENTED_EDGE ( 'NONE', *, *, #102, .F. ) ;
#215 = LENGTH_MEASURE_WITH_UNIT ( LENGTH_MEASURE( 0.02539999999999999897 ), #38 );
#216 = VECTOR ( 'NONE', #135, 39.37007874015748143 ) ;
#217 = CIRCLE ( 'NONE', #56, 0.09375000000000001388 ) ;
#218 = VERTEX_POINT ( 'NONE', #203 ) ;
#219 = ORIENTED_EDGE ( 'NONE', *, *, #285, .T. ) ;
#220 = CARTESIAN_POINT ( 'NONE',  ( 0.09365624999999999645, 1.146958267826442798E-17, 0.0000000000000000000 ) ) ;
#221 = ADVANCED_FACE ( 'NONE', ( #270 ), #80, .T. ) ;
#222 = EDGE_LOOP ( 'NONE', ( #113, #23, #123, #65 ) ) ;
#223 = AXIS2_PLACEMENT_3D ( 'NONE', #27, #115, #247 ) ;
#224 = ADVANCED_FACE ( 'NONE', ( #153 ), #2, .T. ) ;
#225 = DIRECTION ( 'NONE',  ( 1.000000000000000000, 0.0000000000000000000, 0.0000000000000000000 ) ) ;
#226 = CARTESIAN_POINT ( 'NONE',  ( -0.09365624999999999645, 0.0000000000000000000, 1.146958267826442798E-17 ) ) ;
#227 = FACE_OUTER_BOUND ( 'NONE', #298, .T. ) ;
#228 = AXIS2_PLACEMENT_3D ( 'NONE', #136, #257, #230 ) ;
#229 = MECHANICAL_DESIGN_GEOMETRIC_PRESENTATION_REPRESENTATION (  '', ( #105 ), #189 ) ;
#230 = DIRECTION ( 'NONE',  ( -1.000000000000000000, 0.0000000000000000000, 0.0000000000000000000 ) ) ;
#231 = CARTESIAN_POINT ( 'NONE',  ( 1.404618771449245766E-33, 0.0000000000000000000, 1.146958267826442798E-17 ) ) ;
#232 = APPLICATION_CONTEXT ( 'automotive_design' ) ;
#233 = ORIENTED_EDGE ( 'NONE', *, *, #64, .T. ) ;
#234 = CARTESIAN_POINT ( 'NONE',  ( 6.129745230543758501E-17, 0.0000000000000000000, 0.5005316826705892286 ) ) ;
#235 = DIRECTION ( 'NONE',  ( -0.0000000000000000000, -0.0000000000000000000, -1.000000000000000000 ) ) ;
#236 = AXIS2_PLACEMENT_3D ( 'NONE', #180, #108, #246 ) ;
#237 = AXIS2_PLACEMENT_3D ( 'NONE', #71, #73, #141 ) ;
#238 = VECTOR ( 'NONE', #175, 39.37007874015748143 ) ;
#239 = AXIS2_PLACEMENT_3D ( 'NONE', #277, #121, #162 ) ;
#240 = CARTESIAN_POINT ( 'NONE',  ( 0.0000000000000000000, 0.0000000000000000000, 0.0000000000000000000 ) ) ;
#241 = CIRCLE ( 'NONE', #237, 0.09375000000000001388 ) ;
#242 = ADVANCED_FACE ( 'NONE', ( #158 ), #268, .F. ) ;
#243 = ORIENTED_EDGE ( 'NONE', *, *, #275, .T. ) ;
#244 = DIMENSIONAL_EXPONENTS ( 1.000000000000000000, 0.0000000000000000000, 0.0000000000000000000, 0.0000000000000000000, 0.0000000000000000000, 0.0000000000000000000, 0.0000000000000000000 ) ;
#245 = EDGE_LOOP ( 'NONE', ( #243, #219 ) ) ;
#246 = DIRECTION ( 'NONE',  ( -1.000000000000000000, 0.0000000000000000000, 0.0000000000000000000 ) ) ;
#247 = DIRECTION ( 'NONE',  ( 1.000000000000000000, 0.0000000000000000000, 0.0000000000000000000 ) ) ;
#248 = ADVANCED_FACE ( 'NONE', ( #13 ), #53, .T. ) ;
#249 = ORIENTED_EDGE ( 'NONE', *, *, #207, .T. ) ;
#250 = ORIENTED_EDGE ( 'NONE', *, *, #32, .T. ) ;
#251 = CARTESIAN_POINT ( 'NONE',  ( -0.09365624999999999645, 0.0000000000000000000, 2.293916535652885596E-17 ) ) ;
#252 = PRESENTATION_STYLE_ASSIGNMENT (( #11 ) ) ;
#253 = DIRECTION ( 'NONE',  ( -1.000000000000000000, 0.0000000000000000000, 0.0000000000000000000 ) ) ;
#254 = CARTESIAN_POINT ( 'NONE',  ( 0.09365624999999999645, 1.146958267826442798E-17, -1.146958267826442798E-17 ) ) ;
#255 = ORIENTED_EDGE ( 'NONE', *, *, #32, .F. ) ;
#256 = AXIS2_PLACEMENT_3D ( 'NONE', #114, #117, #225 ) ;
#257 = DIRECTION ( 'NONE',  ( -1.224646799147353207E-16, -0.0000000000000000000, -1.000000000000000000 ) ) ;
#258 =( NAMED_UNIT ( * ) SI_UNIT ( $, .STERADIAN. ) SOLID_ANGLE_UNIT ( ) );
#259 = UNCERTAINTY_MEASURE_WITH_UNIT (LENGTH_MEASURE( 1.000000000000000082E-05 ), #174, 'distance_accuracy_value', 'NONE');
#260 = DIRECTION ( 'NONE',  ( -0.0000000000000000000, -0.0000000000000000000, -1.000000000000000000 ) ) ;
#261 = SURFACE_SIDE_STYLE ('',( #212 ) ) ;
#262 =( LENGTH_UNIT ( ) NAMED_UNIT ( * ) SI_UNIT ( $, .METRE. ) );
#263 = AXIS2_PLACEMENT_3D ( 'NONE', #9, #273, #70 ) ;
#264 = ADVANCED_FACE ( 'NONE', ( #128 ), #274, .T. ) ;
#265 = VECTOR ( 'NONE', #183, 39.37007874015747433 ) ;
#266 = LINE ( 'NONE', #29, #216 ) ;
#267 = ORIENTED_EDGE ( 'NONE', *, *, #5, .T. ) ;
#268 = PLANE ( 'NONE',  #119 ) ;
#269 = CARTESIAN_POINT ( 'NONE',  ( 0.0000000000000000000, 0.0000000000000000000, 2.000000000000000000 ) ) ;
#270 = FACE_OUTER_BOUND ( 'NONE', #33, .T. ) ;
#271 = AXIS2_PLACEMENT_3D ( 'NONE', #281, #98, #191 ) ;
#272 = AXIS2_PLACEMENT_3D ( 'NONE', #240, #129, #103 ) ;
#273 = DIRECTION ( 'NONE',  ( -1.224646799147353207E-16, -0.0000000000000000000, -1.000000000000000000 ) ) ;
#274 = CYLINDRICAL_SURFACE ( 'NONE', #271, 0.09365624999999999645 ) ;
#275 = EDGE_CURVE ( 'NONE', #97, #140, #288, .T. ) ;
#276 = DIRECTION ( 'NONE',  ( 1.000000000000000000, 0.0000000000000000000, -0.0000000000000000000 ) ) ;
#277 = CARTESIAN_POINT ( 'NONE',  ( 1.404618771449245766E-33, 0.0000000000000000000, 1.146958267826442798E-17 ) ) ;
#278 = PRESENTATION_STYLE_ASSIGNMENT (( #118 ) ) ;
#279 = EDGE_CURVE ( 'NONE', #218, #34, #101, .T. ) ;
#280 = ORIENTED_EDGE ( 'NONE', *, *, #44, .F. ) ;
#281 = CARTESIAN_POINT ( 'NONE',  ( 0.0000000000000000000, 0.0000000000000000000, 0.0000000000000000000 ) ) ;
#282 = PRODUCT_DEFINITION_FORMATION_WITH_SPECIFIED_SOURCE ( 'ANY', '', #160, .NOT_KNOWN. ) ;
#283 = DIRECTION ( 'NONE',  ( 1.000000000000000000, 0.0000000000000000000, 0.0000000000000000000 ) ) ;
#284 = DIRECTION ( 'NONE',  ( -1.000000000000000000, 0.0000000000000000000, 1.224646799147352961E-16 ) ) ;
#285 = EDGE_CURVE ( 'NONE', #140, #97, #177, .T. ) ;
#286 = LINE ( 'NONE', #205, #265 ) ;
#287 = EDGE_CURVE ( 'NONE', #72, #34, #241, .T. ) ;
#288 = CIRCLE ( 'NONE', #146, 0.09365624999999999645 ) ;
#289 = VECTOR ( 'NONE', #235, 39.37007874015748143 ) ;
#290 = PRODUCT_RELATED_PRODUCT_CATEGORY ( 'part', '', ( #160 ) ) ;
#291 = EDGE_CURVE ( 'NONE', #197, #72, #94, .T. ) ;
#292 = SHAPE_DEFINITION_REPRESENTATION ( #83, #131 ) ;
#293 = CARTESIAN_POINT ( 'NONE',  ( -0.07874999999999980627, 0.0000000000000000000, 2.000000000000000000 ) ) ;
#294 = VECTOR ( 'NONE', #100, 39.37007874015748143 ) ;
#295 = VECTOR ( 'NONE', #81, 39.37007874015748143 ) ;
#296 = VECTOR ( 'NONE', #209, 39.37007874015748143 ) ;
#297 = VERTEX_POINT ( 'NONE', #31 ) ;
#298 = EDGE_LOOP ( 'NONE', ( #57, #250 ) ) ;
#299 = CARTESIAN_POINT ( 'NONE',  ( 0.0000000000000000000, 0.0000000000000000000, 2.000000000000000000 ) ) ;
ENDSEC;
END-ISO-10303-21;
