ISO-10303-21;
HEADER;
FILE_DESCRIPTION (( 'STEP AP214' ),
    '1' );
FILE_NAME ('26212.STEP',
    '2023-06-22T17:30:15',
    ( '' ),
    ( '' ),
    'SwSTEP 2.0',
    'SolidWorks 2023',
    '' );
FILE_SCHEMA (( 'AUTOMOTIVE_DESIGN' ));
ENDSEC;

DATA;
#1 = PRESENTATION_STYLE_ASSIGNMENT (( #222 ) ) ;
#2 = ORIENTED_EDGE ( 'NONE', *, *, #178, .T. ) ;
#3 = AXIS2_PLACEMENT_3D ( 'NONE', #120, #299, #142 ) ;
#4 = STYLED_ITEM ( 'NONE', ( #90 ), #6 ) ;
#5 = FACE_OUTER_BOUND ( 'NONE', #47, .T. ) ;
#6 = MANIFOLD_SOLID_BREP ( 'Revolve - Cutting Edge', #176 ) ;
#7 = FACE_OUTER_BOUND ( 'NONE', #141, .T. ) ;
#8 =( CONVERSION_BASED_UNIT ( 'INCH', #234 ) LENGTH_UNIT ( ) NAMED_UNIT ( #276 ) );
#9 = STYLED_ITEM ( 'NONE', ( #173 ), #209 ) ;
#10 = ADVANCED_FACE ( 'NONE', ( #60 ), #108, .F. ) ;
#11 = SURFACE_SIDE_STYLE ('',( #235 ) ) ;
#12 = MECHANICAL_DESIGN_GEOMETRIC_PRESENTATION_REPRESENTATION (  '', ( #4 ), #100 ) ;
#13 = DIRECTION ( 'NONE',  ( 8.164311994315692567E-17, 1.000000000000000000, -0.000000000000000000 ) ) ;
#14 = CARTESIAN_POINT ( 'NONE',  ( 0.000000000000000000, 0.5000000000000000000, -0.1874999999999999722 ) ) ;
#15 =( NAMED_UNIT ( * ) SI_UNIT ( $, .STERADIAN. ) SOLID_ANGLE_UNIT ( ) );
#16 = PRESENTATION_STYLE_ASSIGNMENT (( #187 ) ) ;
#17 = FILL_AREA_STYLE ('',( #182 ) ) ;
#18 = CIRCLE ( 'NONE', #3, 0.1874999999999998335 ) ;
#19 = COLOUR_RGB ( '',0.7921568627450980005, 0.8196078431372548767, 0.9333333333333333481 ) ;
#20 = ORIENTED_EDGE ( 'NONE', *, *, #134, .T. ) ;
#21 = ORIENTED_EDGE ( 'NONE', *, *, #284, .F. ) ;
#22 = FILL_AREA_STYLE ('',( #114 ) ) ;
#23 = EDGE_LOOP ( 'NONE', ( #217, #111 ) ) ;
#24 = SURFACE_STYLE_USAGE ( .BOTH. , #249 ) ;
#25 = SURFACE_SIDE_STYLE ('',( #136 ) ) ;
#26 = CIRCLE ( 'NONE', #56, 0.1874999999999999722 ) ;
#27 = UNCERTAINTY_MEASURE_WITH_UNIT (LENGTH_MEASURE( 1.000000000000000082E-05 ), #157, 'distance_accuracy_value', 'NONE');
#28 = DIRECTION ( 'NONE',  ( 0.000000000000000000, 1.000000000000000000, 0.000000000000000000 ) ) ;
#29 = APPLICATION_CONTEXT ( 'automotive_design' ) ;
#30 = CARTESIAN_POINT ( 'NONE',  ( 2.296212748401287109E-17, 0.000000000000000000, 0.1875000000000000278 ) ) ;
#31 = CIRCLE ( 'NONE', #42, 0.1874999999999999722 ) ;
#32 = UNCERTAINTY_MEASURE_WITH_UNIT (LENGTH_MEASURE( 1.000000000000000082E-05 ), #33, 'distance_accuracy_value', 'NONE');
#33 =( CONVERSION_BASED_UNIT ( 'INCH', #181 ) LENGTH_UNIT ( ) NAMED_UNIT ( #201 ) );
#34 = DIRECTION ( 'NONE',  ( -1.000000000000000000, 8.164311994315692567E-17, 0.000000000000000000 ) ) ;
#35 = PLANE ( 'NONE',  #37 ) ;
#36 = CARTESIAN_POINT ( 'NONE',  ( 0.000000000000000000, 0.5000000000000001110, 0.000000000000000000 ) ) ;
#37 = AXIS2_PLACEMENT_3D ( 'NONE', #274, #205, #225 ) ;
#38 = CARTESIAN_POINT ( 'NONE',  ( -0.1874999999999999722, 0.5000000000000001110, 0.000000000000000000 ) ) ;
#39 = LINE ( 'NONE', #85, #163 ) ;
#40 = SURFACE_SIDE_STYLE ('',( #160 ) ) ;
#41 = ORIENTED_EDGE ( 'NONE', *, *, #244, .T. ) ;
#42 = AXIS2_PLACEMENT_3D ( 'NONE', #117, #295, #174 ) ;
#43 = ORIENTED_EDGE ( 'NONE', *, *, #146, .T. ) ;
#44 =( CONVERSION_BASED_UNIT ( 'INCH', #289 ) LENGTH_UNIT ( ) NAMED_UNIT ( #125 ) );
#45 = CARTESIAN_POINT ( 'NONE',  ( 0.000000000000000000, 0.000000000000000000, 0.000000000000000000 ) ) ;
#46 = DIRECTION ( 'NONE',  ( -0.000000000000000000, -1.000000000000000000, -0.000000000000000000 ) ) ;
#47 = EDGE_LOOP ( 'NONE', ( #198, #309, #43, #250 ) ) ;
#48 = ADVANCED_FACE ( 'NONE', ( #152 ), #303, .F. ) ;
#49 = ORIENTED_EDGE ( 'NONE', *, *, #107, .T. ) ;
#50 = PRESENTATION_LAYER_ASSIGNMENT (  '', '', ( #9 ) ) ;
#51 = SURFACE_STYLE_USAGE ( .BOTH. , #290 ) ;
#52 = AXIS2_PLACEMENT_3D ( 'NONE', #179, #279, #261 ) ;
#53 = ORIENTED_EDGE ( 'NONE', *, *, #218, .T. ) ;
#54 =( LENGTH_UNIT ( ) NAMED_UNIT ( * ) SI_UNIT ( $, .METRE. ) );
#55 = AXIS2_PLACEMENT_3D ( 'NONE', #275, #46, #230 ) ;
#56 = AXIS2_PLACEMENT_3D ( 'NONE', #260, #210, #171 ) ;
#57 = DIRECTION ( 'NONE',  ( 0.000000000000000000, 0.000000000000000000, -1.000000000000000000 ) ) ;
#58 =( NAMED_UNIT ( * ) SI_UNIT ( $, .STERADIAN. ) SOLID_ANGLE_UNIT ( ) );
#59 = PRESENTATION_STYLE_ASSIGNMENT (( #51 ) ) ;
#60 = FACE_OUTER_BOUND ( 'NONE', #291, .T. ) ;
#61 = AXIS2_PLACEMENT_3D ( 'NONE', #36, #13, #102 ) ;
#62 = PRODUCT ( '26212', '26212', '', ( #96 ) ) ;
#63 =( LENGTH_UNIT ( ) NAMED_UNIT ( * ) SI_UNIT ( $, .METRE. ) );
#64 = SHAPE_DEFINITION_REPRESENTATION ( #298, #226 ) ;
#65 =( NAMED_UNIT ( * ) PLANE_ANGLE_UNIT ( ) SI_UNIT ( $, .RADIAN. ) );
#66 = MECHANICAL_DESIGN_GEOMETRIC_PRESENTATION_REPRESENTATION (  '', ( #105 ), #292 ) ;
#67 = CARTESIAN_POINT ( 'NONE',  ( 2.296212748401286801E-17, 0.000000000000000000, 0.1874999999999999722 ) ) ;
#68 = VERTEX_POINT ( 'NONE', #183 ) ;
#69 = FILL_AREA_STYLE_COLOUR ( '', #186 ) ;
#70 = ORIENTED_EDGE ( 'NONE', *, *, #194, .T. ) ;
#71 = DIRECTION ( 'NONE',  ( -0.000000000000000000, -1.000000000000000000, -0.000000000000000000 ) ) ;
#72 = STYLED_ITEM ( 'NONE', ( #16 ), #158 ) ;
#73 = ORIENTED_EDGE ( 'NONE', *, *, #78, .F. ) ;
#74 = STYLED_ITEM ( 'NONE', ( #1 ), #170 ) ;
#75 = DIRECTION ( 'NONE',  ( -0.000000000000000000, -1.000000000000000000, -0.000000000000000000 ) ) ;
#76 = ADVANCED_FACE ( 'NONE', ( #7 ), #211, .T. ) ;
#77 = CYLINDRICAL_SURFACE ( 'NONE', #223, 0.1874999999999999167 ) ;
#78 = EDGE_CURVE ( 'NONE', #68, #116, #95, .T. ) ;
#79 = DIRECTION ( 'NONE',  ( 1.000000000000000000, 0.000000000000000000, 0.000000000000000000 ) ) ;
#80 = DIRECTION ( 'NONE',  ( 8.164311994315692567E-17, 1.000000000000000000, -0.000000000000000000 ) ) ;
#81 = PRESENTATION_STYLE_ASSIGNMENT (( #101 ) ) ;
#82 = CARTESIAN_POINT ( 'NONE',  ( 0.000000000000000000, 0.5000000000000000000, 0.000000000000000000 ) ) ;
#83 = CARTESIAN_POINT ( 'NONE',  ( 0.1875000000000000555, 2.000000000000000000, 2.296212748401286185E-17 ) ) ;
#84 = VERTEX_POINT ( 'NONE', #238 ) ;
#85 = CARTESIAN_POINT ( 'NONE',  ( -0.1874999999999997780, 2.000000000000000000, 0.000000000000000000 ) ) ;
#86 = VERTEX_POINT ( 'NONE', #213 ) ;
#87 = AXIS2_PLACEMENT_3D ( 'NONE', #154, #80, #280 ) ;
#88 = CARTESIAN_POINT ( 'NONE',  ( 0.000000000000000000, 0.000000000000000000, 0.000000000000000000 ) ) ;
#89 = FILL_AREA_STYLE ('',( #143 ) ) ;
#90 = PRESENTATION_STYLE_ASSIGNMENT (( #119 ) ) ;
#91 = APPLICATION_CONTEXT ( 'automotive_design' ) ;
#92 = CARTESIAN_POINT ( 'NONE',  ( 0.000000000000000000, 0.5000000000000000000, 0.000000000000000000 ) ) ;
#93 = PRODUCT_RELATED_PRODUCT_CATEGORY ( 'part', '', ( #62 ) ) ;
#94 = DIRECTION ( 'NONE',  ( 0.000000000000000000, -0.000000000000000000, 1.000000000000000000 ) ) ;
#95 = CIRCLE ( 'NONE', #61, 0.1874999999999999722 ) ;
#96 = PRODUCT_CONTEXT ( 'NONE', #29, 'mechanical' ) ;
#97 = DIRECTION ( 'NONE',  ( 0.000000000000000000, 0.000000000000000000, -1.000000000000000000 ) ) ;
#98 = DIRECTION ( 'NONE',  ( -1.000000000000000000, 0.000000000000000000, 0.000000000000000000 ) ) ;
#99 = LENGTH_MEASURE_WITH_UNIT ( LENGTH_MEASURE( 0.02539999999999999897 ), #202 );
#100 =( GEOMETRIC_REPRESENTATION_CONTEXT ( 3 ) GLOBAL_UNCERTAINTY_ASSIGNED_CONTEXT ( ( #172 ) ) GLOBAL_UNIT_ASSIGNED_CONTEXT ( ( #208, #65, #15 ) ) REPRESENTATION_CONTEXT ( 'NONE', 'WORKASPACE' ) );
#101 = SURFACE_STYLE_USAGE ( .BOTH. , #11 ) ;
#102 = DIRECTION ( 'NONE',  ( -1.000000000000000000, 0.000000000000000000, 0.000000000000000000 ) ) ;
#103 =( LENGTH_UNIT ( ) NAMED_UNIT ( * ) SI_UNIT ( $, .METRE. ) );
#104 = FACE_OUTER_BOUND ( 'NONE', #195, .T. ) ;
#105 = STYLED_ITEM ( 'NONE', ( #81 ), #232 ) ;
#106 = DIRECTION ( 'NONE',  ( -0.000000000000000000, -1.000000000000000000, -0.000000000000000000 ) ) ;
#107 = EDGE_CURVE ( 'NONE', #84, #86, #301, .T. ) ;
#108 = PLANE ( 'NONE',  #255 ) ;
#109 = SURFACE_STYLE_FILL_AREA ( #241 ) ;
#110 = ORIENTED_EDGE ( 'NONE', *, *, #151, .T. ) ;
#111 = ORIENTED_EDGE ( 'NONE', *, *, #134, .F. ) ;
#112 = MECHANICAL_DESIGN_GEOMETRIC_PRESENTATION_REPRESENTATION (  '', ( #229 ), #135 ) ;
#113 = MECHANICAL_DESIGN_GEOMETRIC_PRESENTATION_REPRESENTATION (  '', ( #72 ), #253 ) ;
#114 = FILL_AREA_STYLE_COLOUR ( '', #236 ) ;
#115 =( NAMED_UNIT ( * ) SI_UNIT ( $, .STERADIAN. ) SOLID_ANGLE_UNIT ( ) );
#116 = VERTEX_POINT ( 'NONE', #38 ) ;
#117 = CARTESIAN_POINT ( 'NONE',  ( 0.000000000000000000, 0.5000000000000000000, 0.000000000000000000 ) ) ;
#118 = PRESENTATION_LAYER_ASSIGNMENT (  '', '', ( #4 ) ) ;
#119 = SURFACE_STYLE_USAGE ( .BOTH. , #25 ) ;
#120 = CARTESIAN_POINT ( 'NONE',  ( 1.224646799147353700E-16, 2.000000000000000000, 0.000000000000000000 ) ) ;
#121 =( GEOMETRIC_REPRESENTATION_CONTEXT ( 3 ) GLOBAL_UNCERTAINTY_ASSIGNED_CONTEXT ( ( #258 ) ) GLOBAL_UNIT_ASSIGNED_CONTEXT ( ( #203, #164, #58 ) ) REPRESENTATION_CONTEXT ( 'NONE', 'WORKASPACE' ) );
#122 = CARTESIAN_POINT ( 'NONE',  ( 0.000000000000000000, 0.000000000000000000, 0.000000000000000000 ) ) ;
#123 =( NAMED_UNIT ( * ) PLANE_ANGLE_UNIT ( ) SI_UNIT ( $, .RADIAN. ) );
#124 = PRODUCT_DEFINITION_CONTEXT ( 'detailed design', #91, 'design' ) ;
#125 = DIMENSIONAL_EXPONENTS ( 1.000000000000000000, 0.000000000000000000, 0.000000000000000000, 0.000000000000000000, 0.000000000000000000, 0.000000000000000000, 0.000000000000000000 ) ;
#126 = APPLICATION_PROTOCOL_DEFINITION ( 'draft international standard', 'automotive_design', 1998, #29 ) ;
#127 = FILL_AREA_STYLE ('',( #140 ) ) ;
#128 = PRODUCT_DEFINITION_FORMATION_WITH_SPECIFIED_SOURCE ( 'ANY', '', #62, .NOT_KNOWN. ) ;
#129 = VECTOR ( 'NONE', #71, 39.37007874015748143 ) ;
#130 = DIRECTION ( 'NONE',  ( 0.000000000000000000, 0.000000000000000000, -1.000000000000000000 ) ) ;
#131 = EDGE_CURVE ( 'NONE', #116, #68, #26, .T. ) ;
#132 = FACE_OUTER_BOUND ( 'NONE', #23, .T. ) ;
#133 = LENGTH_MEASURE_WITH_UNIT ( LENGTH_MEASURE( 0.02539999999999999897 ), #282 );
#134 = EDGE_CURVE ( 'NONE', #308, #167, #137, .T. ) ;
#135 =( GEOMETRIC_REPRESENTATION_CONTEXT ( 3 ) GLOBAL_UNCERTAINTY_ASSIGNED_CONTEXT ( ( #32 ) ) GLOBAL_UNIT_ASSIGNED_CONTEXT ( ( #33, #278, #300 ) ) REPRESENTATION_CONTEXT ( 'NONE', 'WORKASPACE' ) );
#136 = SURFACE_STYLE_FILL_AREA ( #89 ) ;
#137 = CIRCLE ( 'NONE', #281, 0.1874999999999999722 ) ;
#138 = ORIENTED_EDGE ( 'NONE', *, *, #151, .F. ) ;
#139 = DIRECTION ( 'NONE',  ( -0.000000000000000000, -1.000000000000000000, -0.000000000000000000 ) ) ;
#140 = FILL_AREA_STYLE_COLOUR ( '', #271 ) ;
#141 = EDGE_LOOP ( 'NONE', ( #221, #283, #165, #264 ) ) ;
#142 = DIRECTION ( 'NONE',  ( -1.000000000000000000, 0.000000000000000000, 0.000000000000000000 ) ) ;
#143 = FILL_AREA_STYLE_COLOUR ( '', #19 ) ;
#144 = PRESENTATION_LAYER_ASSIGNMENT (  '', '', ( #74 ) ) ;
#145 = ORIENTED_EDGE ( 'NONE', *, *, #284, .T. ) ;
#146 = EDGE_CURVE ( 'NONE', #116, #84, #39, .T. ) ;
#147 = CIRCLE ( 'NONE', #277, 0.1875000000000000278 ) ;
#148 = MECHANICAL_DESIGN_GEOMETRIC_PRESENTATION_REPRESENTATION (  '', ( #74 ), #199 ) ;
#149 = CARTESIAN_POINT ( 'NONE',  ( 1.224646799147353700E-16, 2.000000000000000000, 0.000000000000000000 ) ) ;
#150 = DIRECTION ( 'NONE',  ( -8.164311994315692567E-17, -1.000000000000000000, 0.000000000000000000 ) ) ;
#151 = EDGE_CURVE ( 'NONE', #308, #267, #268, .T. ) ;
#152 = FACE_OUTER_BOUND ( 'NONE', #269, .T. ) ;
#153 = EDGE_CURVE ( 'NONE', #68, #86, #302, .T. ) ;
#154 = CARTESIAN_POINT ( 'NONE',  ( 1.224646799147353700E-16, 2.000000000000000000, 0.000000000000000000 ) ) ;
#155 = DIRECTION ( 'NONE',  ( 8.164311994315692567E-17, 1.000000000000000000, -0.000000000000000000 ) ) ;
#156 = DIRECTION ( 'NONE',  ( 8.164311994315692567E-17, 1.000000000000000000, -0.000000000000000000 ) ) ;
#157 =( CONVERSION_BASED_UNIT ( 'INCH', #133 ) LENGTH_UNIT ( ) NAMED_UNIT ( #204 ) );
#158 = ADVANCED_FACE ( 'NONE', ( #104 ), #188, .T. ) ;
#159 = ORIENTED_EDGE ( 'NONE', *, *, #194, .F. ) ;
#160 = SURFACE_STYLE_FILL_AREA ( #17 ) ;
#161 = VERTEX_POINT ( 'NONE', #240 ) ;
#162 = DIRECTION ( 'NONE',  ( 0.000000000000000000, 0.000000000000000000, -1.000000000000000000 ) ) ;
#163 = VECTOR ( 'NONE', #184, 39.37007874015748143 ) ;
#164 =( NAMED_UNIT ( * ) PLANE_ANGLE_UNIT ( ) SI_UNIT ( $, .RADIAN. ) );
#165 = ORIENTED_EDGE ( 'NONE', *, *, #107, .F. ) ;
#166 = FACE_OUTER_BOUND ( 'NONE', #246, .T. ) ;
#167 = VERTEX_POINT ( 'NONE', #14 ) ;
#168 =( NAMED_UNIT ( * ) PLANE_ANGLE_UNIT ( ) SI_UNIT ( $, .RADIAN. ) );
#169 = LINE ( 'NONE', #293, #273 ) ;
#170 = ADVANCED_FACE ( 'NONE', ( #132 ), #263, .T. ) ;
#171 = DIRECTION ( 'NONE',  ( -1.000000000000000000, 0.000000000000000000, 0.000000000000000000 ) ) ;
#172 = UNCERTAINTY_MEASURE_WITH_UNIT (LENGTH_MEASURE( 1.000000000000000082E-05 ), #208, 'distance_accuracy_value', 'NONE');
#173 = PRESENTATION_STYLE_ASSIGNMENT (( #24 ) ) ;
#174 = DIRECTION ( 'NONE',  ( 0.000000000000000000, 0.000000000000000000, -1.000000000000000000 ) ) ;
#175 = SURFACE_STYLE_FILL_AREA ( #193 ) ;
#176 = CLOSED_SHELL ( 'NONE', ( #158, #170, #209, #232 ) ) ;
#177 = CARTESIAN_POINT ( 'NONE',  ( 0.1874999999999999722, 2.000000000000000000, 0.000000000000000000 ) ) ;
#178 = EDGE_CURVE ( 'NONE', #86, #84, #18, .T. ) ;
#179 = CARTESIAN_POINT ( 'NONE',  ( 1.224646799147353700E-16, 2.000000000000000000, 0.000000000000000000 ) ) ;
#180 = APPLICATION_PROTOCOL_DEFINITION ( 'draft international standard', 'automotive_design', 1998, #91 ) ;
#181 = LENGTH_MEASURE_WITH_UNIT ( LENGTH_MEASURE( 0.02539999999999999897 ), #103 );
#182 = FILL_AREA_STYLE_COLOUR ( '', #262 ) ;
#183 = CARTESIAN_POINT ( 'NONE',  ( 0.1874999999999999722, 0.5000000000000001110, 2.296212748401286493E-17 ) ) ;
#184 = DIRECTION ( 'NONE',  ( 8.164311994315692567E-17, 1.000000000000000000, -0.000000000000000000 ) ) ;
#185 = PRESENTATION_LAYER_ASSIGNMENT (  '', '', ( #105 ) ) ;
#186 = COLOUR_RGB ( '',1.000000000000000000, 0.000000000000000000, 0.000000000000000000 ) ;
#187 = SURFACE_STYLE_USAGE ( .BOTH. , #40 ) ;
#188 = CYLINDRICAL_SURFACE ( 'NONE', #231, 0.1874999999999999722 ) ;
#189 = MECHANICAL_DESIGN_GEOMETRIC_PRESENTATION_REPRESENTATION (  '', ( #9 ), #121 ) ;
#190 = ORIENTED_EDGE ( 'NONE', *, *, #218, .F. ) ;
#191 = VECTOR ( 'NONE', #155, 39.37007874015748143 ) ;
#192 = PRODUCT_DEFINITION ( 'UNKNOWN', '', #128, #124 ) ;
#193 = FILL_AREA_STYLE ('',( #297 ) ) ;
#194 = EDGE_CURVE ( 'NONE', #267, #161, #286, .T. ) ;
#195 = EDGE_LOOP ( 'NONE', ( #41, #110, #190, #21 ) ) ;
#196 = LENGTH_MEASURE_WITH_UNIT ( LENGTH_MEASURE( 0.02539999999999999897 ), #54 );
#197 = SURFACE_STYLE_FILL_AREA ( #22 ) ;
#198 = ORIENTED_EDGE ( 'NONE', *, *, #153, .F. ) ;
#199 =( GEOMETRIC_REPRESENTATION_CONTEXT ( 3 ) GLOBAL_UNCERTAINTY_ASSIGNED_CONTEXT ( ( #294 ) ) GLOBAL_UNIT_ASSIGNED_CONTEXT ( ( #251, #248, #115 ) ) REPRESENTATION_CONTEXT ( 'NONE', 'WORKASPACE' ) );
#200 = AXIS2_PLACEMENT_3D ( 'NONE', #177, #150, #233 ) ;
#201 = DIMENSIONAL_EXPONENTS ( 1.000000000000000000, 0.000000000000000000, 0.000000000000000000, 0.000000000000000000, 0.000000000000000000, 0.000000000000000000, 0.000000000000000000 ) ;
#202 =( LENGTH_UNIT ( ) NAMED_UNIT ( * ) SI_UNIT ( $, .METRE. ) );
#203 =( CONVERSION_BASED_UNIT ( 'INCH', #270 ) LENGTH_UNIT ( ) NAMED_UNIT ( #228 ) );
#204 = DIMENSIONAL_EXPONENTS ( 1.000000000000000000, 0.000000000000000000, 0.000000000000000000, 0.000000000000000000, 0.000000000000000000, 0.000000000000000000, 0.000000000000000000 ) ;
#205 = DIRECTION ( 'NONE',  ( 0.000000000000000000, -1.000000000000000000, -0.000000000000000000 ) ) ;
#206 = CARTESIAN_POINT ( 'NONE',  ( 2.296212748401286801E-17, 0.5000000000000000000, 0.1874999999999999722 ) ) ;
#207 = DIRECTION ( 'NONE',  ( -0.000000000000000000, -1.000000000000000000, -0.000000000000000000 ) ) ;
#208 =( CONVERSION_BASED_UNIT ( 'INCH', #99 ) LENGTH_UNIT ( ) NAMED_UNIT ( #256 ) );
#209 = ADVANCED_FACE ( 'NONE', ( #166 ), #245, .T. ) ;
#210 = DIRECTION ( 'NONE',  ( 8.164311994315692567E-17, 1.000000000000000000, -0.000000000000000000 ) ) ;
#211 = CYLINDRICAL_SURFACE ( 'NONE', #52, 0.1874999999999999167 ) ;
#212 =( LENGTH_UNIT ( ) NAMED_UNIT ( * ) SI_UNIT ( $, .METRE. ) );
#213 = CARTESIAN_POINT ( 'NONE',  ( 0.1874999999999999722, 2.000000000000000000, 2.296212748401286493E-17 ) ) ;
#214 =( NAMED_UNIT ( * ) SI_UNIT ( $, .STERADIAN. ) SOLID_ANGLE_UNIT ( ) );
#215 =( NAMED_UNIT ( * ) PLANE_ANGLE_UNIT ( ) SI_UNIT ( $, .RADIAN. ) );
#216 = AXIS2_PLACEMENT_3D ( 'NONE', #92, #28, #94 ) ;
#217 = ORIENTED_EDGE ( 'NONE', *, *, #244, .F. ) ;
#218 = EDGE_CURVE ( 'NONE', #161, #267, #147, .T. ) ;
#219 = DIRECTION ( 'NONE',  ( -0.000000000000000000, -1.000000000000000000, -0.000000000000000000 ) ) ;
#220 = AXIS2_PLACEMENT_3D ( 'NONE', #122, #304, #79 ) ;
#221 = ORIENTED_EDGE ( 'NONE', *, *, #131, .T. ) ;
#222 = SURFACE_STYLE_USAGE ( .BOTH. , #288 ) ;
#223 = AXIS2_PLACEMENT_3D ( 'NONE', #149, #239, #98 ) ;
#224 = MANIFOLD_SOLID_BREP ( 'Revolve - Tool Body (Straight Shanked)', #266 ) ;
#225 = DIRECTION ( 'NONE',  ( 0.000000000000000000, 0.000000000000000000, -1.000000000000000000 ) ) ;
#226 = ADVANCED_BREP_SHAPE_REPRESENTATION ( '26212', ( #6, #224, #220 ), #265 ) ;
#227 =( LENGTH_UNIT ( ) NAMED_UNIT ( * ) SI_UNIT ( $, .METRE. ) );
#228 = DIMENSIONAL_EXPONENTS ( 1.000000000000000000, 0.000000000000000000, 0.000000000000000000, 0.000000000000000000, 0.000000000000000000, 0.000000000000000000, 0.000000000000000000 ) ;
#229 = STYLED_ITEM ( 'NONE', ( #59 ), #224 ) ;
#230 = DIRECTION ( 'NONE',  ( 0.000000000000000000, 0.000000000000000000, -1.000000000000000000 ) ) ;
#231 = AXIS2_PLACEMENT_3D ( 'NONE', #45, #139, #130 ) ;
#232 = ADVANCED_FACE ( 'NONE', ( #259 ), #35, .T. ) ;
#233 = DIRECTION ( 'NONE',  ( 1.000000000000000000, -8.164311994315692567E-17, 0.000000000000000000 ) ) ;
#234 = LENGTH_MEASURE_WITH_UNIT ( LENGTH_MEASURE( 0.02539999999999999897 ), #63 );
#235 = SURFACE_STYLE_FILL_AREA ( #127 ) ;
#236 = COLOUR_RGB ( '',0.7921568627450980005, 0.8196078431372548767, 0.9333333333333333481 ) ;
#237 = PRESENTATION_LAYER_ASSIGNMENT (  '', '', ( #72 ) ) ;
#238 = CARTESIAN_POINT ( 'NONE',  ( -0.1874999999999996947, 2.000000000000000000, 0.000000000000000000 ) ) ;
#239 = DIRECTION ( 'NONE',  ( 8.164311994315692567E-17, 1.000000000000000000, -0.000000000000000000 ) ) ;
#240 = CARTESIAN_POINT ( 'NONE',  ( 0.000000000000000000, 0.000000000000000000, -0.1875000000000000278 ) ) ;
#241 = FILL_AREA_STYLE ('',( #69 ) ) ;
#242 = AXIS2_PLACEMENT_3D ( 'NONE', #88, #219, #97 ) ;
#243 = ORIENTED_EDGE ( 'NONE', *, *, #131, .F. ) ;
#244 = EDGE_CURVE ( 'NONE', #167, #308, #31, .T. ) ;
#245 = CYLINDRICAL_SURFACE ( 'NONE', #55, 0.1874999999999999722 ) ;
#246 = EDGE_LOOP ( 'NONE', ( #138, #20, #145, #159 ) ) ;
#247 = CARTESIAN_POINT ( 'NONE',  ( 0.000000000000000000, 0.000000000000000000, 0.000000000000000000 ) ) ;
#248 =( NAMED_UNIT ( * ) PLANE_ANGLE_UNIT ( ) SI_UNIT ( $, .RADIAN. ) );
#249 = SURFACE_SIDE_STYLE ('',( #175 ) ) ;
#250 = ORIENTED_EDGE ( 'NONE', *, *, #178, .F. ) ;
#251 =( CONVERSION_BASED_UNIT ( 'INCH', #196 ) LENGTH_UNIT ( ) NAMED_UNIT ( #252 ) );
#252 = DIMENSIONAL_EXPONENTS ( 1.000000000000000000, 0.000000000000000000, 0.000000000000000000, 0.000000000000000000, 0.000000000000000000, 0.000000000000000000, 0.000000000000000000 ) ;
#253 =( GEOMETRIC_REPRESENTATION_CONTEXT ( 3 ) GLOBAL_UNCERTAINTY_ASSIGNED_CONTEXT ( ( #27 ) ) GLOBAL_UNIT_ASSIGNED_CONTEXT ( ( #157, #215, #305 ) ) REPRESENTATION_CONTEXT ( 'NONE', 'WORKASPACE' ) );
#254 = UNCERTAINTY_MEASURE_WITH_UNIT (LENGTH_MEASURE( 1.000000000000000082E-05 ), #44, 'distance_accuracy_value', 'NONE');
#255 = AXIS2_PLACEMENT_3D ( 'NONE', #257, #156, #34 ) ;
#256 = DIMENSIONAL_EXPONENTS ( 1.000000000000000000, 0.000000000000000000, 0.000000000000000000, 0.000000000000000000, 0.000000000000000000, 0.000000000000000000, 0.000000000000000000 ) ;
#257 = CARTESIAN_POINT ( 'NONE',  ( 6.248999094424413542E-34, 0.5000000000000000000, 0.000000000000000000 ) ) ;
#258 = UNCERTAINTY_MEASURE_WITH_UNIT (LENGTH_MEASURE( 1.000000000000000082E-05 ), #203, 'distance_accuracy_value', 'NONE');
#259 = FACE_OUTER_BOUND ( 'NONE', #285, .T. ) ;
#260 = CARTESIAN_POINT ( 'NONE',  ( 0.000000000000000000, 0.5000000000000001110, 0.000000000000000000 ) ) ;
#261 = DIRECTION ( 'NONE',  ( -1.000000000000000000, 0.000000000000000000, 0.000000000000000000 ) ) ;
#262 = COLOUR_RGB ( '',1.000000000000000000, 0.000000000000000000, 0.000000000000000000 ) ;
#263 = PLANE ( 'NONE',  #216 ) ;
#264 = ORIENTED_EDGE ( 'NONE', *, *, #146, .F. ) ;
#265 =( GEOMETRIC_REPRESENTATION_CONTEXT ( 3 ) GLOBAL_UNCERTAINTY_ASSIGNED_CONTEXT ( ( #296 ) ) GLOBAL_UNIT_ASSIGNED_CONTEXT ( ( #8, #123, #214 ) ) REPRESENTATION_CONTEXT ( 'NONE', 'WORKASPACE' ) );
#266 = CLOSED_SHELL ( 'NONE', ( #76, #10, #307, #48 ) ) ;
#267 = VERTEX_POINT ( 'NONE', #30 ) ;
#268 = LINE ( 'NONE', #67, #129 ) ;
#269 = EDGE_LOOP ( 'NONE', ( #49, #2 ) ) ;
#270 = LENGTH_MEASURE_WITH_UNIT ( LENGTH_MEASURE( 0.02539999999999999897 ), #227 );
#271 = COLOUR_RGB ( '',1.000000000000000000, 0.000000000000000000, 0.000000000000000000 ) ;
#272 =( NAMED_UNIT ( * ) SI_UNIT ( $, .STERADIAN. ) SOLID_ANGLE_UNIT ( ) );
#273 = VECTOR ( 'NONE', #75, 39.37007874015748143 ) ;
#274 = CARTESIAN_POINT ( 'NONE',  ( 0.000000000000000000, 0.000000000000000000, 0.000000000000000000 ) ) ;
#275 = CARTESIAN_POINT ( 'NONE',  ( 0.000000000000000000, 0.000000000000000000, 0.000000000000000000 ) ) ;
#276 = DIMENSIONAL_EXPONENTS ( 1.000000000000000000, 0.000000000000000000, 0.000000000000000000, 0.000000000000000000, 0.000000000000000000, 0.000000000000000000, 0.000000000000000000 ) ;
#277 = AXIS2_PLACEMENT_3D ( 'NONE', #247, #207, #57 ) ;
#278 =( NAMED_UNIT ( * ) PLANE_ANGLE_UNIT ( ) SI_UNIT ( $, .RADIAN. ) );
#279 = DIRECTION ( 'NONE',  ( 8.164311994315692567E-17, 1.000000000000000000, -0.000000000000000000 ) ) ;
#280 = DIRECTION ( 'NONE',  ( -1.000000000000000000, 0.000000000000000000, 0.000000000000000000 ) ) ;
#281 = AXIS2_PLACEMENT_3D ( 'NONE', #82, #106, #162 ) ;
#282 =( LENGTH_UNIT ( ) NAMED_UNIT ( * ) SI_UNIT ( $, .METRE. ) );
#283 = ORIENTED_EDGE ( 'NONE', *, *, #153, .T. ) ;
#284 = EDGE_CURVE ( 'NONE', #167, #161, #169, .T. ) ;
#285 = EDGE_LOOP ( 'NONE', ( #53, #70 ) ) ;
#286 = CIRCLE ( 'NONE', #242, 0.1875000000000000278 ) ;
#287 = COLOUR_RGB ( '',1.000000000000000000, 0.000000000000000000, 0.000000000000000000 ) ;
#288 = SURFACE_SIDE_STYLE ('',( #109 ) ) ;
#289 = LENGTH_MEASURE_WITH_UNIT ( LENGTH_MEASURE( 0.02539999999999999897 ), #212 );
#290 = SURFACE_SIDE_STYLE ('',( #197 ) ) ;
#291 = EDGE_LOOP ( 'NONE', ( #243, #73 ) ) ;
#292 =( GEOMETRIC_REPRESENTATION_CONTEXT ( 3 ) GLOBAL_UNCERTAINTY_ASSIGNED_CONTEXT ( ( #254 ) ) GLOBAL_UNIT_ASSIGNED_CONTEXT ( ( #44, #168, #272 ) ) REPRESENTATION_CONTEXT ( 'NONE', 'WORKASPACE' ) );
#293 = CARTESIAN_POINT ( 'NONE',  ( 0.000000000000000000, 0.000000000000000000, -0.1874999999999999722 ) ) ;
#294 = UNCERTAINTY_MEASURE_WITH_UNIT (LENGTH_MEASURE( 1.000000000000000082E-05 ), #251, 'distance_accuracy_value', 'NONE');
#295 = DIRECTION ( 'NONE',  ( -0.000000000000000000, -1.000000000000000000, -0.000000000000000000 ) ) ;
#296 = UNCERTAINTY_MEASURE_WITH_UNIT (LENGTH_MEASURE( 1.000000000000000082E-05 ), #8, 'distance_accuracy_value', 'NONE');
#297 = FILL_AREA_STYLE_COLOUR ( '', #287 ) ;
#298 = PRODUCT_DEFINITION_SHAPE ( 'NONE', 'NONE',  #192 ) ;
#299 = DIRECTION ( 'NONE',  ( 8.164311994315692567E-17, 1.000000000000000000, -0.000000000000000000 ) ) ;
#300 =( NAMED_UNIT ( * ) SI_UNIT ( $, .STERADIAN. ) SOLID_ANGLE_UNIT ( ) );
#301 = CIRCLE ( 'NONE', #87, 0.1874999999999998335 ) ;
#302 = LINE ( 'NONE', #83, #191 ) ;
#303 = PLANE ( 'NONE',  #200 ) ;
#304 = DIRECTION ( 'NONE',  ( 0.000000000000000000, 0.000000000000000000, 1.000000000000000000 ) ) ;
#305 =( NAMED_UNIT ( * ) SI_UNIT ( $, .STERADIAN. ) SOLID_ANGLE_UNIT ( ) );
#306 = PRESENTATION_LAYER_ASSIGNMENT (  '', '', ( #229 ) ) ;
#307 = ADVANCED_FACE ( 'NONE', ( #5 ), #77, .T. ) ;
#308 = VERTEX_POINT ( 'NONE', #206 ) ;
#309 = ORIENTED_EDGE ( 'NONE', *, *, #78, .T. ) ;
ENDSEC;
END-ISO-10303-21;
