ISO-10303-21;
HEADER;
FILE_DESCRIPTION (( 'STEP AP214' ),
    '1' );
FILE_NAME ('Micro_DM-250-4120.STEP',
    '2021-09-02T16:01:22',
    ( '' ),
    ( '' ),
    'SwSTEP 2.0',
    'SolidWorks 2020',
    '' );
FILE_SCHEMA (( 'AUTOMOTIVE_DESIGN' ));
ENDSEC;

DATA;
#1 = AXIS2_PLACEMENT_3D ( 'NONE', #144, #214, #101 ) ;
#2 = ORIENTED_EDGE ( 'NONE', *, *, #141, .F. ) ;
#3 = CARTESIAN_POINT ( 'NONE',  ( 0.0000000000000000000, 0.0000000000000000000, 2.500000000000000000 ) ) ;
#4 = APPLICATION_CONTEXT ( 'automotive_design' ) ;
#5 = APPLICATION_PROTOCOL_DEFINITION ( 'draft international standard', 'automotive_design', 1998, #4 ) ;
#6 = CYLINDRICAL_SURFACE ( 'NONE', #88, 0.1249500000000000610 ) ;
#7 = EDGE_CURVE ( 'NONE', #104, #151, #150, .T. ) ;
#8 =( NAMED_UNIT ( * ) SI_UNIT ( $, .STERADIAN. ) SOLID_ANGLE_UNIT ( ) );
#9 = ORIENTED_EDGE ( 'NONE', *, *, #194, .F. ) ;
#10 =( NAMED_UNIT ( * ) PLANE_ANGLE_UNIT ( ) SI_UNIT ( $, .RADIAN. ) );
#11 = MANIFOLD_SOLID_BREP ( 'Cut-Revolve4', #242 ) ;
#12 = CIRCLE ( 'NONE', #45, 0.1100000000000001948 ) ;
#13 = DIRECTION ( 'NONE',  ( -0.0000000000000000000, -0.0000000000000000000, -1.000000000000000000 ) ) ;
#14 = DIRECTION ( 'NONE',  ( 0.0000000000000000000, 0.0000000000000000000, -1.000000000000000000 ) ) ;
#15 = PRESENTATION_STYLE_ASSIGNMENT (( #184 ) ) ;
#16 = PRESENTATION_STYLE_ASSIGNMENT (( #161 ) ) ;
#17 = EDGE_CURVE ( 'NONE', #315, #177, #85, .T. ) ;
#18 = DIRECTION ( 'NONE',  ( 1.000000000000000000, 0.0000000000000000000, 0.0000000000000000000 ) ) ;
#19 = FACE_OUTER_BOUND ( 'NONE', #220, .T. ) ;
#20 = CARTESIAN_POINT ( 'NONE',  ( 0.1249500000000001027, 1.530196175534619251E-17, 0.7500000000000001110 ) ) ;
#21 = LINE ( 'NONE', #298, #257 ) ;
#22 = VERTEX_POINT ( 'NONE', #231 ) ;
#23 = ORIENTED_EDGE ( 'NONE', *, *, #109, .F. ) ;
#24 = ORIENTED_EDGE ( 'NONE', *, *, #192, .F. ) ;
#25 = ADVANCED_FACE ( 'NONE', ( #135 ), #6, .T. ) ;
#26 = SHAPE_DEFINITION_REPRESENTATION ( #250, #75 ) ;
#27 = DIRECTION ( 'NONE',  ( -1.000000000000000000, 0.0000000000000000000, 0.0000000000000000000 ) ) ;
#28 = PRODUCT_RELATED_PRODUCT_CATEGORY ( 'part', '', ( #222 ) ) ;
#29 = COLOUR_RGB ( '',0.7921568627450980005, 0.8196078431372548767, 0.9333333333333333481 ) ;
#30 = FILL_AREA_STYLE_COLOUR ( '', #43 ) ;
#31 = CONICAL_SURFACE ( 'NONE', #90, 0.1100000000000001948, 0.7853981633974517207 ) ;
#32 = CARTESIAN_POINT ( 'NONE',  ( -0.1249500000000001027, 0.0000000000000000000, 0.7500000000000001110 ) ) ;
#33 = DIRECTION ( 'NONE',  ( -0.0000000000000000000, -0.0000000000000000000, -1.000000000000000000 ) ) ;
#34 =( LENGTH_UNIT ( ) NAMED_UNIT ( * ) SI_UNIT ( $, .METRE. ) );
#35 = CARTESIAN_POINT ( 'NONE',  ( 0.0000000000000000000, 0.0000000000000000000, 0.7500000000000001110 ) ) ;
#36 = DIRECTION ( 'NONE',  ( -1.000000000000000000, 0.0000000000000000000, 0.0000000000000000000 ) ) ;
#37 = CIRCLE ( 'NONE', #314, 0.007499999999999999722 ) ;
#38 = FACE_BOUND ( 'NONE', #127, .T. ) ;
#39 = FACE_OUTER_BOUND ( 'NONE', #81, .T. ) ;
#40 = DIRECTION ( 'NONE',  ( -1.000000000000000000, 0.0000000000000000000, 0.0000000000000000000 ) ) ;
#41 = CARTESIAN_POINT ( 'NONE',  ( 0.1250000000000000000, 1.530808498934191509E-17, 2.485000000000000320 ) ) ;
#42 = DIRECTION ( 'NONE',  ( -1.000000000000000000, 0.0000000000000000000, 0.0000000000000000000 ) ) ;
#43 = COLOUR_RGB ( '',0.7921568627450980005, 0.8196078431372548767, 0.9333333333333333481 ) ;
#44 = CARTESIAN_POINT ( 'NONE',  ( -0.007499999999999999722, 8.110223427353346529E-18, 1.707404996040164512E-17 ) ) ;
#45 = AXIS2_PLACEMENT_3D ( 'NONE', #264, #236, #18 ) ;
#46 = ADVANCED_FACE ( 'NONE', ( #287 ), #163, .T. ) ;
#47 = EDGE_LOOP ( 'NONE', ( #23, #307, #221, #305 ) ) ;
#48 = DIRECTION ( 'NONE',  ( -0.0000000000000000000, -0.0000000000000000000, -1.000000000000000000 ) ) ;
#49 = ORIENTED_EDGE ( 'NONE', *, *, #170, .T. ) ;
#50 = AXIS2_PLACEMENT_3D ( 'NONE', #215, #33, #36 ) ;
#51 = AXIS2_PLACEMENT_3D ( 'NONE', #196, #274, #275 ) ;
#52 = EDGE_LOOP ( 'NONE', ( #82, #138, #313, #111 ) ) ;
#53 = VERTEX_POINT ( 'NONE', #32 ) ;
#54 = SURFACE_SIDE_STYLE ('',( #204 ) ) ;
#55 = ADVANCED_FACE ( 'NONE', ( #19 ), #156, .T. ) ;
#56 = APPLICATION_PROTOCOL_DEFINITION ( 'draft international standard', 'automotive_design', 1998, #148 ) ;
#57 = ADVANCED_FACE ( 'NONE', ( #87 ), #133, .T. ) ;
#58 = EDGE_CURVE ( 'NONE', #302, #149, #139, .T. ) ;
#59 =( CONVERSION_BASED_UNIT ( 'INCH', #225 ) LENGTH_UNIT ( ) NAMED_UNIT ( #235 ) );
#60 = CONICAL_SURFACE ( 'NONE', #130, 0.1100000000000001948, 0.7853981633974517207 ) ;
#61 = DIRECTION ( 'NONE',  ( 1.000000000000000000, 0.0000000000000000000, 0.0000000000000000000 ) ) ;
#62 = ORIENTED_EDGE ( 'NONE', *, *, #195, .F. ) ;
#63 = VERTEX_POINT ( 'NONE', #325 ) ;
#64 = LINE ( 'NONE', #322, #285 ) ;
#65 = LINE ( 'NONE', #153, #265 ) ;
#66 = VECTOR ( 'NONE', #93, 39.37007874015748143 ) ;
#67 = DIRECTION ( 'NONE',  ( 0.0000000000000000000, 0.0000000000000000000, -1.000000000000000000 ) ) ;
#68 = DIRECTION ( 'NONE',  ( 0.0000000000000000000, 0.0000000000000000000, 1.000000000000000000 ) ) ;
#69 = LINE ( 'NONE', #125, #108 ) ;
#70 = DIRECTION ( 'NONE',  ( -0.0000000000000000000, -0.0000000000000000000, -1.000000000000000000 ) ) ;
#71 = EDGE_CURVE ( 'NONE', #63, #117, #95, .T. ) ;
#72 = DIRECTION ( 'NONE',  ( -0.8660254037844400399, 1.060575238724908640E-16, 0.4999999999999976685 ) ) ;
#73 = ORIENTED_EDGE ( 'NONE', *, *, #296, .T. ) ;
#74 = AXIS2_PLACEMENT_3D ( 'NONE', #180, #128, #279 ) ;
#75 = ADVANCED_BREP_SHAPE_REPRESENTATION ( 'Micro_DM-250-4120', ( #11, #74 ), #155 ) ;
#76 = DIRECTION ( 'NONE',  ( 1.000000000000000000, 0.0000000000000000000, 0.0000000000000000000 ) ) ;
#77 = ORIENTED_EDGE ( 'NONE', *, *, #194, .T. ) ;
#78 = FACE_OUTER_BOUND ( 'NONE', #173, .T. ) ;
#79 = MECHANICAL_DESIGN_GEOMETRIC_PRESENTATION_REPRESENTATION (  '', ( #118 ), #318 ) ;
#80 = AXIS2_PLACEMENT_3D ( 'NONE', #300, #102, #172 ) ;
#81 = EDGE_LOOP ( 'NONE', ( #203, #326 ) ) ;
#82 = ORIENTED_EDGE ( 'NONE', *, *, #226, .F. ) ;
#83 = LENGTH_MEASURE_WITH_UNIT ( LENGTH_MEASURE( 0.02539999999999999897 ), #131 );
#84 = ORIENTED_EDGE ( 'NONE', *, *, #58, .T. ) ;
#85 = CIRCLE ( 'NONE', #107, 0.1100000000000001948 ) ;
#86 = PRESENTATION_LAYER_ASSIGNMENT (  '', '', ( #253 ) ) ;
#87 = FACE_OUTER_BOUND ( 'NONE', #273, .T. ) ;
#88 = AXIS2_PLACEMENT_3D ( 'NONE', #237, #311, #213 ) ;
#89 = SURFACE_STYLE_FILL_AREA ( #154 ) ;
#90 = AXIS2_PLACEMENT_3D ( 'NONE', #3, #291, #218 ) ;
#91 = CARTESIAN_POINT ( 'NONE',  ( 0.0000000000000000000, 0.0000000000000000000, 1.707404996040164512E-17 ) ) ;
#92 = ORIENTED_EDGE ( 'NONE', *, *, #7, .F. ) ;
#93 = DIRECTION ( 'NONE',  ( 0.7071067811865499042, 8.659560562354961208E-17, -0.7071067811865451302 ) ) ;
#94 = CARTESIAN_POINT ( 'NONE',  ( 0.0000000000000000000, 0.0000000000000000000, 2.500000000000000000 ) ) ;
#95 = CIRCLE ( 'NONE', #80, 0.1250000000000000000 ) ;
#96 = PLANE ( 'NONE',  #132 ) ;
#97 = CARTESIAN_POINT ( 'NONE',  ( 0.0000000000000000000, 0.0000000000000000000, 0.7499999999999998890 ) ) ;
#98 = DIRECTION ( 'NONE',  ( -0.7071067811865499042, 0.0000000000000000000, -0.7071067811865451302 ) ) ;
#99 = ADVANCED_FACE ( 'NONE', ( #123 ), #191, .F. ) ;
#100 = FACE_OUTER_BOUND ( 'NONE', #248, .T. ) ;
#101 = DIRECTION ( 'NONE',  ( 1.000000000000000000, 0.0000000000000000000, 0.0000000000000000000 ) ) ;
#102 = DIRECTION ( 'NONE',  ( -0.0000000000000000000, -0.0000000000000000000, -1.000000000000000000 ) ) ;
#103 = CARTESIAN_POINT ( 'NONE',  ( -0.1100000000000001948, 0.0000000000000000000, 2.500000000000000000 ) ) ;
#104 = VERTEX_POINT ( 'NONE', #199 ) ;
#105 = ORIENTED_EDGE ( 'NONE', *, *, #134, .F. ) ;
#106 = ORIENTED_EDGE ( 'NONE', *, *, #170, .F. ) ;
#107 = AXIS2_PLACEMENT_3D ( 'NONE', #308, #286, #284 ) ;
#108 = VECTOR ( 'NONE', #269, 39.37007874015748143 ) ;
#109 = EDGE_CURVE ( 'NONE', #129, #151, #245, .T. ) ;
#110 = EDGE_LOOP ( 'NONE', ( #9, #260, #126, #92 ) ) ;
#111 = ORIENTED_EDGE ( 'NONE', *, *, #174, .F. ) ;
#112 = ORIENTED_EDGE ( 'NONE', *, *, #294, .F. ) ;
#113 =( NAMED_UNIT ( * ) SI_UNIT ( $, .STERADIAN. ) SOLID_ANGLE_UNIT ( ) );
#114 = PRODUCT_DEFINITION_FORMATION_WITH_SPECIFIED_SOURCE ( 'ANY', '', #222, .NOT_KNOWN. ) ;
#115 = ADVANCED_FACE ( 'NONE', ( #320 ), #278, .T. ) ;
#116 = LENGTH_MEASURE_WITH_UNIT ( LENGTH_MEASURE( 0.02539999999999999897 ), #310 );
#117 = VERTEX_POINT ( 'NONE', #317 ) ;
#118 = STYLED_ITEM ( 'NONE', ( #16 ), #11 ) ;
#119 = CIRCLE ( 'NONE', #258, 0.1249500000000001027 ) ;
#120 = MECHANICAL_DESIGN_GEOMETRIC_PRESENTATION_REPRESENTATION (  '', ( #253 ), #229 ) ;
#121 = CYLINDRICAL_SURFACE ( 'NONE', #319, 0.1249500000000000610 ) ;
#122 = DIRECTION ( 'NONE',  ( -0.0000000000000000000, -0.0000000000000000000, -1.000000000000000000 ) ) ;
#123 = FACE_OUTER_BOUND ( 'NONE', #197, .T. ) ;
#124 = ORIENTED_EDGE ( 'NONE', *, *, #296, .F. ) ;
#125 = CARTESIAN_POINT ( 'NONE',  ( 0.007499999999999999722, 0.0000000000000000000, 1.707404996040164512E-17 ) ) ;
#126 = ORIENTED_EDGE ( 'NONE', *, *, #141, .T. ) ;
#127 = EDGE_LOOP ( 'NONE', ( #124, #24 ) ) ;
#128 = DIRECTION ( 'NONE',  ( 0.0000000000000000000, 0.0000000000000000000, 1.000000000000000000 ) ) ;
#129 = VERTEX_POINT ( 'NONE', #44 ) ;
#130 = AXIS2_PLACEMENT_3D ( 'NONE', #94, #67, #193 ) ;
#131 =( LENGTH_UNIT ( ) NAMED_UNIT ( * ) SI_UNIT ( $, .METRE. ) );
#132 = AXIS2_PLACEMENT_3D ( 'NONE', #239, #68, #190 ) ;
#133 = CYLINDRICAL_SURFACE ( 'NONE', #201, 0.1250000000000000000 ) ;
#134 = EDGE_CURVE ( 'NONE', #117, #63, #243, .T. ) ;
#135 = FACE_OUTER_BOUND ( 'NONE', #110, .T. ) ;
#136 = FACE_OUTER_BOUND ( 'NONE', #301, .T. ) ;
#137 = SURFACE_SIDE_STYLE ('',( #89 ) ) ;
#138 = ORIENTED_EDGE ( 'NONE', *, *, #17, .F. ) ;
#139 = CIRCLE ( 'NONE', #272, 0.1250000000000000000 ) ;
#140 = CARTESIAN_POINT ( 'NONE',  ( 0.0000000000000000000, 0.0000000000000000000, 1.707404996040164512E-17 ) ) ;
#141 = EDGE_CURVE ( 'NONE', #53, #151, #21, .T. ) ;
#142 = EDGE_CURVE ( 'NONE', #22, #104, #69, .T. ) ;
#143 = DIRECTION ( 'NONE',  ( 0.0000000000000000000, 0.0000000000000000000, 1.000000000000000000 ) ) ;
#144 = CARTESIAN_POINT ( 'NONE',  ( 0.0000000000000000000, 0.0000000000000000000, 2.485000000000000320 ) ) ;
#145 = CARTESIAN_POINT ( 'NONE',  ( -0.1249500000000000333, 1.530196175534618327E-17, 0.06780978911632114248 ) ) ;
#146 = CIRCLE ( 'NONE', #293, 0.1249500000000001027 ) ;
#147 = ORIENTED_EDGE ( 'NONE', *, *, #109, .T. ) ;
#148 = APPLICATION_CONTEXT ( 'automotive_design' ) ;
#149 = VERTEX_POINT ( 'NONE', #41 ) ;
#150 = CIRCLE ( 'NONE', #187, 0.1249500000000000194 ) ;
#151 = VERTEX_POINT ( 'NONE', #145 ) ;
#152 = VECTOR ( 'NONE', #72, 39.37007874015748143 ) ;
#153 = CARTESIAN_POINT ( 'NONE',  ( 0.1250000000000000000, 1.530808498934191509E-17, 2.500000000000000000 ) ) ;
#154 = FILL_AREA_STYLE ('',( #312 ) ) ;
#155 =( GEOMETRIC_REPRESENTATION_CONTEXT ( 3 ) GLOBAL_UNCERTAINTY_ASSIGNED_CONTEXT ( ( #209 ) ) GLOBAL_UNIT_ASSIGNED_CONTEXT ( ( #211, #262, #8 ) ) REPRESENTATION_CONTEXT ( 'NONE', 'WORKASPACE' ) );
#156 = CYLINDRICAL_SURFACE ( 'NONE', #50, 0.1250000000000000000 ) ;
#157 = ADVANCED_FACE ( 'NONE', ( #78 ), #31, .T. ) ;
#158 = EDGE_LOOP ( 'NONE', ( #62, #147, #304, #288 ) ) ;
#159 = CARTESIAN_POINT ( 'NONE',  ( 0.1100000000000001948, 1.438959988998141146E-17, 2.500000000000000000 ) ) ;
#160 = CARTESIAN_POINT ( 'NONE',  ( 0.0000000000000000000, 0.0000000000000000000, 2.485000000000000320 ) ) ;
#161 = SURFACE_STYLE_USAGE ( .BOTH. , #54 ) ;
#162 = CARTESIAN_POINT ( 'NONE',  ( 0.1249500000000001027, 0.0000000000000000000, 0.7500000000000001110 ) ) ;
#163 = CONICAL_SURFACE ( 'NONE', #205, 0.007499999999999999722, 1.047197551196600518 ) ;
#164 = DIMENSIONAL_EXPONENTS ( 1.000000000000000000, 0.0000000000000000000, 0.0000000000000000000, 0.0000000000000000000, 0.0000000000000000000, 0.0000000000000000000, 0.0000000000000000000 ) ;
#165 = CARTESIAN_POINT ( 'NONE',  ( 0.0000000000000000000, 0.0000000000000000000, 0.06780978911632114248 ) ) ;
#166 = PLANE ( 'NONE',  #183 ) ;
#167 = DIRECTION ( 'NONE',  ( -0.0000000000000000000, -0.0000000000000000000, -1.000000000000000000 ) ) ;
#168 = ORIENTED_EDGE ( 'NONE', *, *, #226, .T. ) ;
#169 = CIRCLE ( 'NONE', #306, 0.1249500000000000194 ) ;
#170 = EDGE_CURVE ( 'NONE', #302, #63, #64, .T. ) ;
#171 = DIRECTION ( 'NONE',  ( -0.0000000000000000000, -0.0000000000000000000, -1.000000000000000000 ) ) ;
#172 = DIRECTION ( 'NONE',  ( -1.000000000000000000, 0.0000000000000000000, 0.0000000000000000000 ) ) ;
#173 = EDGE_LOOP ( 'NONE', ( #280, #168, #208, #112 ) ) ;
#174 = EDGE_CURVE ( 'NONE', #149, #302, #189, .T. ) ;
#175 =( NAMED_UNIT ( * ) PLANE_ANGLE_UNIT ( ) SI_UNIT ( $, .RADIAN. ) );
#176 = VECTOR ( 'NONE', #98, 39.37007874015748143 ) ;
#177 = VERTEX_POINT ( 'NONE', #159 ) ;
#178 =( CONVERSION_BASED_UNIT ( 'INCH', #83 ) LENGTH_UNIT ( ) NAMED_UNIT ( #244 ) );
#179 = CARTESIAN_POINT ( 'NONE',  ( 0.0000000000000000000, 0.0000000000000000000, 0.06780978911632114248 ) ) ;
#180 = CARTESIAN_POINT ( 'NONE',  ( 0.0000000000000000000, 0.0000000000000000000, 0.0000000000000000000 ) ) ;
#181 = CIRCLE ( 'NONE', #198, 0.007499999999999999722 ) ;
#182 = DIRECTION ( 'NONE',  ( -0.0000000000000000000, -0.0000000000000000000, -1.000000000000000000 ) ) ;
#183 = AXIS2_PLACEMENT_3D ( 'NONE', #162, #210, #270 ) ;
#184 = SURFACE_STYLE_USAGE ( .BOTH. , #137 ) ;
#185 = DIRECTION ( 'NONE',  ( -1.000000000000000000, 0.0000000000000000000, 0.0000000000000000000 ) ) ;
#186 = ORIENTED_EDGE ( 'NONE', *, *, #71, .F. ) ;
#187 = AXIS2_PLACEMENT_3D ( 'NONE', #179, #234, #254 ) ;
#188 = LINE ( 'NONE', #295, #176 ) ;
#189 = CIRCLE ( 'NONE', #1, 0.1250000000000000000 ) ;
#190 = DIRECTION ( 'NONE',  ( 1.000000000000000000, 0.0000000000000000000, -0.0000000000000000000 ) ) ;
#191 = PLANE ( 'NONE',  #51 ) ;
#192 = EDGE_CURVE ( 'NONE', #259, #53, #146, .T. ) ;
#193 = DIRECTION ( 'NONE',  ( -1.000000000000000000, 0.0000000000000000000, 0.0000000000000000000 ) ) ;
#194 = EDGE_CURVE ( 'NONE', #259, #104, #267, .T. ) ;
#195 = EDGE_CURVE ( 'NONE', #129, #22, #181, .T. ) ;
#196 = CARTESIAN_POINT ( 'NONE',  ( 0.0000000000000000000, 0.0000000000000000000, 0.0000000000000000000 ) ) ;
#197 = EDGE_LOOP ( 'NONE', ( #223, #227 ) ) ;
#198 = AXIS2_PLACEMENT_3D ( 'NONE', #140, #70, #42 ) ;
#199 = CARTESIAN_POINT ( 'NONE',  ( 0.1249500000000000333, 0.0000000000000000000, 0.06780978911632114248 ) ) ;
#200 = ORIENTED_EDGE ( 'NONE', *, *, #252, .F. ) ;
#201 = AXIS2_PLACEMENT_3D ( 'NONE', #232, #182, #185 ) ;
#202 = PRODUCT_DEFINITION ( 'UNKNOWN', '', #114, #303 ) ;
#203 = ORIENTED_EDGE ( 'NONE', *, *, #17, .T. ) ;
#204 = SURFACE_STYLE_FILL_AREA ( #281 ) ;
#205 = AXIS2_PLACEMENT_3D ( 'NONE', #91, #143, #61 ) ;
#206 = AXIS2_PLACEMENT_3D ( 'NONE', #247, #219, #76 ) ;
#207 = ADVANCED_FACE ( 'NONE', ( #38, #136 ), #166, .T. ) ;
#208 = ORIENTED_EDGE ( 'NONE', *, *, #58, .F. ) ;
#209 = UNCERTAINTY_MEASURE_WITH_UNIT (LENGTH_MEASURE( 1.000000000000000082E-05 ), #211, 'distance_accuracy_value', 'NONE');
#210 = DIRECTION ( 'NONE',  ( -0.0000000000000000000, 0.0000000000000000000, -1.000000000000000000 ) ) ;
#211 =( CONVERSION_BASED_UNIT ( 'INCH', #116 ) LENGTH_UNIT ( ) NAMED_UNIT ( #164 ) );
#212 = FACE_OUTER_BOUND ( 'NONE', #52, .T. ) ;
#213 = DIRECTION ( 'NONE',  ( -1.000000000000000000, 0.0000000000000000000, 0.0000000000000000000 ) ) ;
#214 = DIRECTION ( 'NONE',  ( 0.0000000000000000000, 0.0000000000000000000, -1.000000000000000000 ) ) ;
#215 = CARTESIAN_POINT ( 'NONE',  ( 0.0000000000000000000, 0.0000000000000000000, 2.500000000000000000 ) ) ;
#216 = CARTESIAN_POINT ( 'NONE',  ( 0.0000000000000000000, 0.0000000000000000000, 0.0000000000000000000 ) ) ;
#217 = DIRECTION ( 'NONE',  ( -0.0000000000000000000, -0.0000000000000000000, -1.000000000000000000 ) ) ;
#218 = DIRECTION ( 'NONE',  ( -1.000000000000000000, 0.0000000000000000000, 0.0000000000000000000 ) ) ;
#219 = DIRECTION ( 'NONE',  ( 0.0000000000000000000, 0.0000000000000000000, 1.000000000000000000 ) ) ;
#220 = EDGE_LOOP ( 'NONE', ( #84, #263, #186, #106 ) ) ;
#221 = ORIENTED_EDGE ( 'NONE', *, *, #142, .T. ) ;
#222 = PRODUCT ( 'Micro_DM-250-4120', 'Micro_DM-250-4120', '', ( #255 ) ) ;
#223 = ORIENTED_EDGE ( 'NONE', *, *, #327, .T. ) ;
#224 = AXIS2_PLACEMENT_3D ( 'NONE', #97, #122, #323 ) ;
#225 = LENGTH_MEASURE_WITH_UNIT ( LENGTH_MEASURE( 0.02539999999999999897 ), #34 );
#226 = EDGE_CURVE ( 'NONE', #177, #149, #297, .T. ) ;
#227 = ORIENTED_EDGE ( 'NONE', *, *, #195, .T. ) ;
#228 = UNCERTAINTY_MEASURE_WITH_UNIT (LENGTH_MEASURE( 1.000000000000000082E-05 ), #59, 'distance_accuracy_value', 'NONE');
#229 =( GEOMETRIC_REPRESENTATION_CONTEXT ( 3 ) GLOBAL_UNCERTAINTY_ASSIGNED_CONTEXT ( ( #230 ) ) GLOBAL_UNIT_ASSIGNED_CONTEXT ( ( #178, #175, #309 ) ) REPRESENTATION_CONTEXT ( 'NONE', 'WORKASPACE' ) );
#230 = UNCERTAINTY_MEASURE_WITH_UNIT (LENGTH_MEASURE( 1.000000000000000082E-05 ), #178, 'distance_accuracy_value', 'NONE');
#231 = CARTESIAN_POINT ( 'NONE',  ( 0.007499999999999999722, 0.0000000000000000000, 1.707404996040164512E-17 ) ) ;
#232 = CARTESIAN_POINT ( 'NONE',  ( 0.0000000000000000000, 0.0000000000000000000, 2.500000000000000000 ) ) ;
#233 = PRESENTATION_LAYER_ASSIGNMENT (  '', '', ( #118 ) ) ;
#234 = DIRECTION ( 'NONE',  ( -0.0000000000000000000, -0.0000000000000000000, -1.000000000000000000 ) ) ;
#235 = DIMENSIONAL_EXPONENTS ( 1.000000000000000000, 0.0000000000000000000, 0.0000000000000000000, 0.0000000000000000000, 0.0000000000000000000, 0.0000000000000000000, 0.0000000000000000000 ) ;
#236 = DIRECTION ( 'NONE',  ( 0.0000000000000000000, 0.0000000000000000000, 1.000000000000000000 ) ) ;
#237 = CARTESIAN_POINT ( 'NONE',  ( 0.0000000000000000000, 0.0000000000000000000, 0.0000000000000000000 ) ) ;
#238 = DIRECTION ( 'NONE',  ( -0.0000000000000000000, -0.0000000000000000000, -1.000000000000000000 ) ) ;
#239 = CARTESIAN_POINT ( 'NONE',  ( 0.0000000000000000000, 0.0000000000000000000, 2.500000000000000000 ) ) ;
#240 = EDGE_CURVE ( 'NONE', #177, #315, #12, .T. ) ;
#241 = ADVANCED_FACE ( 'NONE', ( #212 ), #60, .T. ) ;
#242 = CLOSED_SHELL ( 'NONE', ( #277, #115, #157, #55, #57, #251, #241, #207, #46, #25, #99 ) ) ;
#243 = CIRCLE ( 'NONE', #224, 0.1250000000000000000 ) ;
#244 = DIMENSIONAL_EXPONENTS ( 1.000000000000000000, 0.0000000000000000000, 0.0000000000000000000, 0.0000000000000000000, 0.0000000000000000000, 0.0000000000000000000, 0.0000000000000000000 ) ;
#245 = LINE ( 'NONE', #271, #152 ) ;
#246 = ORIENTED_EDGE ( 'NONE', *, *, #328, .F. ) ;
#247 = CARTESIAN_POINT ( 'NONE',  ( 0.0000000000000000000, 0.0000000000000000000, 1.707404996040164512E-17 ) ) ;
#248 = EDGE_LOOP ( 'NONE', ( #73, #77, #200, #2 ) ) ;
#249 = ORIENTED_EDGE ( 'NONE', *, *, #134, .T. ) ;
#250 = PRODUCT_DEFINITION_SHAPE ( 'NONE', 'NONE',  #202 ) ;
#251 = ADVANCED_FACE ( 'NONE', ( #39 ), #96, .T. ) ;
#252 = EDGE_CURVE ( 'NONE', #151, #104, #169, .T. ) ;
#253 = STYLED_ITEM ( 'NONE', ( #15 ), #75 ) ;
#254 = DIRECTION ( 'NONE',  ( -1.000000000000000000, 0.0000000000000000000, 0.0000000000000000000 ) ) ;
#255 = PRODUCT_CONTEXT ( 'NONE', #148, 'mechanical' ) ;
#256 = DIRECTION ( 'NONE',  ( -0.0000000000000000000, -0.0000000000000000000, -1.000000000000000000 ) ) ;
#257 = VECTOR ( 'NONE', #48, 39.37007874015748143 ) ;
#258 = AXIS2_PLACEMENT_3D ( 'NONE', #299, #217, #266 ) ;
#259 = VERTEX_POINT ( 'NONE', #20 ) ;
#260 = ORIENTED_EDGE ( 'NONE', *, *, #192, .T. ) ;
#261 = DIRECTION ( 'NONE',  ( -1.000000000000000000, 0.0000000000000000000, 0.0000000000000000000 ) ) ;
#262 =( NAMED_UNIT ( * ) PLANE_ANGLE_UNIT ( ) SI_UNIT ( $, .RADIAN. ) );
#263 = ORIENTED_EDGE ( 'NONE', *, *, #328, .T. ) ;
#264 = CARTESIAN_POINT ( 'NONE',  ( 0.0000000000000000000, 0.0000000000000000000, 2.500000000000000000 ) ) ;
#265 = VECTOR ( 'NONE', #256, 39.37007874015748143 ) ;
#266 = DIRECTION ( 'NONE',  ( -1.000000000000000000, 0.0000000000000000000, 0.0000000000000000000 ) ) ;
#267 = LINE ( 'NONE', #292, #282 ) ;
#268 = DIRECTION ( 'NONE',  ( -0.0000000000000000000, -0.0000000000000000000, -1.000000000000000000 ) ) ;
#269 = DIRECTION ( 'NONE',  ( 0.8660254037844400399, 0.0000000000000000000, 0.4999999999999976685 ) ) ;
#270 = DIRECTION ( 'NONE',  ( -1.000000000000000000, 0.0000000000000000000, 0.0000000000000000000 ) ) ;
#271 = CARTESIAN_POINT ( 'NONE',  ( -0.007499999999999999722, 9.184850993605147975E-19, 1.707404996040164512E-17 ) ) ;
#272 = AXIS2_PLACEMENT_3D ( 'NONE', #160, #14, #283 ) ;
#273 = EDGE_LOOP ( 'NONE', ( #246, #276, #49, #105 ) ) ;
#274 = DIRECTION ( 'NONE',  ( 0.0000000000000000000, 0.0000000000000000000, 1.000000000000000000 ) ) ;
#275 = DIRECTION ( 'NONE',  ( 1.000000000000000000, 0.0000000000000000000, -0.0000000000000000000 ) ) ;
#276 = ORIENTED_EDGE ( 'NONE', *, *, #174, .T. ) ;
#277 = ADVANCED_FACE ( 'NONE', ( #100 ), #121, .T. ) ;
#278 = CONICAL_SURFACE ( 'NONE', #206, 0.007499999999999999722, 1.047197551196600518 ) ;
#279 = DIRECTION ( 'NONE',  ( 1.000000000000000000, 0.0000000000000000000, 0.0000000000000000000 ) ) ;
#280 = ORIENTED_EDGE ( 'NONE', *, *, #240, .F. ) ;
#281 = FILL_AREA_STYLE ('',( #30 ) ) ;
#282 = VECTOR ( 'NONE', #238, 39.37007874015748143 ) ;
#283 = DIRECTION ( 'NONE',  ( 1.000000000000000000, 0.0000000000000000000, 0.0000000000000000000 ) ) ;
#284 = DIRECTION ( 'NONE',  ( 1.000000000000000000, 0.0000000000000000000, 0.0000000000000000000 ) ) ;
#285 = VECTOR ( 'NONE', #289, 39.37007874015748143 ) ;
#286 = DIRECTION ( 'NONE',  ( 0.0000000000000000000, 0.0000000000000000000, 1.000000000000000000 ) ) ;
#287 = FACE_OUTER_BOUND ( 'NONE', #47, .T. ) ;
#288 = ORIENTED_EDGE ( 'NONE', *, *, #142, .F. ) ;
#289 = DIRECTION ( 'NONE',  ( -0.0000000000000000000, -0.0000000000000000000, -1.000000000000000000 ) ) ;
#290 = CARTESIAN_POINT ( 'NONE',  ( 0.0000000000000000000, 0.0000000000000000000, 1.707404996040164512E-17 ) ) ;
#291 = DIRECTION ( 'NONE',  ( 0.0000000000000000000, 0.0000000000000000000, -1.000000000000000000 ) ) ;
#292 = CARTESIAN_POINT ( 'NONE',  ( 0.1249500000000000610, 1.530196175534618635E-17, 0.0000000000000000000 ) ) ;
#293 = AXIS2_PLACEMENT_3D ( 'NONE', #35, #13, #261 ) ;
#294 = EDGE_CURVE ( 'NONE', #315, #302, #188, .T. ) ;
#295 = CARTESIAN_POINT ( 'NONE',  ( -0.1100000000000001948, 0.0000000000000000000, 2.500000000000000000 ) ) ;
#296 = EDGE_CURVE ( 'NONE', #53, #259, #119, .T. ) ;
#297 = LINE ( 'NONE', #316, #66 ) ;
#298 = CARTESIAN_POINT ( 'NONE',  ( -0.1249500000000000610, 0.0000000000000000000, 0.0000000000000000000 ) ) ;
#299 = CARTESIAN_POINT ( 'NONE',  ( 0.0000000000000000000, 0.0000000000000000000, 0.7500000000000001110 ) ) ;
#300 = CARTESIAN_POINT ( 'NONE',  ( 0.0000000000000000000, 0.0000000000000000000, 0.7499999999999998890 ) ) ;
#301 = EDGE_LOOP ( 'NONE', ( #329, #249 ) ) ;
#302 = VERTEX_POINT ( 'NONE', #321 ) ;
#303 = PRODUCT_DEFINITION_CONTEXT ( 'detailed design', #4, 'design' ) ;
#304 = ORIENTED_EDGE ( 'NONE', *, *, #252, .T. ) ;
#305 = ORIENTED_EDGE ( 'NONE', *, *, #7, .T. ) ;
#306 = AXIS2_PLACEMENT_3D ( 'NONE', #165, #268, #40 ) ;
#307 = ORIENTED_EDGE ( 'NONE', *, *, #327, .F. ) ;
#308 = CARTESIAN_POINT ( 'NONE',  ( 0.0000000000000000000, 0.0000000000000000000, 2.500000000000000000 ) ) ;
#309 =( NAMED_UNIT ( * ) SI_UNIT ( $, .STERADIAN. ) SOLID_ANGLE_UNIT ( ) );
#310 =( LENGTH_UNIT ( ) NAMED_UNIT ( * ) SI_UNIT ( $, .METRE. ) );
#311 = DIRECTION ( 'NONE',  ( -0.0000000000000000000, -0.0000000000000000000, -1.000000000000000000 ) ) ;
#312 = FILL_AREA_STYLE_COLOUR ( '', #29 ) ;
#313 = ORIENTED_EDGE ( 'NONE', *, *, #294, .T. ) ;
#314 = AXIS2_PLACEMENT_3D ( 'NONE', #290, #171, #27 ) ;
#315 = VERTEX_POINT ( 'NONE', #103 ) ;
#316 = CARTESIAN_POINT ( 'NONE',  ( 0.1100000000000001948, 1.347111479062090784E-17, 2.500000000000000000 ) ) ;
#317 = CARTESIAN_POINT ( 'NONE',  ( 0.1250000000000000000, 1.530808498934191509E-17, 0.7499999999999998890 ) ) ;
#318 =( GEOMETRIC_REPRESENTATION_CONTEXT ( 3 ) GLOBAL_UNCERTAINTY_ASSIGNED_CONTEXT ( ( #228 ) ) GLOBAL_UNIT_ASSIGNED_CONTEXT ( ( #59, #10, #113 ) ) REPRESENTATION_CONTEXT ( 'NONE', 'WORKASPACE' ) );
#319 = AXIS2_PLACEMENT_3D ( 'NONE', #216, #167, #324 ) ;
#320 = FACE_OUTER_BOUND ( 'NONE', #158, .T. ) ;
#321 = CARTESIAN_POINT ( 'NONE',  ( -0.1250000000000000000, 0.0000000000000000000, 2.485000000000000320 ) ) ;
#322 = CARTESIAN_POINT ( 'NONE',  ( -0.1250000000000000000, 0.0000000000000000000, 2.500000000000000000 ) ) ;
#323 = DIRECTION ( 'NONE',  ( -1.000000000000000000, 0.0000000000000000000, 0.0000000000000000000 ) ) ;
#324 = DIRECTION ( 'NONE',  ( -1.000000000000000000, 0.0000000000000000000, 0.0000000000000000000 ) ) ;
#325 = CARTESIAN_POINT ( 'NONE',  ( -0.1250000000000000000, 0.0000000000000000000, 0.7499999999999998890 ) ) ;
#326 = ORIENTED_EDGE ( 'NONE', *, *, #240, .T. ) ;
#327 = EDGE_CURVE ( 'NONE', #22, #129, #37, .T. ) ;
#328 = EDGE_CURVE ( 'NONE', #149, #117, #65, .T. ) ;
#329 = ORIENTED_EDGE ( 'NONE', *, *, #71, .T. ) ;
ENDSEC;
END-ISO-10303-21;
