ISO-10303-21;
HEADER;
FILE_DESCRIPTION (( 'STEP AP214' ),
    '1' );
FILE_NAME ('Micro_DM-750-290.STEP',
    '2021-09-02T16:11:37',
    ( '' ),
    ( '' ),
    'SwSTEP 2.0',
    'SolidWorks 2020',
    '' );
FILE_SCHEMA (( 'AUTOMOTIVE_DESIGN' ));
ENDSEC;

DATA;
#1 = ORIENTED_EDGE ( 'NONE', *, *, #286, .T. ) ;
#2 = UNCERTAINTY_MEASURE_WITH_UNIT (LENGTH_MEASURE( 1.000000000000000082E-05 ), #7, 'distance_accuracy_value', 'NONE');
#3 = EDGE_LOOP ( 'NONE', ( #101, #49, #308, #126 ) ) ;
#4 = ORIENTED_EDGE ( 'NONE', *, *, #184, .T. ) ;
#5 = ADVANCED_FACE ( 'NONE', ( #211 ), #32, .T. ) ;
#6 = CIRCLE ( 'NONE', #156, 0.3750000000000000555 ) ;
#7 =( CONVERSION_BASED_UNIT ( 'INCH', #107 ) LENGTH_UNIT ( ) NAMED_UNIT ( #133 ) );
#8 = EDGE_CURVE ( 'NONE', #232, #132, #236, .T. ) ;
#9 = FILL_AREA_STYLE ('',( #80 ) ) ;
#10 = UNCERTAINTY_MEASURE_WITH_UNIT (LENGTH_MEASURE( 1.000000000000000082E-05 ), #28, 'distance_accuracy_value', 'NONE');
#11 = DIRECTION ( 'NONE',  ( -0.0000000000000000000, -0.0000000000000000000, -1.000000000000000000 ) ) ;
#12 = DIRECTION ( 'NONE',  ( -0.0000000000000000000, -0.0000000000000000000, -1.000000000000000000 ) ) ;
#13 = DIRECTION ( 'NONE',  ( 0.7071067811865426878, 8.659560562354873694E-17, -0.7071067811865523467 ) ) ;
#14 = CARTESIAN_POINT ( 'NONE',  ( 0.0000000000000000000, 0.0000000000000000000, 4.000000000000000000 ) ) ;
#15 = CARTESIAN_POINT ( 'NONE',  ( 0.3750000000000000555, 4.592425496802575451E-17, 3.984999999999998987 ) ) ;
#16 = DIRECTION ( 'NONE',  ( -0.0000000000000000000, -0.0000000000000000000, -1.000000000000000000 ) ) ;
#17 = FACE_OUTER_BOUND ( 'NONE', #105, .T. ) ;
#18 = CARTESIAN_POINT ( 'NONE',  ( 0.0000000000000000000, 0.0000000000000000000, 1.499999999999999778 ) ) ;
#19 = APPLICATION_CONTEXT ( 'automotive_design' ) ;
#20 = FACE_OUTER_BOUND ( 'NONE', #227, .T. ) ;
#21 = DIRECTION ( 'NONE',  ( 0.0000000000000000000, 0.0000000000000000000, 1.000000000000000000 ) ) ;
#22 = PRESENTATION_LAYER_ASSIGNMENT (  '', '', ( #278 ) ) ;
#23 = DIRECTION ( 'NONE',  ( 0.7071067811865489050, 0.0000000000000000000, 0.7071067811865461294 ) ) ;
#24 =( LENGTH_UNIT ( ) NAMED_UNIT ( * ) SI_UNIT ( $, .METRE. ) );
#25 = ORIENTED_EDGE ( 'NONE', *, *, #188, .T. ) ;
#26 = AXIS2_PLACEMENT_3D ( 'NONE', #189, #111, #163 ) ;
#27 = ORIENTED_EDGE ( 'NONE', *, *, #150, .F. ) ;
#28 =( CONVERSION_BASED_UNIT ( 'INCH', #255 ) LENGTH_UNIT ( ) NAMED_UNIT ( #115 ) );
#29 = ORIENTED_EDGE ( 'NONE', *, *, #8, .F. ) ;
#30 = VECTOR ( 'NONE', #13, 39.37007874015748143 ) ;
#31 =( LENGTH_UNIT ( ) NAMED_UNIT ( * ) SI_UNIT ( $, .METRE. ) );
#32 = CYLINDRICAL_SURFACE ( 'NONE', #125, 0.3749500000000001165 ) ;
#33 = AXIS2_PLACEMENT_3D ( 'NONE', #292, #240, #295 ) ;
#34 = DIRECTION ( 'NONE',  ( -0.7071067811865426878, 0.0000000000000000000, -0.7071067811865523467 ) ) ;
#35 = EDGE_CURVE ( 'NONE', #281, #78, #143, .T. ) ;
#36 = CARTESIAN_POINT ( 'NONE',  ( 0.3599999999999994316, 4.408728476930464865E-17, 4.000000000000000000 ) ) ;
#37 = DIRECTION ( 'NONE',  ( 1.000000000000000000, 0.0000000000000000000, 0.0000000000000000000 ) ) ;
#38 = PLANE ( 'NONE',  #108 ) ;
#39 = DIRECTION ( 'NONE',  ( 1.000000000000000000, 0.0000000000000000000, 0.0000000000000000000 ) ) ;
#40 = FACE_OUTER_BOUND ( 'NONE', #263, .T. ) ;
#41 = FACE_OUTER_BOUND ( 'NONE', #252, .T. ) ;
#42 = PRODUCT ( 'Micro_DM-750-290', 'Micro_DM-750-290', '', ( #231 ) ) ;
#43 = DIRECTION ( 'NONE',  ( -1.000000000000000000, 0.0000000000000000000, 0.0000000000000000000 ) ) ;
#44 = DIRECTION ( 'NONE',  ( -1.000000000000000000, 0.0000000000000000000, 0.0000000000000000000 ) ) ;
#45 = DIRECTION ( 'NONE',  ( -0.7071067811865489050, 8.659560562354950115E-17, 0.7071067811865461294 ) ) ;
#46 = AXIS2_PLACEMENT_3D ( 'NONE', #217, #16, #319 ) ;
#47 = MECHANICAL_DESIGN_GEOMETRIC_PRESENTATION_REPRESENTATION (  '', ( #60 ), #254 ) ;
#48 = VERTEX_POINT ( 'NONE', #315 ) ;
#49 = ORIENTED_EDGE ( 'NONE', *, *, #259, .T. ) ;
#50 = FILL_AREA_STYLE_COLOUR ( '', #214 ) ;
#51 = ORIENTED_EDGE ( 'NONE', *, *, #134, .T. ) ;
#52 = AXIS2_PLACEMENT_3D ( 'NONE', #246, #86, #301 ) ;
#53 = VECTOR ( 'NONE', #324, 39.37007874015748143 ) ;
#54 = ORIENTED_EDGE ( 'NONE', *, *, #210, .F. ) ;
#55 = EDGE_LOOP ( 'NONE', ( #98, #289, #145, #303 ) ) ;
#56 =( NAMED_UNIT ( * ) SI_UNIT ( $, .STERADIAN. ) SOLID_ANGLE_UNIT ( ) );
#57 =( NAMED_UNIT ( * ) PLANE_ANGLE_UNIT ( ) SI_UNIT ( $, .RADIAN. ) );
#58 = CYLINDRICAL_SURFACE ( 'NONE', #313, 0.3749500000000001165 ) ;
#59 = AXIS2_PLACEMENT_3D ( 'NONE', #162, #121, #322 ) ;
#60 = STYLED_ITEM ( 'NONE', ( #72 ), #146 ) ;
#61 = CARTESIAN_POINT ( 'NONE',  ( 0.3749500000000001165, 4.591813173403002577E-17, 0.0000000000000000000 ) ) ;
#62 = MANIFOLD_SOLID_BREP ( 'Cut-Revolve4', #264 ) ;
#63 = DIRECTION ( 'NONE',  ( -0.0000000000000000000, -0.0000000000000000000, -1.000000000000000000 ) ) ;
#64 = CARTESIAN_POINT ( 'NONE',  ( 0.0000000000000000000, 0.0000000000000000000, 4.000000000000000000 ) ) ;
#65 = ADVANCED_FACE ( 'NONE', ( #223 ), #58, .T. ) ;
#66 = CARTESIAN_POINT ( 'NONE',  ( 0.3749500000000001720, 0.0000000000000000000, 1.500000000000000222 ) ) ;
#67 = CARTESIAN_POINT ( 'NONE',  ( -0.3750000000000000555, 0.0000000000000000000, 1.499999999999999778 ) ) ;
#68 = CIRCLE ( 'NONE', #129, 0.007499999999999999722 ) ;
#69 = DIRECTION ( 'NONE',  ( 0.0000000000000000000, 0.0000000000000000000, -1.000000000000000000 ) ) ;
#70 = PRESENTATION_LAYER_ASSIGNMENT (  '', '', ( #60 ) ) ;
#71 = CARTESIAN_POINT ( 'NONE',  ( 0.0000000000000000000, 0.0000000000000000000, 4.000000000000000000 ) ) ;
#72 = PRESENTATION_STYLE_ASSIGNMENT (( #300 ) ) ;
#73 = DIRECTION ( 'NONE',  ( -1.000000000000000000, 0.0000000000000000000, 0.0000000000000000000 ) ) ;
#74 = ADVANCED_FACE ( 'NONE', ( #194 ), #297, .T. ) ;
#75 =( NAMED_UNIT ( * ) PLANE_ANGLE_UNIT ( ) SI_UNIT ( $, .RADIAN. ) );
#76 = CONICAL_SURFACE ( 'NONE', #33, 0.3599999999999994316, 0.7853981633974415066 ) ;
#77 =( NAMED_UNIT ( * ) SI_UNIT ( $, .STERADIAN. ) SOLID_ANGLE_UNIT ( ) );
#78 = VERTEX_POINT ( 'NONE', #219 ) ;
#79 = DIRECTION ( 'NONE',  ( 1.000000000000000000, 0.0000000000000000000, 0.0000000000000000000 ) ) ;
#80 = FILL_AREA_STYLE_COLOUR ( '', #130 ) ;
#81 = ORIENTED_EDGE ( 'NONE', *, *, #160, .T. ) ;
#82 = ORIENTED_EDGE ( 'NONE', *, *, #282, .F. ) ;
#83 = PRODUCT_DEFINITION_SHAPE ( 'NONE', 'NONE',  #127 ) ;
#84 = VECTOR ( 'NONE', #12, 39.37007874015748143 ) ;
#85 = DIRECTION ( 'NONE',  ( -1.000000000000000000, 0.0000000000000000000, 0.0000000000000000000 ) ) ;
#86 = DIRECTION ( 'NONE',  ( -0.0000000000000000000, -0.0000000000000000000, -1.000000000000000000 ) ) ;
#87 = CARTESIAN_POINT ( 'NONE',  ( -0.3749500000000001165, 0.0000000000000000000, 0.0000000000000000000 ) ) ;
#88 = DIRECTION ( 'NONE',  ( -0.0000000000000000000, -0.0000000000000000000, -1.000000000000000000 ) ) ;
#89 = FACE_OUTER_BOUND ( 'NONE', #310, .T. ) ;
#90 = DIRECTION ( 'NONE',  ( -1.000000000000000000, 0.0000000000000000000, 0.0000000000000000000 ) ) ;
#91 = CIRCLE ( 'NONE', #46, 0.007499999999999999722 ) ;
#92 = AXIS2_PLACEMENT_3D ( 'NONE', #273, #245, #222 ) ;
#93 = DIRECTION ( 'NONE',  ( 0.0000000000000000000, 0.0000000000000000000, 1.000000000000000000 ) ) ;
#94 = LINE ( 'NONE', #199, #323 ) ;
#95 = EDGE_CURVE ( 'NONE', #202, #173, #177, .T. ) ;
#96 =( NAMED_UNIT ( * ) SI_UNIT ( $, .STERADIAN. ) SOLID_ANGLE_UNIT ( ) );
#97 = VERTEX_POINT ( 'NONE', #299 ) ;
#98 = ORIENTED_EDGE ( 'NONE', *, *, #286, .F. ) ;
#99 = AXIS2_PLACEMENT_3D ( 'NONE', #66, #138, #193 ) ;
#100 = FILL_AREA_STYLE ('',( #50 ) ) ;
#101 = ORIENTED_EDGE ( 'NONE', *, *, #200, .T. ) ;
#102 = DIRECTION ( 'NONE',  ( 0.0000000000000000000, 0.0000000000000000000, 1.000000000000000000 ) ) ;
#103 = ORIENTED_EDGE ( 'NONE', *, *, #35, .F. ) ;
#104 =( GEOMETRIC_REPRESENTATION_CONTEXT ( 3 ) GLOBAL_UNCERTAINTY_ASSIGNED_CONTEXT ( ( #2 ) ) GLOBAL_UNIT_ASSIGNED_CONTEXT ( ( #7, #57, #56 ) ) REPRESENTATION_CONTEXT ( 'NONE', 'WORKASPACE' ) );
#105 = EDGE_LOOP ( 'NONE', ( #155, #25 ) ) ;
#106 = ADVANCED_FACE ( 'NONE', ( #41 ), #165, .T. ) ;
#107 = LENGTH_MEASURE_WITH_UNIT ( LENGTH_MEASURE( 0.02539999999999999897 ), #31 );
#108 = AXIS2_PLACEMENT_3D ( 'NONE', #113, #21, #142 ) ;
#109 = CARTESIAN_POINT ( 'NONE',  ( -0.3750000000000000555, 0.0000000000000000000, 4.000000000000000000 ) ) ;
#110 = ORIENTED_EDGE ( 'NONE', *, *, #188, .F. ) ;
#111 = DIRECTION ( 'NONE',  ( 0.0000000000000000000, 0.0000000000000000000, 1.000000000000000000 ) ) ;
#112 = ADVANCED_FACE ( 'NONE', ( #270 ), #192, .T. ) ;
#113 = CARTESIAN_POINT ( 'NONE',  ( 0.0000000000000000000, 0.0000000000000000000, 4.000000000000000000 ) ) ;
#114 = CARTESIAN_POINT ( 'NONE',  ( 0.0000000000000000000, 0.0000000000000000000, 3.984999999999998987 ) ) ;
#115 = DIMENSIONAL_EXPONENTS ( 1.000000000000000000, 0.0000000000000000000, 0.0000000000000000000, 0.0000000000000000000, 0.0000000000000000000, 0.0000000000000000000, 0.0000000000000000000 ) ;
#116 = CARTESIAN_POINT ( 'NONE',  ( 0.0000000000000000000, 0.0000000000000000000, 3.984999999999998987 ) ) ;
#117 = CARTESIAN_POINT ( 'NONE',  ( 0.007499999999999999722, 0.0000000000000000000, 1.707404996040164512E-17 ) ) ;
#118 = DIRECTION ( 'NONE',  ( -0.0000000000000000000, -0.0000000000000000000, -1.000000000000000000 ) ) ;
#119 = CARTESIAN_POINT ( 'NONE',  ( 0.007499999999999999722, 0.0000000000000000000, 1.707404996040164512E-17 ) ) ;
#120 = CIRCLE ( 'NONE', #272, 0.3749500000000001720 ) ;
#121 = DIRECTION ( 'NONE',  ( 0.0000000000000000000, 0.0000000000000000000, 1.000000000000000000 ) ) ;
#122 = CARTESIAN_POINT ( 'NONE',  ( 0.0000000000000000000, 0.0000000000000000000, 1.500000000000000222 ) ) ;
#123 =( NAMED_UNIT ( * ) PLANE_ANGLE_UNIT ( ) SI_UNIT ( $, .RADIAN. ) );
#124 = ORIENTED_EDGE ( 'NONE', *, *, #95, .T. ) ;
#125 = AXIS2_PLACEMENT_3D ( 'NONE', #159, #11, #180 ) ;
#126 = ORIENTED_EDGE ( 'NONE', *, *, #305, .F. ) ;
#127 = PRODUCT_DEFINITION ( 'UNKNOWN', '', #131, #174 ) ;
#128 = VERTEX_POINT ( 'NONE', #119 ) ;
#129 = AXIS2_PLACEMENT_3D ( 'NONE', #225, #140, #85 ) ;
#130 = COLOUR_RGB ( '',0.7921568627450980005, 0.8196078431372548767, 0.9333333333333333481 ) ;
#131 = PRODUCT_DEFINITION_FORMATION_WITH_SPECIFIED_SOURCE ( 'ANY', '', #42, .NOT_KNOWN. ) ;
#132 = VERTEX_POINT ( 'NONE', #67 ) ;
#133 = DIMENSIONAL_EXPONENTS ( 1.000000000000000000, 0.0000000000000000000, 0.0000000000000000000, 0.0000000000000000000, 0.0000000000000000000, 0.0000000000000000000, 0.0000000000000000000 ) ;
#134 = EDGE_CURVE ( 'NONE', #260, #306, #204, .T. ) ;
#135 = LINE ( 'NONE', #298, #53 ) ;
#136 = CARTESIAN_POINT ( 'NONE',  ( 0.3749500000000001720, 4.591813173403003194E-17, 1.500000000000000222 ) ) ;
#137 = CIRCLE ( 'NONE', #92, 0.3750000000000000555 ) ;
#138 = DIRECTION ( 'NONE',  ( -0.0000000000000000000, 0.0000000000000000000, -1.000000000000000000 ) ) ;
#139 = DIRECTION ( 'NONE',  ( 0.0000000000000000000, 0.0000000000000000000, 1.000000000000000000 ) ) ;
#140 = DIRECTION ( 'NONE',  ( -0.0000000000000000000, -0.0000000000000000000, -1.000000000000000000 ) ) ;
#141 = CARTESIAN_POINT ( 'NONE',  ( 0.0000000000000000000, 0.0000000000000000000, 0.0000000000000000000 ) ) ;
#142 = DIRECTION ( 'NONE',  ( 1.000000000000000000, 0.0000000000000000000, -0.0000000000000000000 ) ) ;
#143 = CIRCLE ( 'NONE', #249, 0.3599999999999994316 ) ;
#144 = LINE ( 'NONE', #117, #213 ) ;
#145 = ORIENTED_EDGE ( 'NONE', *, *, #8, .T. ) ;
#146 = ADVANCED_BREP_SHAPE_REPRESENTATION ( 'Micro_DM-750-290', ( #62, #183 ), #166 ) ;
#147 = UNCERTAINTY_MEASURE_WITH_UNIT (LENGTH_MEASURE( 1.000000000000000082E-05 ), #206, 'distance_accuracy_value', 'NONE');
#148 = ORIENTED_EDGE ( 'NONE', *, *, #259, .F. ) ;
#149 = VECTOR ( 'NONE', #34, 39.37007874015748143 ) ;
#150 = EDGE_CURVE ( 'NONE', #306, #260, #182, .T. ) ;
#151 = DIRECTION ( 'NONE',  ( 1.000000000000000000, 0.0000000000000000000, 0.0000000000000000000 ) ) ;
#152 = ORIENTED_EDGE ( 'NONE', *, *, #153, .F. ) ;
#153 = EDGE_CURVE ( 'NONE', #132, #48, #6, .T. ) ;
#154 = AXIS2_PLACEMENT_3D ( 'NONE', #265, #118, #168 ) ;
#155 = ORIENTED_EDGE ( 'NONE', *, *, #220, .T. ) ;
#156 = AXIS2_PLACEMENT_3D ( 'NONE', #18, #293, #248 ) ;
#157 = EDGE_CURVE ( 'NONE', #232, #230, #224, .T. ) ;
#158 = DIRECTION ( 'NONE',  ( -1.000000000000000000, 0.0000000000000000000, 0.0000000000000000000 ) ) ;
#159 = CARTESIAN_POINT ( 'NONE',  ( 0.0000000000000000000, 0.0000000000000000000, 0.0000000000000000000 ) ) ;
#160 = EDGE_CURVE ( 'NONE', #78, #281, #283, .T. ) ;
#161 = CARTESIAN_POINT ( 'NONE',  ( 0.3599999999999994316, 4.500576986866520466E-17, 4.000000000000000000 ) ) ;
#162 = CARTESIAN_POINT ( 'NONE',  ( 0.0000000000000000000, 0.0000000000000000000, 1.707404996040164512E-17 ) ) ;
#163 = DIRECTION ( 'NONE',  ( 1.000000000000000000, 0.0000000000000000000, -0.0000000000000000000 ) ) ;
#164 = CARTESIAN_POINT ( 'NONE',  ( 0.0000000000000000000, 0.0000000000000000000, 1.707404996040164512E-17 ) ) ;
#165 = CONICAL_SURFACE ( 'NONE', #187, 0.007499999999999999722, 0.7853981633974502774 ) ;
#166 =( GEOMETRIC_REPRESENTATION_CONTEXT ( 3 ) GLOBAL_UNCERTAINTY_ASSIGNED_CONTEXT ( ( #147 ) ) GLOBAL_UNIT_ASSIGNED_CONTEXT ( ( #206, #75, #96 ) ) REPRESENTATION_CONTEXT ( 'NONE', 'WORKASPACE' ) );
#167 = PLANE ( 'NONE',  #26 ) ;
#168 = DIRECTION ( 'NONE',  ( -1.000000000000000000, 0.0000000000000000000, 0.0000000000000000000 ) ) ;
#169 = DIRECTION ( 'NONE',  ( -1.000000000000000000, 0.0000000000000000000, 0.0000000000000000000 ) ) ;
#170 = SURFACE_STYLE_FILL_AREA ( #100 ) ;
#171 = DIRECTION ( 'NONE',  ( -0.0000000000000000000, -0.0000000000000000000, -1.000000000000000000 ) ) ;
#172 = MECHANICAL_DESIGN_GEOMETRIC_PRESENTATION_REPRESENTATION (  '', ( #278 ), #104 ) ;
#173 = VERTEX_POINT ( 'NONE', #277 ) ;
#174 = PRODUCT_DEFINITION_CONTEXT ( 'detailed design', #267, 'design' ) ;
#175 = SURFACE_SIDE_STYLE ('',( #170 ) ) ;
#176 = ORIENTED_EDGE ( 'NONE', *, *, #157, .T. ) ;
#177 = CIRCLE ( 'NONE', #195, 0.3749500000000001720 ) ;
#178 = ORIENTED_EDGE ( 'NONE', *, *, #203, .F. ) ;
#179 = ORIENTED_EDGE ( 'NONE', *, *, #150, .T. ) ;
#180 = DIRECTION ( 'NONE',  ( -1.000000000000000000, 0.0000000000000000000, 0.0000000000000000000 ) ) ;
#181 = EDGE_CURVE ( 'NONE', #97, #260, #94, .T. ) ;
#182 = CIRCLE ( 'NONE', #328, 0.3749500000000000610 ) ;
#183 = AXIS2_PLACEMENT_3D ( 'NONE', #326, #102, #151 ) ;
#184 = EDGE_CURVE ( 'NONE', #128, #306, #144, .T. ) ;
#185 = CARTESIAN_POINT ( 'NONE',  ( -0.3599999999999994316, 0.0000000000000000000, 4.000000000000000000 ) ) ;
#186 = SURFACE_STYLE_USAGE ( .BOTH. , #215 ) ;
#187 = AXIS2_PLACEMENT_3D ( 'NONE', #164, #93, #39 ) ;
#188 = EDGE_CURVE ( 'NONE', #97, #128, #91, .T. ) ;
#189 = CARTESIAN_POINT ( 'NONE',  ( 0.0000000000000000000, 0.0000000000000000000, 0.0000000000000000000 ) ) ;
#190 = CARTESIAN_POINT ( 'NONE',  ( 0.0000000000000000000, 0.0000000000000000000, 0.3674499999999986111 ) ) ;
#191 = FACE_BOUND ( 'NONE', #209, .T. ) ;
#192 = CYLINDRICAL_SURFACE ( 'NONE', #52, 0.3750000000000000555 ) ;
#193 = DIRECTION ( 'NONE',  ( -1.000000000000000000, 0.0000000000000000000, 0.0000000000000000000 ) ) ;
#194 = FACE_OUTER_BOUND ( 'NONE', #208, .T. ) ;
#195 = AXIS2_PLACEMENT_3D ( 'NONE', #296, #274, #90 ) ;
#196 = AXIS2_PLACEMENT_3D ( 'NONE', #244, #198, #73 ) ;
#197 = LINE ( 'NONE', #61, #253 ) ;
#198 = DIRECTION ( 'NONE',  ( -0.0000000000000000000, -0.0000000000000000000, -1.000000000000000000 ) ) ;
#199 = CARTESIAN_POINT ( 'NONE',  ( -0.007499999999999999722, 9.184850993605147975E-19, 1.707404996040164512E-17 ) ) ;
#200 = EDGE_CURVE ( 'NONE', #173, #202, #120, .T. ) ;
#201 = APPLICATION_PROTOCOL_DEFINITION ( 'draft international standard', 'automotive_design', 1998, #19 ) ;
#202 = VERTEX_POINT ( 'NONE', #136 ) ;
#203 = EDGE_CURVE ( 'NONE', #281, #230, #275, .T. ) ;
#204 = CIRCLE ( 'NONE', #196, 0.3749500000000000610 ) ;
#205 = ORIENTED_EDGE ( 'NONE', *, *, #181, .T. ) ;
#206 =( CONVERSION_BASED_UNIT ( 'INCH', #250 ) LENGTH_UNIT ( ) NAMED_UNIT ( #239 ) );
#207 = ORIENTED_EDGE ( 'NONE', *, *, #184, .F. ) ;
#208 = EDGE_LOOP ( 'NONE', ( #280, #212, #4, #179 ) ) ;
#209 = EDGE_LOOP ( 'NONE', ( #285, #307 ) ) ;
#210 = EDGE_CURVE ( 'NONE', #230, #232, #309, .T. ) ;
#211 = FACE_OUTER_BOUND ( 'NONE', #3, .T. ) ;
#212 = ORIENTED_EDGE ( 'NONE', *, *, #220, .F. ) ;
#213 = VECTOR ( 'NONE', #23, 39.37007874015748143 ) ;
#214 = COLOUR_RGB ( '',0.7921568627450980005, 0.8196078431372548767, 0.9333333333333333481 ) ;
#215 = SURFACE_SIDE_STYLE ('',( #291 ) ) ;
#216 = DIRECTION ( 'NONE',  ( 0.0000000000000000000, 0.0000000000000000000, -1.000000000000000000 ) ) ;
#217 = CARTESIAN_POINT ( 'NONE',  ( 0.0000000000000000000, 0.0000000000000000000, 1.707404996040164512E-17 ) ) ;
#218 = CARTESIAN_POINT ( 'NONE',  ( 0.3749500000000000610, 0.0000000000000000000, 0.3674499999999986111 ) ) ;
#219 = CARTESIAN_POINT ( 'NONE',  ( -0.3599999999999994316, 0.0000000000000000000, 4.000000000000000000 ) ) ;
#220 = EDGE_CURVE ( 'NONE', #128, #97, #68, .T. ) ;
#221 = CARTESIAN_POINT ( 'NONE',  ( -0.3749500000000000610, 4.591813173403001961E-17, 0.3674499999999986111 ) ) ;
#222 = DIRECTION ( 'NONE',  ( -1.000000000000000000, 0.0000000000000000000, 0.0000000000000000000 ) ) ;
#223 = FACE_OUTER_BOUND ( 'NONE', #284, .T. ) ;
#224 = CIRCLE ( 'NONE', #229, 0.3750000000000000555 ) ;
#225 = CARTESIAN_POINT ( 'NONE',  ( 0.0000000000000000000, 0.0000000000000000000, 1.707404996040164512E-17 ) ) ;
#226 = DIRECTION ( 'NONE',  ( 0.0000000000000000000, 0.0000000000000000000, -1.000000000000000000 ) ) ;
#227 = EDGE_LOOP ( 'NONE', ( #178, #266, #238, #54 ) ) ;
#228 = ADVANCED_FACE ( 'NONE', ( #20 ), #76, .T. ) ;
#229 = AXIS2_PLACEMENT_3D ( 'NONE', #114, #226, #325 ) ;
#230 = VERTEX_POINT ( 'NONE', #15 ) ;
#231 = PRODUCT_CONTEXT ( 'NONE', #19, 'mechanical' ) ;
#232 = VERTEX_POINT ( 'NONE', #290 ) ;
#233 = AXIS2_PLACEMENT_3D ( 'NONE', #116, #216, #317 ) ;
#234 = AXIS2_PLACEMENT_3D ( 'NONE', #71, #69, #43 ) ;
#235 = ORIENTED_EDGE ( 'NONE', *, *, #153, .T. ) ;
#236 = LINE ( 'NONE', #109, #84 ) ;
#237 = LINE ( 'NONE', #87, #304 ) ;
#238 = ORIENTED_EDGE ( 'NONE', *, *, #282, .T. ) ;
#239 = DIMENSIONAL_EXPONENTS ( 1.000000000000000000, 0.0000000000000000000, 0.0000000000000000000, 0.0000000000000000000, 0.0000000000000000000, 0.0000000000000000000, 0.0000000000000000000 ) ;
#240 = DIRECTION ( 'NONE',  ( 0.0000000000000000000, 0.0000000000000000000, -1.000000000000000000 ) ) ;
#241 = CONICAL_SURFACE ( 'NONE', #234, 0.3599999999999994316, 0.7853981633974415066 ) ;
#242 = ADVANCED_FACE ( 'NONE', ( #40 ), #241, .T. ) ;
#243 = FACE_OUTER_BOUND ( 'NONE', #55, .T. ) ;
#244 = CARTESIAN_POINT ( 'NONE',  ( 0.0000000000000000000, 0.0000000000000000000, 0.3674499999999986111 ) ) ;
#245 = DIRECTION ( 'NONE',  ( -0.0000000000000000000, -0.0000000000000000000, -1.000000000000000000 ) ) ;
#246 = CARTESIAN_POINT ( 'NONE',  ( 0.0000000000000000000, 0.0000000000000000000, 4.000000000000000000 ) ) ;
#247 =( LENGTH_UNIT ( ) NAMED_UNIT ( * ) SI_UNIT ( $, .METRE. ) );
#248 = DIRECTION ( 'NONE',  ( -1.000000000000000000, 0.0000000000000000000, 0.0000000000000000000 ) ) ;
#249 = AXIS2_PLACEMENT_3D ( 'NONE', #14, #311, #79 ) ;
#250 = LENGTH_MEASURE_WITH_UNIT ( LENGTH_MEASURE( 0.02539999999999999897 ), #247 );
#251 = ADVANCED_FACE ( 'NONE', ( #17 ), #167, .F. ) ;
#252 = EDGE_LOOP ( 'NONE', ( #110, #205, #51, #207 ) ) ;
#253 = VECTOR ( 'NONE', #63, 39.37007874015748143 ) ;
#254 =( GEOMETRIC_REPRESENTATION_CONTEXT ( 3 ) GLOBAL_UNCERTAINTY_ASSIGNED_CONTEXT ( ( #10 ) ) GLOBAL_UNIT_ASSIGNED_CONTEXT ( ( #28, #123, #77 ) ) REPRESENTATION_CONTEXT ( 'NONE', 'WORKASPACE' ) );
#255 = LENGTH_MEASURE_WITH_UNIT ( LENGTH_MEASURE( 0.02539999999999999897 ), #24 );
#256 = EDGE_LOOP ( 'NONE', ( #81, #261 ) ) ;
#257 = APPLICATION_PROTOCOL_DEFINITION ( 'draft international standard', 'automotive_design', 1998, #267 ) ;
#258 = ORIENTED_EDGE ( 'NONE', *, *, #203, .T. ) ;
#259 = EDGE_CURVE ( 'NONE', #202, #306, #197, .T. ) ;
#260 = VERTEX_POINT ( 'NONE', #221 ) ;
#261 = ORIENTED_EDGE ( 'NONE', *, *, #35, .T. ) ;
#262 = PRODUCT_RELATED_PRODUCT_CATEGORY ( 'part', '', ( #42 ) ) ;
#263 = EDGE_LOOP ( 'NONE', ( #103, #258, #329, #82 ) ) ;
#264 = CLOSED_SHELL ( 'NONE', ( #5, #106, #242, #112, #276, #268, #228, #312, #74, #65, #251 ) ) ;
#265 = CARTESIAN_POINT ( 'NONE',  ( 0.0000000000000000000, 0.0000000000000000000, 4.000000000000000000 ) ) ;
#266 = ORIENTED_EDGE ( 'NONE', *, *, #160, .F. ) ;
#267 = APPLICATION_CONTEXT ( 'automotive_design' ) ;
#268 = ADVANCED_FACE ( 'NONE', ( #271 ), #38, .T. ) ;
#269 = LINE ( 'NONE', #185, #149 ) ;
#270 = FACE_OUTER_BOUND ( 'NONE', #279, .T. ) ;
#271 = FACE_OUTER_BOUND ( 'NONE', #256, .T. ) ;
#272 = AXIS2_PLACEMENT_3D ( 'NONE', #122, #316, #158 ) ;
#273 = CARTESIAN_POINT ( 'NONE',  ( 0.0000000000000000000, 0.0000000000000000000, 1.499999999999999778 ) ) ;
#274 = DIRECTION ( 'NONE',  ( -0.0000000000000000000, -0.0000000000000000000, -1.000000000000000000 ) ) ;
#275 = LINE ( 'NONE', #36, #30 ) ;
#276 = ADVANCED_FACE ( 'NONE', ( #243 ), #318, .T. ) ;
#277 = CARTESIAN_POINT ( 'NONE',  ( -0.3749500000000001720, 0.0000000000000000000, 1.500000000000000222 ) ) ;
#278 = STYLED_ITEM ( 'NONE', ( #287 ), #62 ) ;
#279 = EDGE_LOOP ( 'NONE', ( #176, #1, #152, #29 ) ) ;
#280 = ORIENTED_EDGE ( 'NONE', *, *, #181, .F. ) ;
#281 = VERTEX_POINT ( 'NONE', #161 ) ;
#282 = EDGE_CURVE ( 'NONE', #78, #232, #269, .T. ) ;
#283 = CIRCLE ( 'NONE', #288, 0.3599999999999994316 ) ;
#284 = EDGE_LOOP ( 'NONE', ( #148, #124, #327, #27 ) ) ;
#285 = ORIENTED_EDGE ( 'NONE', *, *, #200, .F. ) ;
#286 = EDGE_CURVE ( 'NONE', #230, #48, #135, .T. ) ;
#287 = PRESENTATION_STYLE_ASSIGNMENT (( #186 ) ) ;
#288 = AXIS2_PLACEMENT_3D ( 'NONE', #64, #139, #37 ) ;
#289 = ORIENTED_EDGE ( 'NONE', *, *, #210, .T. ) ;
#290 = CARTESIAN_POINT ( 'NONE',  ( -0.3750000000000000555, 0.0000000000000000000, 3.984999999999998987 ) ) ;
#291 = SURFACE_STYLE_FILL_AREA ( #9 ) ;
#292 = CARTESIAN_POINT ( 'NONE',  ( 0.0000000000000000000, 0.0000000000000000000, 4.000000000000000000 ) ) ;
#293 = DIRECTION ( 'NONE',  ( -0.0000000000000000000, -0.0000000000000000000, -1.000000000000000000 ) ) ;
#294 = PLANE ( 'NONE',  #99 ) ;
#295 = DIRECTION ( 'NONE',  ( -1.000000000000000000, 0.0000000000000000000, 0.0000000000000000000 ) ) ;
#296 = CARTESIAN_POINT ( 'NONE',  ( 0.0000000000000000000, 0.0000000000000000000, 1.500000000000000222 ) ) ;
#297 = CONICAL_SURFACE ( 'NONE', #59, 0.007499999999999999722, 0.7853981633974502774 ) ;
#298 = CARTESIAN_POINT ( 'NONE',  ( 0.3750000000000000555, 4.592425496802575451E-17, 4.000000000000000000 ) ) ;
#299 = CARTESIAN_POINT ( 'NONE',  ( -0.007499999999999999722, 2.341830841669527240E-17, 1.707404996040164512E-17 ) ) ;
#300 = SURFACE_STYLE_USAGE ( .BOTH. , #175 ) ;
#301 = DIRECTION ( 'NONE',  ( -1.000000000000000000, 0.0000000000000000000, 0.0000000000000000000 ) ) ;
#302 = SHAPE_DEFINITION_REPRESENTATION ( #83, #146 ) ;
#303 = ORIENTED_EDGE ( 'NONE', *, *, #320, .F. ) ;
#304 = VECTOR ( 'NONE', #321, 39.37007874015748143 ) ;
#305 = EDGE_CURVE ( 'NONE', #173, #260, #237, .T. ) ;
#306 = VERTEX_POINT ( 'NONE', #218 ) ;
#307 = ORIENTED_EDGE ( 'NONE', *, *, #95, .F. ) ;
#308 = ORIENTED_EDGE ( 'NONE', *, *, #134, .F. ) ;
#309 = CIRCLE ( 'NONE', #233, 0.3750000000000000555 ) ;
#310 = EDGE_LOOP ( 'NONE', ( #235, #314 ) ) ;
#311 = DIRECTION ( 'NONE',  ( 0.0000000000000000000, 0.0000000000000000000, 1.000000000000000000 ) ) ;
#312 = ADVANCED_FACE ( 'NONE', ( #191, #89 ), #294, .T. ) ;
#313 = AXIS2_PLACEMENT_3D ( 'NONE', #141, #171, #169 ) ;
#314 = ORIENTED_EDGE ( 'NONE', *, *, #320, .T. ) ;
#315 = CARTESIAN_POINT ( 'NONE',  ( 0.3750000000000000555, 4.592425496802575451E-17, 1.499999999999999778 ) ) ;
#316 = DIRECTION ( 'NONE',  ( -0.0000000000000000000, -0.0000000000000000000, -1.000000000000000000 ) ) ;
#317 = DIRECTION ( 'NONE',  ( 1.000000000000000000, 0.0000000000000000000, 0.0000000000000000000 ) ) ;
#318 = CYLINDRICAL_SURFACE ( 'NONE', #154, 0.3750000000000000555 ) ;
#319 = DIRECTION ( 'NONE',  ( -1.000000000000000000, 0.0000000000000000000, 0.0000000000000000000 ) ) ;
#320 = EDGE_CURVE ( 'NONE', #48, #132, #137, .T. ) ;
#321 = DIRECTION ( 'NONE',  ( -0.0000000000000000000, -0.0000000000000000000, -1.000000000000000000 ) ) ;
#322 = DIRECTION ( 'NONE',  ( 1.000000000000000000, 0.0000000000000000000, 0.0000000000000000000 ) ) ;
#323 = VECTOR ( 'NONE', #45, 39.37007874015748143 ) ;
#324 = DIRECTION ( 'NONE',  ( -0.0000000000000000000, -0.0000000000000000000, -1.000000000000000000 ) ) ;
#325 = DIRECTION ( 'NONE',  ( 1.000000000000000000, 0.0000000000000000000, 0.0000000000000000000 ) ) ;
#326 = CARTESIAN_POINT ( 'NONE',  ( 0.0000000000000000000, 0.0000000000000000000, 0.0000000000000000000 ) ) ;
#327 = ORIENTED_EDGE ( 'NONE', *, *, #305, .T. ) ;
#328 = AXIS2_PLACEMENT_3D ( 'NONE', #190, #88, #44 ) ;
#329 = ORIENTED_EDGE ( 'NONE', *, *, #157, .F. ) ;
ENDSEC;
END-ISO-10303-21;
