ISO-10303-21;
HEADER;
FILE_DESCRIPTION (( 'STEP AP214' ),
    '1' );
FILE_NAME ('59448.STEP',
    '2023-06-30T22:18:59',
    ( '' ),
    ( '' ),
    'SwSTEP 2.0',
    'SolidWorks 2023',
    '' );
FILE_SCHEMA (( 'AUTOMOTIVE_DESIGN' ));
ENDSEC;

DATA;
#1 = AXIS2_PLACEMENT_3D ( 'NONE', #37, #226, #185 ) ;
#2 = FILL_AREA_STYLE ('',( #253 ) ) ;
#3 = STYLED_ITEM ( 'NONE', ( #214 ), #55 ) ;
#4 = ORIENTED_EDGE ( 'NONE', *, *, #189, .T. ) ;
#5 = CARTESIAN_POINT ( 'NONE',  ( -6.123233995736772199E-17, 3.000000000000000444, 0.000000000000000000 ) ) ;
#6 = STYLED_ITEM ( 'NONE', ( #115 ), #222 ) ;
#7 = CARTESIAN_POINT ( 'NONE',  ( -0.2500000000000000555, 3.000000000000000444, 0.000000000000000000 ) ) ;
#8 = MECHANICAL_DESIGN_GEOMETRIC_PRESENTATION_REPRESENTATION (  '', ( #57 ), #141 ) ;
#9 = DIRECTION ( 'NONE',  ( 0.000000000000000000, 1.000000000000000000, 0.000000000000000000 ) ) ;
#10 = DIRECTION ( 'NONE',  ( -1.000000000000000000, 0.000000000000000000, 0.000000000000000000 ) ) ;
#11 = CIRCLE ( 'NONE', #113, 0.2499999999999999722 ) ;
#12 = VECTOR ( 'NONE', #371, 39.37007874015748143 ) ;
#13 =( CONVERSION_BASED_UNIT ( 'INCH', #43 ) LENGTH_UNIT ( ) NAMED_UNIT ( #372 ) );
#14 = ORIENTED_EDGE ( 'NONE', *, *, #40, .T. ) ;
#15 =( NAMED_UNIT ( * ) PLANE_ANGLE_UNIT ( ) SI_UNIT ( $, .RADIAN. ) );
#16 = ORIENTED_EDGE ( 'NONE', *, *, #220, .F. ) ;
#17 = ORIENTED_EDGE ( 'NONE', *, *, #63, .F. ) ;
#18 = DIRECTION ( 'NONE',  ( 1.000000000000000000, 0.000000000000000000, 0.000000000000000000 ) ) ;
#19 = PRESENTATION_LAYER_ASSIGNMENT (  '', '', ( #268 ) ) ;
#20 = CARTESIAN_POINT ( 'NONE',  ( 0.000000000000000000, 0.000000000000000000, -0.2499999999999998890 ) ) ;
#21 = CARTESIAN_POINT ( 'NONE',  ( 0.2499999999999998890, 3.000000000000000444, 0.000000000000000000 ) ) ;
#22 = ORIENTED_EDGE ( 'NONE', *, *, #264, .T. ) ;
#23 = DIMENSIONAL_EXPONENTS ( 1.000000000000000000, 0.000000000000000000, 0.000000000000000000, 0.000000000000000000, 0.000000000000000000, 0.000000000000000000, 0.000000000000000000 ) ;
#24 =( CONVERSION_BASED_UNIT ( 'INCH', #318 ) LENGTH_UNIT ( ) NAMED_UNIT ( #286 ) );
#25 = LENGTH_MEASURE_WITH_UNIT ( LENGTH_MEASURE( 0.02539999999999999897 ), #159 );
#26 = CARTESIAN_POINT ( 'NONE',  ( 2.143131898507868297E-16, 1.250000000000000000, 0.000000000000000000 ) ) ;
#27 = COLOUR_RGB ( '',0.7921568627450980005, 0.8196078431372548767, 0.9333333333333333481 ) ;
#28 = CIRCLE ( 'NONE', #114, 0.2499999999999999722 ) ;
#29 = EDGE_LOOP ( 'NONE', ( #35, #152, #233, #278, #172 ) ) ;
#30 = ORIENTED_EDGE ( 'NONE', *, *, #143, .T. ) ;
#31 =( NAMED_UNIT ( * ) SI_UNIT ( $, .STERADIAN. ) SOLID_ANGLE_UNIT ( ) );
#32 = LINE ( 'NONE', #134, #12 ) ;
#33 = MECHANICAL_DESIGN_GEOMETRIC_PRESENTATION_REPRESENTATION (  '', ( #268 ), #109 ) ;
#34 = FILL_AREA_STYLE_COLOUR ( '', #331 ) ;
#35 = ORIENTED_EDGE ( 'NONE', *, *, #160, .T. ) ;
#36 =( CONVERSION_BASED_UNIT ( 'INCH', #256 ) LENGTH_UNIT ( ) NAMED_UNIT ( #23 ) );
#37 = CARTESIAN_POINT ( 'NONE',  ( -6.123233995736770966E-17, 3.000000000000000444, 0.000000000000000000 ) ) ;
#38 = FILL_AREA_STYLE ('',( #34 ) ) ;
#39 = PRODUCT_RELATED_PRODUCT_CATEGORY ( 'part', '', ( #68 ) ) ;
#40 = EDGE_CURVE ( 'NONE', #303, #296, #162, .T. ) ;
#41 = CYLINDRICAL_SURFACE ( 'NONE', #69, 0.2499999999999998057 ) ;
#42 = CIRCLE ( 'NONE', #183, 0.2500000000000000000 ) ;
#43 = LENGTH_MEASURE_WITH_UNIT ( LENGTH_MEASURE( 0.02539999999999999897 ), #302 );
#44 =( CONVERSION_BASED_UNIT ( 'INCH', #76 ) LENGTH_UNIT ( ) NAMED_UNIT ( #346 ) );
#45 = DIRECTION ( 'NONE',  ( -0.000000000000000000, -1.000000000000000000, -0.000000000000000000 ) ) ;
#46 = ORIENTED_EDGE ( 'NONE', *, *, #329, .F. ) ;
#47 = FACE_OUTER_BOUND ( 'NONE', #131, .T. ) ;
#48 = EDGE_CURVE ( 'NONE', #301, #66, #32, .T. ) ;
#49 = SURFACE_STYLE_FILL_AREA ( #51 ) ;
#50 = MECHANICAL_DESIGN_GEOMETRIC_PRESENTATION_REPRESENTATION (  '', ( #3 ), #261 ) ;
#51 = FILL_AREA_STYLE ('',( #54 ) ) ;
#52 = SURFACE_SIDE_STYLE ('',( #107 ) ) ;
#53 =( NAMED_UNIT ( * ) SI_UNIT ( $, .STERADIAN. ) SOLID_ANGLE_UNIT ( ) );
#54 = FILL_AREA_STYLE_COLOUR ( '', #200 ) ;
#55 = ADVANCED_FACE ( 'NONE', ( #280 ), #210, .T. ) ;
#56 = UNCERTAINTY_MEASURE_WITH_UNIT (LENGTH_MEASURE( 1.000000000000000082E-05 ), #13, 'distance_accuracy_value', 'NONE');
#57 = STYLED_ITEM ( 'NONE', ( #347 ), #101 ) ;
#58 = VERTEX_POINT ( 'NONE', #110 ) ;
#59 = FACE_OUTER_BOUND ( 'NONE', #29, .T. ) ;
#60 = FILL_AREA_STYLE ('',( #112 ) ) ;
#61 = FACE_OUTER_BOUND ( 'NONE', #292, .T. ) ;
#62 = CIRCLE ( 'NONE', #324, 0.2499999999999998335 ) ;
#63 = EDGE_CURVE ( 'NONE', #164, #58, #227, .T. ) ;
#64 = PRESENTATION_STYLE_ASSIGNMENT (( #93 ) ) ;
#65 = VERTEX_POINT ( 'NONE', #228 ) ;
#66 = VERTEX_POINT ( 'NONE', #7 ) ;
#67 = MECHANICAL_DESIGN_GEOMETRIC_PRESENTATION_REPRESENTATION (  '', ( #192 ), #244 ) ;
#68 = PRODUCT ( '59448', '59448', '', ( #305 ) ) ;
#69 = AXIS2_PLACEMENT_3D ( 'NONE', #288, #108, #10 ) ;
#70 = PLANE ( 'NONE',  #91 ) ;
#71 = PLANE ( 'NONE',  #260 ) ;
#72 = DIRECTION ( 'NONE',  ( -1.000000000000000000, 0.000000000000000000, 0.000000000000000000 ) ) ;
#73 = SURFACE_SIDE_STYLE ('',( #316 ) ) ;
#74 = COLOUR_RGB ( '',1.000000000000000000, 0.000000000000000000, 0.000000000000000000 ) ;
#75 = EDGE_LOOP ( 'NONE', ( #217, #363, #190, #120 ) ) ;
#76 = LENGTH_MEASURE_WITH_UNIT ( LENGTH_MEASURE( 0.02539999999999999897 ), #297 );
#77 = SURFACE_STYLE_USAGE ( .BOTH. , #52 ) ;
#78 = SURFACE_STYLE_FILL_AREA ( #274 ) ;
#79 = DIRECTION ( 'NONE',  ( -1.574545884618025728E-16, 1.000000000000000000, -0.000000000000000000 ) ) ;
#80 = VERTEX_POINT ( 'NONE', #90 ) ;
#81 = EDGE_CURVE ( 'NONE', #296, #208, #28, .T. ) ;
#82 = VERTEX_POINT ( 'NONE', #202 ) ;
#83 = ORIENTED_EDGE ( 'NONE', *, *, #148, .T. ) ;
#84 = CIRCLE ( 'NONE', #309, 0.2499999999999996114 ) ;
#85 = DIMENSIONAL_EXPONENTS ( 1.000000000000000000, 0.000000000000000000, 0.000000000000000000, 0.000000000000000000, 0.000000000000000000, 0.000000000000000000, 0.000000000000000000 ) ;
#86 = SURFACE_STYLE_USAGE ( .BOTH. , #73 ) ;
#87 =( NAMED_UNIT ( * ) PLANE_ANGLE_UNIT ( ) SI_UNIT ( $, .RADIAN. ) );
#88 = AXIS2_PLACEMENT_3D ( 'NONE', #179, #304, #336 ) ;
#89 =( LENGTH_UNIT ( ) NAMED_UNIT ( * ) SI_UNIT ( $, .METRE. ) );
#90 = CARTESIAN_POINT ( 'NONE',  ( 0.2499999999999998890, 3.000000000000000444, 3.061616997868381785E-17 ) ) ;
#91 = AXIS2_PLACEMENT_3D ( 'NONE', #26, #181, #146 ) ;
#92 = CARTESIAN_POINT ( 'NONE',  ( -0.2499999999999994171, 1.250000000000000000, 0.000000000000000000 ) ) ;
#93 = SURFACE_STYLE_USAGE ( .BOTH. , #352 ) ;
#94 = COLOUR_RGB ( '',1.000000000000000000, 0.000000000000000000, 0.000000000000000000 ) ;
#95 = DIRECTION ( 'NONE',  ( 0.000000000000000000, 0.000000000000000000, -1.000000000000000000 ) ) ;
#96 = CARTESIAN_POINT ( 'NONE',  ( -0.2500000000000000000, 0.2500000000000000000, 3.061616997868382402E-17 ) ) ;
#97 =( GEOMETRIC_REPRESENTATION_CONTEXT ( 3 ) GLOBAL_UNCERTAINTY_ASSIGNED_CONTEXT ( ( #182 ) ) GLOBAL_UNIT_ASSIGNED_CONTEXT ( ( #358, #334, #359 ) ) REPRESENTATION_CONTEXT ( 'NONE', 'WORKASPACE' ) );
#98 = CARTESIAN_POINT ( 'NONE',  ( 0.000000000000000000, 0.2500000000000000000, 0.000000000000000000 ) ) ;
#99 = ADVANCED_FACE ( 'NONE', ( #291 ), #41, .T. ) ;
#100 = CIRCLE ( 'NONE', #365, 0.2499999999999999722 ) ;
#101 = MANIFOLD_SOLID_BREP ( 'Revolve - Cutting Edge', #201 ) ;
#102 = CARTESIAN_POINT ( 'NONE',  ( -3.061616997868383018E-17, 0.2500000000000000000, 0.000000000000000000 ) ) ;
#103 = DIRECTION ( 'NONE',  ( 1.574545884618025728E-16, -1.000000000000000000, 0.000000000000000000 ) ) ;
#104 = DIRECTION ( 'NONE',  ( -1.574545884618025728E-16, 1.000000000000000000, -0.000000000000000000 ) ) ;
#105 = SURFACE_STYLE_USAGE ( .BOTH. , #344 ) ;
#106 = CIRCLE ( 'NONE', #155, 0.2499999999999998335 ) ;
#107 = SURFACE_STYLE_FILL_AREA ( #2 ) ;
#108 = DIRECTION ( 'NONE',  ( -1.574545884618025728E-16, 1.000000000000000000, -0.000000000000000000 ) ) ;
#109 =( GEOMETRIC_REPRESENTATION_CONTEXT ( 3 ) GLOBAL_UNCERTAINTY_ASSIGNED_CONTEXT ( ( #177 ) ) GLOBAL_UNIT_ASSIGNED_CONTEXT ( ( #24, #194, #31 ) ) REPRESENTATION_CONTEXT ( 'NONE', 'WORKASPACE' ) );
#110 = CARTESIAN_POINT ( 'NONE',  ( 3.061616997868382402E-17, 0.2500000000000000000, 0.2499999999999999722 ) ) ;
#111 = CARTESIAN_POINT ( 'NONE',  ( 0.000000000000000000, 1.250000000000000000, 0.000000000000000000 ) ) ;
#112 = FILL_AREA_STYLE_COLOUR ( '', #74 ) ;
#113 = AXIS2_PLACEMENT_3D ( 'NONE', #128, #213, #191 ) ;
#114 = AXIS2_PLACEMENT_3D ( 'NONE', #140, #166, #321 ) ;
#115 = PRESENTATION_STYLE_ASSIGNMENT (( #294 ) ) ;
#116 = EDGE_LOOP ( 'NONE', ( #355, #298 ) ) ;
#117 = ADVANCED_FACE ( 'NONE', ( #326 ), #199, .T. ) ;
#118 = ADVANCED_FACE ( 'NONE', ( #61 ), #313, .T. ) ;
#119 = PRESENTATION_STYLE_ASSIGNMENT (( #332 ) ) ;
#120 = ORIENTED_EDGE ( 'NONE', *, *, #148, .F. ) ;
#121 = CARTESIAN_POINT ( 'NONE',  ( 0.2499999999999997224, 3.000000000000000444, 3.061616997868380553E-17 ) ) ;
#122 = UNCERTAINTY_MEASURE_WITH_UNIT (LENGTH_MEASURE( 1.000000000000000082E-05 ), #368, 'distance_accuracy_value', 'NONE');
#123 = VECTOR ( 'NONE', #145, 39.37007874015748143 ) ;
#124 = CARTESIAN_POINT ( 'NONE',  ( -3.061616997868383018E-17, 0.2500000000000000000, 0.000000000000000000 ) ) ;
#125 = PRODUCT_DEFINITION_CONTEXT ( 'detailed design', #193, 'design' ) ;
#126 = FACE_OUTER_BOUND ( 'NONE', #247, .T. ) ;
#127 = ORIENTED_EDGE ( 'NONE', *, *, #216, .F. ) ;
#128 = CARTESIAN_POINT ( 'NONE',  ( 0.000000000000000000, 0.2500000000000000000, 0.000000000000000000 ) ) ;
#129 = CARTESIAN_POINT ( 'NONE',  ( 0.000000000000000000, 0.2500000000000000000, 0.000000000000000000 ) ) ;
#130 = COLOUR_RGB ( '',1.000000000000000000, 0.000000000000000000, 0.000000000000000000 ) ;
#131 = EDGE_LOOP ( 'NONE', ( #139, #16 ) ) ;
#132 = DIRECTION ( 'NONE',  ( -0.000000000000000000, -1.000000000000000000, -0.000000000000000000 ) ) ;
#133 = CARTESIAN_POINT ( 'NONE',  ( 0.000000000000000000, 0.000000000000000000, 0.000000000000000000 ) ) ;
#134 = CARTESIAN_POINT ( 'NONE',  ( -0.2499999999999998612, 3.000000000000000444, 0.000000000000000000 ) ) ;
#135 = MECHANICAL_DESIGN_GEOMETRIC_PRESENTATION_REPRESENTATION (  '', ( #6 ), #290 ) ;
#136 = ADVANCED_FACE ( 'NONE', ( #59 ), #248, .T. ) ;
#137 = ORIENTED_EDGE ( 'NONE', *, *, #232, .T. ) ;
#138 = PRODUCT_DEFINITION_SHAPE ( 'NONE', 'NONE',  #206 ) ;
#139 = ORIENTED_EDGE ( 'NONE', *, *, #232, .F. ) ;
#140 = CARTESIAN_POINT ( 'NONE',  ( 0.000000000000000000, 0.2500000000000000000, 0.000000000000000000 ) ) ;
#141 =( GEOMETRIC_REPRESENTATION_CONTEXT ( 3 ) GLOBAL_UNCERTAINTY_ASSIGNED_CONTEXT ( ( #287 ) ) GLOBAL_UNIT_ASSIGNED_CONTEXT ( ( #165, #87, #322 ) ) REPRESENTATION_CONTEXT ( 'NONE', 'WORKASPACE' ) );
#142 = SURFACE_STYLE_USAGE ( .BOTH. , #348 ) ;
#143 = EDGE_CURVE ( 'NONE', #58, #303, #11, .T. ) ;
#144 = CARTESIAN_POINT ( 'NONE',  ( -3.061616997868383018E-17, 0.2500000000000000000, 0.000000000000000000 ) ) ;
#145 = DIRECTION ( 'NONE',  ( -1.574545884618025728E-16, 1.000000000000000000, -0.000000000000000000 ) ) ;
#146 = DIRECTION ( 'NONE',  ( -1.000000000000000000, -1.574545884618025728E-16, 0.000000000000000000 ) ) ;
#147 = APPLICATION_PROTOCOL_DEFINITION ( 'draft international standard', 'automotive_design', 1998, #193 ) ;
#148 = EDGE_CURVE ( 'NONE', #80, #66, #100, .T. ) ;
#149 = AXIS2_PLACEMENT_3D ( 'NONE', #129, #219, #282 ) ;
#150 =( NAMED_UNIT ( * ) SI_UNIT ( $, .STERADIAN. ) SOLID_ANGLE_UNIT ( ) );
#151 = PRESENTATION_STYLE_ASSIGNMENT (( #77 ) ) ;
#152 = ORIENTED_EDGE ( 'NONE', *, *, #63, .T. ) ;
#153 = DIRECTION ( 'NONE',  ( -1.000000000000000000, 0.000000000000000000, 0.000000000000000000 ) ) ;
#154 = FILL_AREA_STYLE ('',( #267 ) ) ;
#155 = AXIS2_PLACEMENT_3D ( 'NONE', #279, #132, #273 ) ;
#156 = PRESENTATION_LAYER_ASSIGNMENT (  '', '', ( #57 ) ) ;
#157 = DIRECTION ( 'NONE',  ( 0.000000000000000000, 0.000000000000000000, -1.000000000000000000 ) ) ;
#158 = CYLINDRICAL_SURFACE ( 'NONE', #88, 0.2499999999999998890 ) ;
#159 =( LENGTH_UNIT ( ) NAMED_UNIT ( * ) SI_UNIT ( $, .METRE. ) );
#160 = EDGE_CURVE ( 'NONE', #82, #164, #106, .T. ) ;
#161 = STYLED_ITEM ( 'NONE', ( #119 ), #345 ) ;
#162 = CIRCLE ( 'NONE', #149, 0.2499999999999999722 ) ;
#163 = SHAPE_DEFINITION_REPRESENTATION ( #138, #167 ) ;
#164 = VERTEX_POINT ( 'NONE', #245 ) ;
#165 =( CONVERSION_BASED_UNIT ( 'INCH', #197 ) LENGTH_UNIT ( ) NAMED_UNIT ( #85 ) );
#166 = DIRECTION ( 'NONE',  ( -0.000000000000000000, -1.000000000000000000, -0.000000000000000000 ) ) ;
#167 = ADVANCED_BREP_SHAPE_REPRESENTATION ( '59448', ( #101, #222, #330 ), #184 ) ;
#168 = AXIS2_PLACEMENT_3D ( 'NONE', #5, #259, #255 ) ;
#169 = CARTESIAN_POINT ( 'NONE',  ( 3.061616997868381785E-17, 0.000000000000000000, 0.2499999999999998890 ) ) ;
#170 = CARTESIAN_POINT ( 'NONE',  ( 0.000000000000000000, 0.2500000000000000000, -0.2499999999999999722 ) ) ;
#171 = ADVANCED_FACE ( 'NONE', ( #250 ), #158, .T. ) ;
#172 = ORIENTED_EDGE ( 'NONE', *, *, #264, .F. ) ;
#173 = AXIS2_PLACEMENT_3D ( 'NONE', #144, #241, #72 ) ;
#174 = PRESENTATION_LAYER_ASSIGNMENT (  '', '', ( #161 ) ) ;
#175 = ORIENTED_EDGE ( 'NONE', *, *, #143, .F. ) ;
#176 =( NAMED_UNIT ( * ) PLANE_ANGLE_UNIT ( ) SI_UNIT ( $, .RADIAN. ) );
#177 = UNCERTAINTY_MEASURE_WITH_UNIT (LENGTH_MEASURE( 1.000000000000000082E-05 ), #24, 'distance_accuracy_value', 'NONE');
#178 = SURFACE_SIDE_STYLE ('',( #314 ) ) ;
#179 = CARTESIAN_POINT ( 'NONE',  ( 0.000000000000000000, 0.000000000000000000, 0.000000000000000000 ) ) ;
#180 = CARTESIAN_POINT ( 'NONE',  ( 0.000000000000000000, 0.000000000000000000, 0.000000000000000000 ) ) ;
#181 = DIRECTION ( 'NONE',  ( -1.574545884618025728E-16, 1.000000000000000000, 0.000000000000000000 ) ) ;
#182 = UNCERTAINTY_MEASURE_WITH_UNIT (LENGTH_MEASURE( 1.000000000000000082E-05 ), #358, 'distance_accuracy_value', 'NONE');
#183 = AXIS2_PLACEMENT_3D ( 'NONE', #102, #186, #308 ) ;
#184 =( GEOMETRIC_REPRESENTATION_CONTEXT ( 3 ) GLOBAL_UNCERTAINTY_ASSIGNED_CONTEXT ( ( #342 ) ) GLOBAL_UNIT_ASSIGNED_CONTEXT ( ( #44, #15, #150 ) ) REPRESENTATION_CONTEXT ( 'NONE', 'WORKASPACE' ) );
#185 = DIRECTION ( 'NONE',  ( -1.000000000000000000, 0.000000000000000000, 0.000000000000000000 ) ) ;
#186 = DIRECTION ( 'NONE',  ( 1.224646799147353207E-16, -0.000000000000000000, 1.000000000000000000 ) ) ;
#187 = ORIENTED_EDGE ( 'NONE', *, *, #81, .T. ) ;
#188 = FILL_AREA_STYLE_COLOUR ( '', #130 ) ;
#189 = EDGE_CURVE ( 'NONE', #208, #276, #235, .T. ) ;
#190 = ORIENTED_EDGE ( 'NONE', *, *, #48, .T. ) ;
#191 = DIRECTION ( 'NONE',  ( 0.000000000000000000, 0.000000000000000000, -1.000000000000000000 ) ) ;
#192 = STYLED_ITEM ( 'NONE', ( #151 ), #171 ) ;
#193 = APPLICATION_CONTEXT ( 'automotive_design' ) ;
#194 =( NAMED_UNIT ( * ) PLANE_ANGLE_UNIT ( ) SI_UNIT ( $, .RADIAN. ) );
#195 = APPLICATION_CONTEXT ( 'automotive_design' ) ;
#196 =( NAMED_UNIT ( * ) PLANE_ANGLE_UNIT ( ) SI_UNIT ( $, .RADIAN. ) );
#197 = LENGTH_MEASURE_WITH_UNIT ( LENGTH_MEASURE( 0.02539999999999999897 ), #89 );
#198 = ADVANCED_FACE ( 'NONE', ( #47 ), #70, .F. ) ;
#199 = CYLINDRICAL_SURFACE ( 'NONE', #168, 0.2499999999999998057 ) ;
#200 = COLOUR_RGB ( '',1.000000000000000000, 0.000000000000000000, 0.000000000000000000 ) ;
#201 = CLOSED_SHELL ( 'NONE', ( #345, #136, #55, #171, #118 ) ) ;
#202 = CARTESIAN_POINT ( 'NONE',  ( 0.000000000000000000, 1.250000000000000000, -0.2499999999999998335 ) ) ;
#203 = STYLED_ITEM ( 'NONE', ( #64 ), #118 ) ;
#204 = MECHANICAL_DESIGN_GEOMETRIC_PRESENTATION_REPRESENTATION (  '', ( #161 ), #97 ) ;
#205 = LENGTH_MEASURE_WITH_UNIT ( LENGTH_MEASURE( 0.02539999999999999897 ), #272 );
#206 = PRODUCT_DEFINITION ( 'UNKNOWN', '', #349, #125 ) ;
#207 = DIRECTION ( 'NONE',  ( 0.000000000000000000, 0.000000000000000000, 1.000000000000000000 ) ) ;
#208 = VERTEX_POINT ( 'NONE', #364 ) ;
#209 = AXIS2_PLACEMENT_3D ( 'NONE', #343, #339, #281 ) ;
#210 = PLANE ( 'NONE',  #350 ) ;
#211 = DIRECTION ( 'NONE',  ( 1.000000000000000000, 0.000000000000000000, 0.000000000000000000 ) ) ;
#212 = CARTESIAN_POINT ( 'NONE',  ( -6.123233995736770966E-17, 3.000000000000000444, 0.000000000000000000 ) ) ;
#213 = DIRECTION ( 'NONE',  ( -0.000000000000000000, -1.000000000000000000, -0.000000000000000000 ) ) ;
#214 = PRESENTATION_STYLE_ASSIGNMENT (( #105 ) ) ;
#215 = VECTOR ( 'NONE', #230, 39.37007874015748143 ) ;
#216 = EDGE_CURVE ( 'NONE', #303, #276, #42, .T. ) ;
#217 = ORIENTED_EDGE ( 'NONE', *, *, #238, .F. ) ;
#218 = FILL_AREA_STYLE ('',( #188 ) ) ;
#219 = DIRECTION ( 'NONE',  ( -0.000000000000000000, -1.000000000000000000, -0.000000000000000000 ) ) ;
#220 = EDGE_CURVE ( 'NONE', #65, #301, #84, .T. ) ;
#221 = DIRECTION ( 'NONE',  ( -0.000000000000000000, -1.000000000000000000, -0.000000000000000000 ) ) ;
#222 = MANIFOLD_SOLID_BREP ( 'Revolve - Tool Body (Straight Shanked)', #325 ) ;
#223 = DIRECTION ( 'NONE',  ( 0.000000000000000000, -0.000000000000000000, 1.000000000000000000 ) ) ;
#224 = ORIENTED_EDGE ( 'NONE', *, *, #299, .T. ) ;
#225 = PRESENTATION_LAYER_ASSIGNMENT (  '', '', ( #6 ) ) ;
#226 = DIRECTION ( 'NONE',  ( -1.574545884618025728E-16, 1.000000000000000000, -0.000000000000000000 ) ) ;
#227 = LINE ( 'NONE', #169, #285 ) ;
#228 = CARTESIAN_POINT ( 'NONE',  ( 0.2499999999999998612, 1.250000000000000000, 3.061616997868381169E-17 ) ) ;
#229 = SURFACE_STYLE_FILL_AREA ( #60 ) ;
#230 = DIRECTION ( 'NONE',  ( -0.000000000000000000, -1.000000000000000000, -0.000000000000000000 ) ) ;
#231 = CIRCLE ( 'NONE', #1, 0.2499999999999999722 ) ;
#232 = EDGE_CURVE ( 'NONE', #301, #65, #275, .T. ) ;
#233 = ORIENTED_EDGE ( 'NONE', *, *, #351, .F. ) ;
#234 = CARTESIAN_POINT ( 'NONE',  ( 2.143131898507868297E-16, 1.250000000000000000, 0.000000000000000000 ) ) ;
#235 = CIRCLE ( 'NONE', #173, 0.2500000000000000000 ) ;
#236 = AXIS2_PLACEMENT_3D ( 'NONE', #98, #45, #242 ) ;
#237 = APPLICATION_PROTOCOL_DEFINITION ( 'draft international standard', 'automotive_design', 1998, #195 ) ;
#238 = EDGE_CURVE ( 'NONE', #65, #80, #270, .T. ) ;
#239 = DIRECTION ( 'NONE',  ( -1.574545884618025728E-16, 1.000000000000000000, -0.000000000000000000 ) ) ;
#240 = UNCERTAINTY_MEASURE_WITH_UNIT (LENGTH_MEASURE( 1.000000000000000082E-05 ), #340, 'distance_accuracy_value', 'NONE');
#241 = DIRECTION ( 'NONE',  ( 0.000000000000000000, 0.000000000000000000, -1.000000000000000000 ) ) ;
#242 = DIRECTION ( 'NONE',  ( 0.000000000000000000, 0.000000000000000000, -1.000000000000000000 ) ) ;
#243 = ORIENTED_EDGE ( 'NONE', *, *, #238, .T. ) ;
#244 =( GEOMETRIC_REPRESENTATION_CONTEXT ( 3 ) GLOBAL_UNCERTAINTY_ASSIGNED_CONTEXT ( ( #122 ) ) GLOBAL_UNIT_ASSIGNED_CONTEXT ( ( #368, #354, #53 ) ) REPRESENTATION_CONTEXT ( 'NONE', 'WORKASPACE' ) );
#245 = CARTESIAN_POINT ( 'NONE',  ( 3.061616997868381785E-17, 1.250000000000000000, 0.2499999999999998335 ) ) ;
#246 = PRESENTATION_LAYER_ASSIGNMENT (  '', '', ( #3 ) ) ;
#247 = EDGE_LOOP ( 'NONE', ( #30, #307, #333, #254 ) ) ;
#248 = CYLINDRICAL_SURFACE ( 'NONE', #295, 0.2499999999999998890 ) ;
#249 = FILL_AREA_STYLE_COLOUR ( '', #94 ) ;
#250 = FACE_OUTER_BOUND ( 'NONE', #306, .T. ) ;
#251 =( NAMED_UNIT ( * ) SI_UNIT ( $, .STERADIAN. ) SOLID_ANGLE_UNIT ( ) );
#252 = DIMENSIONAL_EXPONENTS ( 1.000000000000000000, 0.000000000000000000, 0.000000000000000000, 0.000000000000000000, 0.000000000000000000, 0.000000000000000000, 0.000000000000000000 ) ;
#253 = FILL_AREA_STYLE_COLOUR ( '', #337 ) ;
#254 = ORIENTED_EDGE ( 'NONE', *, *, #351, .T. ) ;
#255 = DIRECTION ( 'NONE',  ( -1.000000000000000000, 0.000000000000000000, 0.000000000000000000 ) ) ;
#256 = LENGTH_MEASURE_WITH_UNIT ( LENGTH_MEASURE( 0.02539999999999999897 ), #320 );
#257 = PRESENTATION_LAYER_ASSIGNMENT (  '', '', ( #203 ) ) ;
#258 = SURFACE_STYLE_FILL_AREA ( #38 ) ;
#259 = DIRECTION ( 'NONE',  ( -1.574545884618025728E-16, 1.000000000000000000, -0.000000000000000000 ) ) ;
#260 = AXIS2_PLACEMENT_3D ( 'NONE', #21, #103, #356 ) ;
#261 =( GEOMETRIC_REPRESENTATION_CONTEXT ( 3 ) GLOBAL_UNCERTAINTY_ASSIGNED_CONTEXT ( ( #240 ) ) GLOBAL_UNIT_ASSIGNED_CONTEXT ( ( #340, #317, #251 ) ) REPRESENTATION_CONTEXT ( 'NONE', 'WORKASPACE' ) );
#262 = ORIENTED_EDGE ( 'NONE', *, *, #329, .T. ) ;
#263 =( NAMED_UNIT ( * ) SI_UNIT ( $, .STERADIAN. ) SOLID_ANGLE_UNIT ( ) );
#264 = EDGE_CURVE ( 'NONE', #82, #296, #293, .T. ) ;
#265 = EDGE_LOOP ( 'NONE', ( #262, #83 ) ) ;
#266 = ORIENTED_EDGE ( 'NONE', *, *, #48, .F. ) ;
#267 = FILL_AREA_STYLE_COLOUR ( '', #27 ) ;
#268 = STYLED_ITEM ( 'NONE', ( #370 ), #136 ) ;
#269 = DIRECTION ( 'NONE',  ( 0.000000000000000000, 0.000000000000000000, 1.000000000000000000 ) ) ;
#270 = LINE ( 'NONE', #121, #123 ) ;
#271 =( LENGTH_UNIT ( ) NAMED_UNIT ( * ) SI_UNIT ( $, .METRE. ) );
#272 =( LENGTH_UNIT ( ) NAMED_UNIT ( * ) SI_UNIT ( $, .METRE. ) );
#273 = DIRECTION ( 'NONE',  ( 0.000000000000000000, 0.000000000000000000, -1.000000000000000000 ) ) ;
#274 = FILL_AREA_STYLE ('',( #249 ) ) ;
#275 = CIRCLE ( 'NONE', #353, 0.2499999999999996114 ) ;
#276 = VERTEX_POINT ( 'NONE', #327 ) ;
#277 = DIRECTION ( 'NONE',  ( -0.000000000000000000, -1.000000000000000000, -0.000000000000000000 ) ) ;
#278 = ORIENTED_EDGE ( 'NONE', *, *, #81, .F. ) ;
#279 = CARTESIAN_POINT ( 'NONE',  ( 0.000000000000000000, 1.250000000000000000, 0.000000000000000000 ) ) ;
#280 = FACE_OUTER_BOUND ( 'NONE', #116, .T. ) ;
#281 = DIRECTION ( 'NONE',  ( 1.000000000000000000, 0.000000000000000000, 0.000000000000000000 ) ) ;
#282 = DIRECTION ( 'NONE',  ( 0.000000000000000000, 0.000000000000000000, -1.000000000000000000 ) ) ;
#283 = MECHANICAL_DESIGN_GEOMETRIC_PRESENTATION_REPRESENTATION (  '', ( #203 ), #315 ) ;
#284 = CIRCLE ( 'NONE', #236, 0.2499999999999999722 ) ;
#285 = VECTOR ( 'NONE', #221, 39.37007874015748143 ) ;
#286 = DIMENSIONAL_EXPONENTS ( 1.000000000000000000, 0.000000000000000000, 0.000000000000000000, 0.000000000000000000, 0.000000000000000000, 0.000000000000000000, 0.000000000000000000 ) ;
#287 = UNCERTAINTY_MEASURE_WITH_UNIT (LENGTH_MEASURE( 1.000000000000000082E-05 ), #165, 'distance_accuracy_value', 'NONE');
#288 = CARTESIAN_POINT ( 'NONE',  ( -6.123233995736772199E-17, 3.000000000000000444, 0.000000000000000000 ) ) ;
#289 = ORIENTED_EDGE ( 'NONE', *, *, #40, .F. ) ;
#290 =( GEOMETRIC_REPRESENTATION_CONTEXT ( 3 ) GLOBAL_UNCERTAINTY_ASSIGNED_CONTEXT ( ( #56 ) ) GLOBAL_UNIT_ASSIGNED_CONTEXT ( ( #13, #176, #263 ) ) REPRESENTATION_CONTEXT ( 'NONE', 'WORKASPACE' ) );
#291 = FACE_OUTER_BOUND ( 'NONE', #373, .T. ) ;
#292 = EDGE_LOOP ( 'NONE', ( #127, #14, #187, #4 ) ) ;
#293 = LINE ( 'NONE', #20, #215 ) ;
#294 = SURFACE_STYLE_USAGE ( .BOTH. , #178 ) ;
#295 = AXIS2_PLACEMENT_3D ( 'NONE', #133, #277, #157 ) ;
#296 = VERTEX_POINT ( 'NONE', #170 ) ;
#297 =( LENGTH_UNIT ( ) NAMED_UNIT ( * ) SI_UNIT ( $, .METRE. ) );
#298 = ORIENTED_EDGE ( 'NONE', *, *, #299, .F. ) ;
#299 = EDGE_CURVE ( 'NONE', #164, #82, #62, .T. ) ;
#300 = SURFACE_SIDE_STYLE ('',( #49 ) ) ;
#301 = VERTEX_POINT ( 'NONE', #92 ) ;
#302 =( LENGTH_UNIT ( ) NAMED_UNIT ( * ) SI_UNIT ( $, .METRE. ) );
#303 = VERTEX_POINT ( 'NONE', #96 ) ;
#304 = DIRECTION ( 'NONE',  ( -0.000000000000000000, -1.000000000000000000, -0.000000000000000000 ) ) ;
#305 = PRODUCT_CONTEXT ( 'NONE', #195, 'mechanical' ) ;
#306 = EDGE_LOOP ( 'NONE', ( #17, #224, #22, #289, #175 ) ) ;
#307 = ORIENTED_EDGE ( 'NONE', *, *, #216, .T. ) ;
#308 = DIRECTION ( 'NONE',  ( 1.000000000000000000, 0.000000000000000000, -1.224646799147353207E-16 ) ) ;
#309 = AXIS2_PLACEMENT_3D ( 'NONE', #338, #79, #312 ) ;
#310 = SPHERICAL_SURFACE ( 'NONE', #366, 0.2500000000000000000 ) ;
#311 = LENGTH_MEASURE_WITH_UNIT ( LENGTH_MEASURE( 0.02539999999999999897 ), #362 );
#312 = DIRECTION ( 'NONE',  ( -1.000000000000000000, 0.000000000000000000, 0.000000000000000000 ) ) ;
#313 = SPHERICAL_SURFACE ( 'NONE', #209, 0.2500000000000000000 ) ;
#314 = SURFACE_STYLE_FILL_AREA ( #154 ) ;
#315 =( GEOMETRIC_REPRESENTATION_CONTEXT ( 3 ) GLOBAL_UNCERTAINTY_ASSIGNED_CONTEXT ( ( #361 ) ) GLOBAL_UNIT_ASSIGNED_CONTEXT ( ( #36, #196, #360 ) ) REPRESENTATION_CONTEXT ( 'NONE', 'WORKASPACE' ) );
#316 = SURFACE_STYLE_FILL_AREA ( #218 ) ;
#317 =( NAMED_UNIT ( * ) PLANE_ANGLE_UNIT ( ) SI_UNIT ( $, .RADIAN. ) );
#318 = LENGTH_MEASURE_WITH_UNIT ( LENGTH_MEASURE( 0.02539999999999999897 ), #271 );
#319 = DIMENSIONAL_EXPONENTS ( 1.000000000000000000, 0.000000000000000000, 0.000000000000000000, 0.000000000000000000, 0.000000000000000000, 0.000000000000000000, 0.000000000000000000 ) ;
#320 =( LENGTH_UNIT ( ) NAMED_UNIT ( * ) SI_UNIT ( $, .METRE. ) );
#321 = DIRECTION ( 'NONE',  ( 0.000000000000000000, 0.000000000000000000, -1.000000000000000000 ) ) ;
#322 =( NAMED_UNIT ( * ) SI_UNIT ( $, .STERADIAN. ) SOLID_ANGLE_UNIT ( ) );
#323 = DIRECTION ( 'NONE',  ( -0.000000000000000000, -1.000000000000000000, -0.000000000000000000 ) ) ;
#324 = AXIS2_PLACEMENT_3D ( 'NONE', #328, #323, #95 ) ;
#325 = CLOSED_SHELL ( 'NONE', ( #99, #198, #117, #369 ) ) ;
#326 = FACE_OUTER_BOUND ( 'NONE', #75, .T. ) ;
#327 = CARTESIAN_POINT ( 'NONE',  ( -1.530808498934191509E-17, 0.000000000000000000, 0.000000000000000000 ) ) ;
#328 = CARTESIAN_POINT ( 'NONE',  ( 0.000000000000000000, 1.250000000000000000, 0.000000000000000000 ) ) ;
#329 = EDGE_CURVE ( 'NONE', #66, #80, #231, .T. ) ;
#330 = AXIS2_PLACEMENT_3D ( 'NONE', #180, #269, #18 ) ;
#331 = COLOUR_RGB ( '',0.7921568627450980005, 0.8196078431372548767, 0.9333333333333333481 ) ;
#332 = SURFACE_STYLE_USAGE ( .BOTH. , #300 ) ;
#333 = ORIENTED_EDGE ( 'NONE', *, *, #189, .F. ) ;
#334 =( NAMED_UNIT ( * ) PLANE_ANGLE_UNIT ( ) SI_UNIT ( $, .RADIAN. ) );
#335 = DIRECTION ( 'NONE',  ( -1.000000000000000000, 0.000000000000000000, 0.000000000000000000 ) ) ;
#336 = DIRECTION ( 'NONE',  ( 0.000000000000000000, 0.000000000000000000, -1.000000000000000000 ) ) ;
#337 = COLOUR_RGB ( '',1.000000000000000000, 0.000000000000000000, 0.000000000000000000 ) ;
#338 = CARTESIAN_POINT ( 'NONE',  ( 2.143131898507868297E-16, 1.250000000000000000, 0.000000000000000000 ) ) ;
#339 = DIRECTION ( 'NONE',  ( 0.000000000000000000, 0.000000000000000000, 1.000000000000000000 ) ) ;
#340 =( CONVERSION_BASED_UNIT ( 'INCH', #25 ) LENGTH_UNIT ( ) NAMED_UNIT ( #341 ) );
#341 = DIMENSIONAL_EXPONENTS ( 1.000000000000000000, 0.000000000000000000, 0.000000000000000000, 0.000000000000000000, 0.000000000000000000, 0.000000000000000000, 0.000000000000000000 ) ;
#342 = UNCERTAINTY_MEASURE_WITH_UNIT (LENGTH_MEASURE( 1.000000000000000082E-05 ), #44, 'distance_accuracy_value', 'NONE');
#343 = CARTESIAN_POINT ( 'NONE',  ( -3.061616997868383018E-17, 0.2500000000000000000, 0.000000000000000000 ) ) ;
#344 = SURFACE_SIDE_STYLE ('',( #78 ) ) ;
#345 = ADVANCED_FACE ( 'NONE', ( #126 ), #310, .T. ) ;
#346 = DIMENSIONAL_EXPONENTS ( 1.000000000000000000, 0.000000000000000000, 0.000000000000000000, 0.000000000000000000, 0.000000000000000000, 0.000000000000000000, 0.000000000000000000 ) ;
#347 = PRESENTATION_STYLE_ASSIGNMENT (( #142 ) ) ;
#348 = SURFACE_SIDE_STYLE ('',( #258 ) ) ;
#349 = PRODUCT_DEFINITION_FORMATION_WITH_SPECIFIED_SOURCE ( 'ANY', '', #68, .NOT_KNOWN. ) ;
#350 = AXIS2_PLACEMENT_3D ( 'NONE', #111, #9, #223 ) ;
#351 = EDGE_CURVE ( 'NONE', #208, #58, #284, .T. ) ;
#352 = SURFACE_SIDE_STYLE ('',( #229 ) ) ;
#353 = AXIS2_PLACEMENT_3D ( 'NONE', #234, #239, #335 ) ;
#354 =( NAMED_UNIT ( * ) PLANE_ANGLE_UNIT ( ) SI_UNIT ( $, .RADIAN. ) );
#355 = ORIENTED_EDGE ( 'NONE', *, *, #160, .F. ) ;
#356 = DIRECTION ( 'NONE',  ( 1.000000000000000000, 1.574545884618025728E-16, 0.000000000000000000 ) ) ;
#357 = PRESENTATION_LAYER_ASSIGNMENT (  '', '', ( #192 ) ) ;
#358 =( CONVERSION_BASED_UNIT ( 'INCH', #205 ) LENGTH_UNIT ( ) NAMED_UNIT ( #252 ) );
#359 =( NAMED_UNIT ( * ) SI_UNIT ( $, .STERADIAN. ) SOLID_ANGLE_UNIT ( ) );
#360 =( NAMED_UNIT ( * ) SI_UNIT ( $, .STERADIAN. ) SOLID_ANGLE_UNIT ( ) );
#361 = UNCERTAINTY_MEASURE_WITH_UNIT (LENGTH_MEASURE( 1.000000000000000082E-05 ), #36, 'distance_accuracy_value', 'NONE');
#362 =( LENGTH_UNIT ( ) NAMED_UNIT ( * ) SI_UNIT ( $, .METRE. ) );
#363 = ORIENTED_EDGE ( 'NONE', *, *, #220, .T. ) ;
#364 = CARTESIAN_POINT ( 'NONE',  ( 0.2499999999999999722, 0.2500000000000000000, 0.000000000000000000 ) ) ;
#365 = AXIS2_PLACEMENT_3D ( 'NONE', #212, #104, #153 ) ;
#366 = AXIS2_PLACEMENT_3D ( 'NONE', #124, #207, #211 ) ;
#367 = FACE_OUTER_BOUND ( 'NONE', #265, .T. ) ;
#368 =( CONVERSION_BASED_UNIT ( 'INCH', #311 ) LENGTH_UNIT ( ) NAMED_UNIT ( #319 ) );
#369 = ADVANCED_FACE ( 'NONE', ( #367 ), #71, .F. ) ;
#370 = PRESENTATION_STYLE_ASSIGNMENT (( #86 ) ) ;
#371 = DIRECTION ( 'NONE',  ( -1.574545884618025728E-16, 1.000000000000000000, -0.000000000000000000 ) ) ;
#372 = DIMENSIONAL_EXPONENTS ( 1.000000000000000000, 0.000000000000000000, 0.000000000000000000, 0.000000000000000000, 0.000000000000000000, 0.000000000000000000, 0.000000000000000000 ) ;
#373 = EDGE_LOOP ( 'NONE', ( #137, #243, #46, #266 ) ) ;
ENDSEC;
END-ISO-10303-21;
