ISO-10303-21;
HEADER;
FILE_DESCRIPTION (( 'STEP AP214' ),
    '1' );
FILE_NAME ('Micro_RSC-375-2.STEP',
    '2021-09-03T17:52:41',
    ( '' ),
    ( '' ),
    'SwSTEP 2.0',
    'SolidWorks 2020',
    '' );
FILE_SCHEMA (( 'AUTOMOTIVE_DESIGN' ));
ENDSEC;

DATA;
#1 = DIRECTION ( 'NONE',  ( -0.0000000000000000000, -0.0000000000000000000, -1.000000000000000000 ) ) ;
#2 = CARTESIAN_POINT ( 'NONE',  ( 0.0000000000000000000, 0.0000000000000000000, 0.0000000000000000000 ) ) ;
#3 = DIRECTION ( 'NONE',  ( 1.000000000000000000, 0.0000000000000000000, 0.0000000000000000000 ) ) ;
#4 = CARTESIAN_POINT ( 'NONE',  ( 0.0000000000000000000, 0.0000000000000000000, 0.3178313231888877932 ) ) ;
#5 = DIRECTION ( 'NONE',  ( 1.000000000000000000, 0.0000000000000000000, 0.0000000000000000000 ) ) ;
#6 = EDGE_CURVE ( 'NONE', #138, #147, #71, .T. ) ;
#7 = ORIENTED_EDGE ( 'NONE', *, *, #91, .T. ) ;
#8 = STYLED_ITEM ( 'NONE', ( #57 ), #32 ) ;
#9 = CARTESIAN_POINT ( 'NONE',  ( 0.0000000000000000000, 0.0000000000000000000, 0.3178313231888877932 ) ) ;
#10 = EDGE_CURVE ( 'NONE', #147, #117, #95, .T. ) ;
#11 = ORIENTED_EDGE ( 'NONE', *, *, #179, .T. ) ;
#12 = AXIS2_PLACEMENT_3D ( 'NONE', #218, #238, #5 ) ;
#13 = ORIENTED_EDGE ( 'NONE', *, *, #99, .T. ) ;
#14 = ADVANCED_FACE ( 'NONE', ( #64 ), #81, .T. ) ;
#15 = CONICAL_SURFACE ( 'NONE', #116, 0.003999999999999999216, 0.5235987755983005920 ) ;
#16 = ORIENTED_EDGE ( 'NONE', *, *, #175, .F. ) ;
#17 = DIRECTION ( 'NONE',  ( -0.0000000000000000000, -0.0000000000000000000, -1.000000000000000000 ) ) ;
#18 = EDGE_CURVE ( 'NONE', #241, #79, #61, .T. ) ;
#19 = DIRECTION ( 'NONE',  ( 0.0000000000000000000, 0.0000000000000000000, 1.000000000000000000 ) ) ;
#20 = VERTEX_POINT ( 'NONE', #127 ) ;
#21 = CARTESIAN_POINT ( 'NONE',  ( 0.1875000000000000278, 2.296212748401287726E-17, 2.500000000000000000 ) ) ;
#22 = DIMENSIONAL_EXPONENTS ( 1.000000000000000000, 0.0000000000000000000, 0.0000000000000000000, 0.0000000000000000000, 0.0000000000000000000, 0.0000000000000000000, 0.0000000000000000000 ) ;
#23 = FACE_OUTER_BOUND ( 'NONE', #121, .T. ) ;
#24 = CIRCLE ( 'NONE', #246, 0.1875000000000000278 ) ;
#25 = DIRECTION ( 'NONE',  ( -0.0000000000000000000, -0.0000000000000000000, -1.000000000000000000 ) ) ;
#26 = FILL_AREA_STYLE ('',( #35 ) ) ;
#27 = AXIS2_PLACEMENT_3D ( 'NONE', #126, #164, #146 ) ;
#28 = PRODUCT ( 'Micro_RSC-375-2', 'Micro_RSC-375-2', '', ( #234 ) ) ;
#29 = CONICAL_SURFACE ( 'NONE', #201, 0.003999999999999999216, 0.5235987755983005920 ) ;
#30 = EDGE_CURVE ( 'NONE', #79, #138, #245, .T. ) ;
#31 = AXIS2_PLACEMENT_3D ( 'NONE', #243, #82, #248 ) ;
#32 = ADVANCED_BREP_SHAPE_REPRESENTATION ( 'Micro_RSC-375-2', ( #205, #43 ), #221 ) ;
#33 = CARTESIAN_POINT ( 'NONE',  ( 0.0000000000000000000, 0.0000000000000000000, 2.182168676811112373 ) ) ;
#34 = ADVANCED_FACE ( 'NONE', ( #210 ), #169, .F. ) ;
#35 = FILL_AREA_STYLE_COLOUR ( '', #118 ) ;
#36 = CARTESIAN_POINT ( 'NONE',  ( -0.003999999999999999216, -1.172599310183590411E-17, 2.500000000000000000 ) ) ;
#37 = DIMENSIONAL_EXPONENTS ( 1.000000000000000000, 0.0000000000000000000, 0.0000000000000000000, 0.0000000000000000000, 0.0000000000000000000, 0.0000000000000000000, 0.0000000000000000000 ) ;
#38 =( LENGTH_UNIT ( ) NAMED_UNIT ( * ) SI_UNIT ( $, .METRE. ) );
#39 = CARTESIAN_POINT ( 'NONE',  ( 0.0000000000000000000, 0.0000000000000000000, 2.182168676811112373 ) ) ;
#40 = CARTESIAN_POINT ( 'NONE',  ( -0.003999999999999999216, -4.898587196589411612E-19, 2.500000000000000000 ) ) ;
#41 = DIRECTION ( 'NONE',  ( -0.0000000000000000000, -0.0000000000000000000, -1.000000000000000000 ) ) ;
#42 = CIRCLE ( 'NONE', #27, 0.003999999999999999216 ) ;
#43 = AXIS2_PLACEMENT_3D ( 'NONE', #171, #189, #3 ) ;
#44 =( NAMED_UNIT ( * ) SI_UNIT ( $, .STERADIAN. ) SOLID_ANGLE_UNIT ( ) );
#45 = DIRECTION ( 'NONE',  ( 0.0000000000000000000, 0.0000000000000000000, -1.000000000000000000 ) ) ;
#46 = EDGE_CURVE ( 'NONE', #158, #117, #148, .T. ) ;
#47 = DIRECTION ( 'NONE',  ( 0.5000000000000013323, 0.0000000000000000000, 0.8660254037844377084 ) ) ;
#48 = CARTESIAN_POINT ( 'NONE',  ( -0.1875000000000000278, 0.0000000000000000000, 2.500000000000000000 ) ) ;
#49 = AXIS2_PLACEMENT_3D ( 'NONE', #160, #124, #65 ) ;
#50 = DIRECTION ( 'NONE',  ( -1.000000000000000000, 0.0000000000000000000, 0.0000000000000000000 ) ) ;
#51 = EDGE_CURVE ( 'NONE', #138, #158, #191, .T. ) ;
#52 = ORIENTED_EDGE ( 'NONE', *, *, #175, .T. ) ;
#53 = ORIENTED_EDGE ( 'NONE', *, *, #102, .F. ) ;
#54 = CONICAL_SURFACE ( 'NONE', #143, 0.003999999999999999216, 0.5235987755983005920 ) ;
#55 = CONICAL_SURFACE ( 'NONE', #12, 0.003999999999999999216, 0.5235987755983005920 ) ;
#56 = ORIENTED_EDGE ( 'NONE', *, *, #18, .F. ) ;
#57 = PRESENTATION_STYLE_ASSIGNMENT (( #83 ) ) ;
#58 = DIRECTION ( 'NONE',  ( -1.000000000000000000, 0.0000000000000000000, 0.0000000000000000000 ) ) ;
#59 = EDGE_LOOP ( 'NONE', ( #211, #155, #142, #139 ) ) ;
#60 =( NAMED_UNIT ( * ) PLANE_ANGLE_UNIT ( ) SI_UNIT ( $, .RADIAN. ) );
#61 = CIRCLE ( 'NONE', #233, 0.003999999999999999216 ) ;
#62 = CARTESIAN_POINT ( 'NONE',  ( 0.0000000000000000000, 0.0000000000000000000, 2.500000000000000000 ) ) ;
#63 = DIRECTION ( 'NONE',  ( -1.000000000000000000, 0.0000000000000000000, 0.0000000000000000000 ) ) ;
#64 = FACE_OUTER_BOUND ( 'NONE', #224, .T. ) ;
#65 = DIRECTION ( 'NONE',  ( 1.000000000000000000, 0.0000000000000000000, -0.0000000000000000000 ) ) ;
#66 = CARTESIAN_POINT ( 'NONE',  ( 0.0000000000000000000, 0.0000000000000000000, 0.0000000000000000000 ) ) ;
#67 =( CONVERSION_BASED_UNIT ( 'INCH', #145 ) LENGTH_UNIT ( ) NAMED_UNIT ( #22 ) );
#68 = LINE ( 'NONE', #181, #217 ) ;
#69 = PRODUCT_DEFINITION ( 'UNKNOWN', '', #70, #115 ) ;
#70 = PRODUCT_DEFINITION_FORMATION_WITH_SPECIFIED_SOURCE ( 'ANY', '', #28, .NOT_KNOWN. ) ;
#71 = LINE ( 'NONE', #48, #239 ) ;
#72 = CIRCLE ( 'NONE', #153, 0.1875000000000000278 ) ;
#73 = EDGE_CURVE ( 'NONE', #158, #138, #24, .T. ) ;
#74 = EDGE_LOOP ( 'NONE', ( #222, #75 ) ) ;
#75 = ORIENTED_EDGE ( 'NONE', *, *, #213, .T. ) ;
#76 = ORIENTED_EDGE ( 'NONE', *, *, #6, .F. ) ;
#77 = CARTESIAN_POINT ( 'NONE',  ( 0.0000000000000000000, 0.0000000000000000000, 0.0000000000000000000 ) ) ;
#78 = ADVANCED_FACE ( 'NONE', ( #23 ), #54, .T. ) ;
#79 = VERTEX_POINT ( 'NONE', #36 ) ;
#80 = SURFACE_STYLE_USAGE ( .BOTH. , #162 ) ;
#81 = PLANE ( 'NONE',  #220 ) ;
#82 = DIRECTION ( 'NONE',  ( -0.0000000000000000000, -0.0000000000000000000, -1.000000000000000000 ) ) ;
#83 = SURFACE_STYLE_USAGE ( .BOTH. , #165 ) ;
#84 = DIRECTION ( 'NONE',  ( -0.5000000000000013323, -6.123233995736782060E-17, -0.8660254037844377084 ) ) ;
#85 =( GEOMETRIC_REPRESENTATION_CONTEXT ( 3 ) GLOBAL_UNCERTAINTY_ASSIGNED_CONTEXT ( ( #215 ) ) GLOBAL_UNIT_ASSIGNED_CONTEXT ( ( #168, #235, #134 ) ) REPRESENTATION_CONTEXT ( 'NONE', 'WORKASPACE' ) );
#86 = EDGE_CURVE ( 'NONE', #241, #158, #141, .T. ) ;
#87 =( NAMED_UNIT ( * ) PLANE_ANGLE_UNIT ( ) SI_UNIT ( $, .RADIAN. ) );
#88 = CARTESIAN_POINT ( 'NONE',  ( 0.0000000000000000000, 0.0000000000000000000, 2.500000000000000000 ) ) ;
#89 = DIRECTION ( 'NONE',  ( 0.5000000000000013323, 0.0000000000000000000, -0.8660254037844377084 ) ) ;
#90 = DIRECTION ( 'NONE',  ( -0.0000000000000000000, -0.0000000000000000000, -1.000000000000000000 ) ) ;
#91 = EDGE_CURVE ( 'NONE', #20, #147, #68, .T. ) ;
#92 =( CONVERSION_BASED_UNIT ( 'INCH', #110 ) LENGTH_UNIT ( ) NAMED_UNIT ( #37 ) );
#93 = DIRECTION ( 'NONE',  ( 0.0000000000000000000, 0.0000000000000000000, -1.000000000000000000 ) ) ;
#94 = ORIENTED_EDGE ( 'NONE', *, *, #51, .T. ) ;
#95 = CIRCLE ( 'NONE', #161, 0.1875000000000000278 ) ;
#96 = CIRCLE ( 'NONE', #173, 0.003999999999999999216 ) ;
#97 = SHAPE_DEFINITION_REPRESENTATION ( #120, #32 ) ;
#98 = LINE ( 'NONE', #216, #182 ) ;
#99 = EDGE_CURVE ( 'NONE', #79, #241, #42, .T. ) ;
#100 = PRESENTATION_LAYER_ASSIGNMENT (  '', '', ( #8 ) ) ;
#101 = FACE_OUTER_BOUND ( 'NONE', #59, .T. ) ;
#102 = EDGE_CURVE ( 'NONE', #113, #20, #152, .T. ) ;
#103 = ORIENTED_EDGE ( 'NONE', *, *, #46, .F. ) ;
#104 = ORIENTED_EDGE ( 'NONE', *, *, #179, .F. ) ;
#105 = CARTESIAN_POINT ( 'NONE',  ( 0.003999999999999999216, 0.0000000000000000000, 2.500000000000000000 ) ) ;
#106 = CYLINDRICAL_SURFACE ( 'NONE', #31, 0.1875000000000000278 ) ;
#107 = FILL_AREA_STYLE_COLOUR ( '', #240 ) ;
#108 = DIRECTION ( 'NONE',  ( -1.000000000000000000, 0.0000000000000000000, 0.0000000000000000000 ) ) ;
#109 = DIRECTION ( 'NONE',  ( 1.000000000000000000, 0.0000000000000000000, 0.0000000000000000000 ) ) ;
#110 = LENGTH_MEASURE_WITH_UNIT ( LENGTH_MEASURE( 0.02539999999999999897 ), #38 );
#111 = DIRECTION ( 'NONE',  ( 0.0000000000000000000, 0.0000000000000000000, -1.000000000000000000 ) ) ;
#112 = DIRECTION ( 'NONE',  ( -0.0000000000000000000, -0.0000000000000000000, -1.000000000000000000 ) ) ;
#113 = VERTEX_POINT ( 'NONE', #195 ) ;
#114 = CLOSED_SHELL ( 'NONE', ( #188, #133, #194, #170, #78, #34, #136, #14 ) ) ;
#115 = PRODUCT_DEFINITION_CONTEXT ( 'detailed design', #219, 'design' ) ;
#116 = AXIS2_PLACEMENT_3D ( 'NONE', #228, #183, #229 ) ;
#117 = VERTEX_POINT ( 'NONE', #178 ) ;
#118 = COLOUR_RGB ( '',0.7921568627450980005, 0.8196078431372548767, 0.9333333333333333481 ) ;
#119 = EDGE_LOOP ( 'NONE', ( #196, #7, #237, #16 ) ) ;
#120 = PRODUCT_DEFINITION_SHAPE ( 'NONE', 'NONE',  #69 ) ;
#121 = EDGE_LOOP ( 'NONE', ( #232, #53, #52, #11 ) ) ;
#122 = VECTOR ( 'NONE', #208, 39.37007874015748143 ) ;
#123 = MECHANICAL_DESIGN_GEOMETRIC_PRESENTATION_REPRESENTATION (  '', ( #8 ), #85 ) ;
#124 = DIRECTION ( 'NONE',  ( 0.0000000000000000000, 0.0000000000000000000, 1.000000000000000000 ) ) ;
#125 = EDGE_LOOP ( 'NONE', ( #103, #204, #193, #104 ) ) ;
#126 = CARTESIAN_POINT ( 'NONE',  ( 0.0000000000000000000, 0.0000000000000000000, 2.500000000000000000 ) ) ;
#127 = CARTESIAN_POINT ( 'NONE',  ( -0.003999999999999999216, 1.172599310183590719E-17, 0.0000000000000000000 ) ) ;
#128 = ORIENTED_EDGE ( 'NONE', *, *, #51, .F. ) ;
#129 = DIRECTION ( 'NONE',  ( 1.000000000000000000, 0.0000000000000000000, 0.0000000000000000000 ) ) ;
#130 =( GEOMETRIC_REPRESENTATION_CONTEXT ( 3 ) GLOBAL_UNCERTAINTY_ASSIGNED_CONTEXT ( ( #132 ) ) GLOBAL_UNIT_ASSIGNED_CONTEXT ( ( #67, #87, #244 ) ) REPRESENTATION_CONTEXT ( 'NONE', 'WORKASPACE' ) );
#131 = CARTESIAN_POINT ( 'NONE',  ( 0.1875000000000000278, 2.296212748401287726E-17, 2.182168676811112373 ) ) ;
#132 = UNCERTAINTY_MEASURE_WITH_UNIT (LENGTH_MEASURE( 1.000000000000000082E-05 ), #67, 'distance_accuracy_value', 'NONE');
#133 = ADVANCED_FACE ( 'NONE', ( #185 ), #29, .T. ) ;
#134 =( NAMED_UNIT ( * ) SI_UNIT ( $, .STERADIAN. ) SOLID_ANGLE_UNIT ( ) );
#135 = UNCERTAINTY_MEASURE_WITH_UNIT (LENGTH_MEASURE( 1.000000000000000082E-05 ), #92, 'distance_accuracy_value', 'NONE');
#136 = ADVANCED_FACE ( 'NONE', ( #167 ), #15, .T. ) ;
#137 = ORIENTED_EDGE ( 'NONE', *, *, #86, .T. ) ;
#138 = VERTEX_POINT ( 'NONE', #150 ) ;
#139 = ORIENTED_EDGE ( 'NONE', *, *, #86, .F. ) ;
#140 = SURFACE_STYLE_FILL_AREA ( #26 ) ;
#141 = LINE ( 'NONE', #231, #227 ) ;
#142 = ORIENTED_EDGE ( 'NONE', *, *, #73, .F. ) ;
#143 = AXIS2_PLACEMENT_3D ( 'NONE', #144, #19, #129 ) ;
#144 = CARTESIAN_POINT ( 'NONE',  ( 0.0000000000000000000, 0.0000000000000000000, 0.0000000000000000000 ) ) ;
#145 = LENGTH_MEASURE_WITH_UNIT ( LENGTH_MEASURE( 0.02539999999999999897 ), #209 );
#146 = DIRECTION ( 'NONE',  ( -1.000000000000000000, 0.0000000000000000000, 0.0000000000000000000 ) ) ;
#147 = VERTEX_POINT ( 'NONE', #214 ) ;
#148 = LINE ( 'NONE', #21, #122 ) ;
#149 = VECTOR ( 'NONE', #84, 39.37007874015748854 ) ;
#150 = CARTESIAN_POINT ( 'NONE',  ( -0.1875000000000000278, 0.0000000000000000000, 2.182168676811112373 ) ) ;
#151 = CYLINDRICAL_SURFACE ( 'NONE', #163, 0.1875000000000000278 ) ;
#152 = CIRCLE ( 'NONE', #172, 0.003999999999999999216 ) ;
#153 = AXIS2_PLACEMENT_3D ( 'NONE', #9, #112, #50 ) ;
#154 = CARTESIAN_POINT ( 'NONE',  ( 0.0000000000000000000, 0.0000000000000000000, 2.500000000000000000 ) ) ;
#155 = ORIENTED_EDGE ( 'NONE', *, *, #30, .T. ) ;
#156 = AXIS2_PLACEMENT_3D ( 'NONE', #39, #93, #108 ) ;
#157 = PRESENTATION_LAYER_ASSIGNMENT (  '', '', ( #236 ) ) ;
#158 = VERTEX_POINT ( 'NONE', #131 ) ;
#159 = APPLICATION_CONTEXT ( 'automotive_design' ) ;
#160 = CARTESIAN_POINT ( 'NONE',  ( 0.0000000000000000000, 0.0000000000000000000, 0.0000000000000000000 ) ) ;
#161 = AXIS2_PLACEMENT_3D ( 'NONE', #4, #1, #58 ) ;
#162 = SURFACE_SIDE_STYLE ('',( #140 ) ) ;
#163 = AXIS2_PLACEMENT_3D ( 'NONE', #154, #41, #63 ) ;
#164 = DIRECTION ( 'NONE',  ( 0.0000000000000000000, 0.0000000000000000000, -1.000000000000000000 ) ) ;
#165 = SURFACE_SIDE_STYLE ('',( #223 ) ) ;
#166 = DIRECTION ( 'NONE',  ( 0.0000000000000000000, 0.0000000000000000000, 1.000000000000000000 ) ) ;
#167 = FACE_OUTER_BOUND ( 'NONE', #176, .T. ) ;
#168 =( CONVERSION_BASED_UNIT ( 'INCH', #184 ) LENGTH_UNIT ( ) NAMED_UNIT ( #177 ) );
#169 = PLANE ( 'NONE',  #49 ) ;
#170 = ADVANCED_FACE ( 'NONE', ( #206 ), #106, .T. ) ;
#171 = CARTESIAN_POINT ( 'NONE',  ( 0.0000000000000000000, 0.0000000000000000000, 0.0000000000000000000 ) ) ;
#172 = AXIS2_PLACEMENT_3D ( 'NONE', #66, #25, #249 ) ;
#173 = AXIS2_PLACEMENT_3D ( 'NONE', #77, #17, #242 ) ;
#174 = EDGE_LOOP ( 'NONE', ( #94, #202, #207, #76 ) ) ;
#175 = EDGE_CURVE ( 'NONE', #113, #117, #98, .T. ) ;
#176 = EDGE_LOOP ( 'NONE', ( #190, #13, #137, #128 ) ) ;
#177 = DIMENSIONAL_EXPONENTS ( 1.000000000000000000, 0.0000000000000000000, 0.0000000000000000000, 0.0000000000000000000, 0.0000000000000000000, 0.0000000000000000000, 0.0000000000000000000 ) ;
#178 = CARTESIAN_POINT ( 'NONE',  ( 0.1875000000000000278, 2.296212748401287726E-17, 0.3178313231888877932 ) ) ;
#179 = EDGE_CURVE ( 'NONE', #117, #147, #72, .T. ) ;
#180 = FILL_AREA_STYLE ('',( #107 ) ) ;
#181 = CARTESIAN_POINT ( 'NONE',  ( -0.003999999999999999216, 4.898587196589411612E-19, 0.0000000000000000000 ) ) ;
#182 = VECTOR ( 'NONE', #47, 39.37007874015748854 ) ;
#183 = DIRECTION ( 'NONE',  ( 0.0000000000000000000, 0.0000000000000000000, -1.000000000000000000 ) ) ;
#184 = LENGTH_MEASURE_WITH_UNIT ( LENGTH_MEASURE( 0.02539999999999999897 ), #199 );
#185 = FACE_OUTER_BOUND ( 'NONE', #119, .T. ) ;
#186 = FACE_OUTER_BOUND ( 'NONE', #174, .T. ) ;
#187 = APPLICATION_PROTOCOL_DEFINITION ( 'draft international standard', 'automotive_design', 1998, #219 ) ;
#188 = ADVANCED_FACE ( 'NONE', ( #101 ), #55, .T. ) ;
#189 = DIRECTION ( 'NONE',  ( 0.0000000000000000000, 0.0000000000000000000, 1.000000000000000000 ) ) ;
#190 = ORIENTED_EDGE ( 'NONE', *, *, #30, .F. ) ;
#191 = CIRCLE ( 'NONE', #156, 0.1875000000000000278 ) ;
#192 = MECHANICAL_DESIGN_GEOMETRIC_PRESENTATION_REPRESENTATION (  '', ( #236 ), #130 ) ;
#193 = ORIENTED_EDGE ( 'NONE', *, *, #6, .T. ) ;
#194 = ADVANCED_FACE ( 'NONE', ( #186 ), #151, .T. ) ;
#195 = CARTESIAN_POINT ( 'NONE',  ( 0.003999999999999999216, 0.0000000000000000000, 0.0000000000000000000 ) ) ;
#196 = ORIENTED_EDGE ( 'NONE', *, *, #213, .F. ) ;
#197 = DIRECTION ( 'NONE',  ( 0.0000000000000000000, 0.0000000000000000000, 1.000000000000000000 ) ) ;
#198 = DIRECTION ( 'NONE',  ( -1.000000000000000000, 0.0000000000000000000, 0.0000000000000000000 ) ) ;
#199 =( LENGTH_UNIT ( ) NAMED_UNIT ( * ) SI_UNIT ( $, .METRE. ) );
#200 = PRODUCT_RELATED_PRODUCT_CATEGORY ( 'part', '', ( #28 ) ) ;
#201 = AXIS2_PLACEMENT_3D ( 'NONE', #2, #197, #109 ) ;
#202 = ORIENTED_EDGE ( 'NONE', *, *, #46, .T. ) ;
#203 = ORIENTED_EDGE ( 'NONE', *, *, #99, .F. ) ;
#204 = ORIENTED_EDGE ( 'NONE', *, *, #73, .T. ) ;
#205 = MANIFOLD_SOLID_BREP ( 'Mirror1', #114 ) ;
#206 = FACE_OUTER_BOUND ( 'NONE', #125, .T. ) ;
#207 = ORIENTED_EDGE ( 'NONE', *, *, #10, .F. ) ;
#208 = DIRECTION ( 'NONE',  ( -0.0000000000000000000, -0.0000000000000000000, -1.000000000000000000 ) ) ;
#209 =( LENGTH_UNIT ( ) NAMED_UNIT ( * ) SI_UNIT ( $, .METRE. ) );
#210 = FACE_OUTER_BOUND ( 'NONE', #74, .T. ) ;
#211 = ORIENTED_EDGE ( 'NONE', *, *, #18, .T. ) ;
#212 = DIRECTION ( 'NONE',  ( -0.5000000000000013323, 6.123233995736782060E-17, 0.8660254037844377084 ) ) ;
#213 = EDGE_CURVE ( 'NONE', #20, #113, #96, .T. ) ;
#214 = CARTESIAN_POINT ( 'NONE',  ( -0.1875000000000000278, 0.0000000000000000000, 0.3178313231888877932 ) ) ;
#215 = UNCERTAINTY_MEASURE_WITH_UNIT (LENGTH_MEASURE( 1.000000000000000082E-05 ), #168, 'distance_accuracy_value', 'NONE');
#216 = CARTESIAN_POINT ( 'NONE',  ( 0.003999999999999999216, 0.0000000000000000000, 0.0000000000000000000 ) ) ;
#217 = VECTOR ( 'NONE', #212, 39.37007874015748854 ) ;
#218 = CARTESIAN_POINT ( 'NONE',  ( 0.0000000000000000000, 0.0000000000000000000, 2.500000000000000000 ) ) ;
#219 = APPLICATION_CONTEXT ( 'automotive_design' ) ;
#220 = AXIS2_PLACEMENT_3D ( 'NONE', #88, #166, #230 ) ;
#221 =( GEOMETRIC_REPRESENTATION_CONTEXT ( 3 ) GLOBAL_UNCERTAINTY_ASSIGNED_CONTEXT ( ( #135 ) ) GLOBAL_UNIT_ASSIGNED_CONTEXT ( ( #92, #60, #44 ) ) REPRESENTATION_CONTEXT ( 'NONE', 'WORKASPACE' ) );
#222 = ORIENTED_EDGE ( 'NONE', *, *, #102, .T. ) ;
#223 = SURFACE_STYLE_FILL_AREA ( #180 ) ;
#224 = EDGE_LOOP ( 'NONE', ( #56, #203 ) ) ;
#225 = PRESENTATION_STYLE_ASSIGNMENT (( #80 ) ) ;
#226 = DIRECTION ( 'NONE',  ( -1.000000000000000000, 0.0000000000000000000, 0.0000000000000000000 ) ) ;
#227 = VECTOR ( 'NONE', #89, 39.37007874015748854 ) ;
#228 = CARTESIAN_POINT ( 'NONE',  ( 0.0000000000000000000, 0.0000000000000000000, 2.500000000000000000 ) ) ;
#229 = DIRECTION ( 'NONE',  ( 1.000000000000000000, 0.0000000000000000000, 0.0000000000000000000 ) ) ;
#230 = DIRECTION ( 'NONE',  ( 1.000000000000000000, 0.0000000000000000000, -0.0000000000000000000 ) ) ;
#231 = CARTESIAN_POINT ( 'NONE',  ( 0.003999999999999999216, 0.0000000000000000000, 2.500000000000000000 ) ) ;
#232 = ORIENTED_EDGE ( 'NONE', *, *, #91, .F. ) ;
#233 = AXIS2_PLACEMENT_3D ( 'NONE', #62, #111, #198 ) ;
#234 = PRODUCT_CONTEXT ( 'NONE', #159, 'mechanical' ) ;
#235 =( NAMED_UNIT ( * ) PLANE_ANGLE_UNIT ( ) SI_UNIT ( $, .RADIAN. ) );
#236 = STYLED_ITEM ( 'NONE', ( #225 ), #205 ) ;
#237 = ORIENTED_EDGE ( 'NONE', *, *, #10, .T. ) ;
#238 = DIRECTION ( 'NONE',  ( 0.0000000000000000000, 0.0000000000000000000, -1.000000000000000000 ) ) ;
#239 = VECTOR ( 'NONE', #90, 39.37007874015748143 ) ;
#240 = COLOUR_RGB ( '',0.7921568627450980005, 0.8196078431372548767, 0.9333333333333333481 ) ;
#241 = VERTEX_POINT ( 'NONE', #105 ) ;
#242 = DIRECTION ( 'NONE',  ( -1.000000000000000000, 0.0000000000000000000, 0.0000000000000000000 ) ) ;
#243 = CARTESIAN_POINT ( 'NONE',  ( 0.0000000000000000000, 0.0000000000000000000, 2.500000000000000000 ) ) ;
#244 =( NAMED_UNIT ( * ) SI_UNIT ( $, .STERADIAN. ) SOLID_ANGLE_UNIT ( ) );
#245 = LINE ( 'NONE', #40, #149 ) ;
#246 = AXIS2_PLACEMENT_3D ( 'NONE', #33, #45, #226 ) ;
#247 = APPLICATION_PROTOCOL_DEFINITION ( 'draft international standard', 'automotive_design', 1998, #159 ) ;
#248 = DIRECTION ( 'NONE',  ( -1.000000000000000000, 0.0000000000000000000, 0.0000000000000000000 ) ) ;
#249 = DIRECTION ( 'NONE',  ( -1.000000000000000000, 0.0000000000000000000, 0.0000000000000000000 ) ) ;
ENDSEC;
END-ISO-10303-21;
