ISO-10303-21;
HEADER;
FILE_DESCRIPTION (( 'STEP AP214' ),
    '1' );
FILE_NAME ('Micro_BMS-016-2X.STEP',
    '2021-09-03T14:52:15',
    ( '' ),
    ( '' ),
    'SwSTEP 2.0',
    'SolidWorks 2020',
    '' );
FILE_SCHEMA (( 'AUTOMOTIVE_DESIGN' ));
ENDSEC;

DATA;
#1 = DIRECTION ( 'NONE',  ( 0.0000000000000000000, 0.0000000000000000000, 1.000000000000000000 ) ) ;
#2 = ORIENTED_EDGE ( 'NONE', *, *, #108, .T. ) ;
#3 = ADVANCED_FACE ( 'NONE', ( #37 ), #218, .T. ) ;
#4 = VECTOR ( 'NONE', #79, 39.37007874015748143 ) ;
#5 = PRESENTATION_STYLE_ASSIGNMENT (( #27 ) ) ;
#6 = DIMENSIONAL_EXPONENTS ( 1.000000000000000000, 0.0000000000000000000, 0.0000000000000000000, 0.0000000000000000000, 0.0000000000000000000, 0.0000000000000000000, 0.0000000000000000000 ) ;
#7 = ORIENTED_EDGE ( 'NONE', *, *, #290, .T. ) ;
#8 = LENGTH_MEASURE_WITH_UNIT ( LENGTH_MEASURE( 0.02539999999999999897 ), #32 );
#9 = DIRECTION ( 'NONE',  ( 1.000000000000000000, 0.0000000000000000000, 0.0000000000000000000 ) ) ;
#10 = ADVANCED_FACE ( 'NONE', ( #99 ), #12, .T. ) ;
#11 = CARTESIAN_POINT ( 'NONE',  ( 9.787377218785650228E-19, 0.0000000000000000000, 0.007992000000000000839 ) ) ;
#12 = CYLINDRICAL_SURFACE ( 'NONE', #195, 0.06250000000000000000 ) ;
#13 = ADVANCED_FACE ( 'NONE', ( #39 ), #26, .T. ) ;
#14 = VECTOR ( 'NONE', #164, 39.37007874015748143 ) ;
#15 = COLOUR_RGB ( '',0.7921568627450980005, 0.8196078431372548767, 0.9333333333333333481 ) ;
#16 = DIRECTION ( 'NONE',  ( -1.224646799147353454E-16, -0.0000000000000000000, -1.000000000000000000 ) ) ;
#17 = ADVANCED_FACE ( 'NONE', ( #123 ), #192, .T. ) ;
#18 = CARTESIAN_POINT ( 'NONE',  ( 0.04750000000000064587, 5.817072295950006528E-18, 1.500000000000000222 ) ) ;
#19 = ORIENTED_EDGE ( 'NONE', *, *, #174, .F. ) ;
#20 = CARTESIAN_POINT ( 'NONE',  ( 2.939152317953648508E-18, 0.0000000000000000000, 0.02400000000000000050 ) ) ;
#21 = STYLED_ITEM ( 'NONE', ( #5 ), #260 ) ;
#22 = CARTESIAN_POINT ( 'NONE',  ( -0.007992000000000000839, 4.316390108274762150E-18, 0.02400000000000000050 ) ) ;
#23 = DIRECTION ( 'NONE',  ( -0.0000000000000000000, -0.0000000000000000000, -1.000000000000000000 ) ) ;
#24 = CARTESIAN_POINT ( 'NONE',  ( -0.06250000000000000000, 0.0000000000000000000, 1.485000000000000764 ) ) ;
#25 = VERTEX_POINT ( 'NONE', #42 ) ;
#26 = CONICAL_SURFACE ( 'NONE', #85, 0.007992000000000002574, 0.1745329251994338637 ) ;
#27 = SURFACE_STYLE_USAGE ( .BOTH. , #254 ) ;
#28 = VERTEX_POINT ( 'NONE', #241 ) ;
#29 = LINE ( 'NONE', #288, #237 ) ;
#30 = AXIS2_PLACEMENT_3D ( 'NONE', #299, #77, #48 ) ;
#31 = CARTESIAN_POINT ( 'NONE',  ( 0.04750000000000064587, 6.735557395310482421E-18, 1.500000000000000222 ) ) ;
#32 =( LENGTH_UNIT ( ) NAMED_UNIT ( * ) SI_UNIT ( $, .METRE. ) );
#33 =( NAMED_UNIT ( * ) SI_UNIT ( $, .STERADIAN. ) SOLID_ANGLE_UNIT ( ) );
#34 =( LENGTH_UNIT ( ) NAMED_UNIT ( * ) SI_UNIT ( $, .METRE. ) );
#35 = ORIENTED_EDGE ( 'NONE', *, *, #78, .T. ) ;
#36 = DIRECTION ( 'NONE',  ( -1.224646799147353454E-16, -0.0000000000000000000, -1.000000000000000000 ) ) ;
#37 = FACE_OUTER_BOUND ( 'NONE', #297, .T. ) ;
#38 = CONICAL_SURFACE ( 'NONE', #144, 0.04750000000000064587, 0.7853981633974457255 ) ;
#39 = FACE_OUTER_BOUND ( 'NONE', #204, .T. ) ;
#40 = EDGE_CURVE ( 'NONE', #272, #306, #121, .T. ) ;
#41 = VERTEX_POINT ( 'NONE', #173 ) ;
#42 = CARTESIAN_POINT ( 'NONE',  ( 1.468106582817847438E-18, 0.0000000000000000000, 0.0000000000000000000 ) ) ;
#43 = UNCERTAINTY_MEASURE_WITH_UNIT (LENGTH_MEASURE( 1.000000000000000082E-05 ), #131, 'distance_accuracy_value', 'NONE');
#44 = DIRECTION ( 'NONE',  ( 0.0000000000000000000, 0.0000000000000000000, -1.000000000000000000 ) ) ;
#45 = CIRCLE ( 'NONE', #230, 0.007992000000000002574 ) ;
#46 = FACE_OUTER_BOUND ( 'NONE', #208, .T. ) ;
#47 = EDGE_CURVE ( 'NONE', #133, #202, #242, .T. ) ;
#48 = DIRECTION ( 'NONE',  ( -1.000000000000000000, 1.224646799147353207E-16, 0.0000000000000000000 ) ) ;
#49 = ORIENTED_EDGE ( 'NONE', *, *, #82, .F. ) ;
#50 = EDGE_CURVE ( 'NONE', #304, #294, #189, .T. ) ;
#51 = DIRECTION ( 'NONE',  ( -1.000000000000000000, 0.0000000000000000000, 1.335245398554932983E-16 ) ) ;
#52 = EDGE_LOOP ( 'NONE', ( #289, #2, #152, #19 ) ) ;
#53 =( GEOMETRIC_REPRESENTATION_CONTEXT ( 3 ) GLOBAL_UNCERTAINTY_ASSIGNED_CONTEXT ( ( #262 ) ) GLOBAL_UNIT_ASSIGNED_CONTEXT ( ( #120, #185, #33 ) ) REPRESENTATION_CONTEXT ( 'NONE', 'WORKASPACE' ) );
#54 = AXIS2_PLACEMENT_3D ( 'NONE', #312, #233, #89 ) ;
#55 = CARTESIAN_POINT ( 'NONE',  ( 0.0000000000000000000, 0.0000000000000000000, 1.485000000000000764 ) ) ;
#56 = ORIENTED_EDGE ( 'NONE', *, *, #190, .F. ) ;
#57 = PRODUCT_DEFINITION_CONTEXT ( 'detailed design', #101, 'design' ) ;
#58 = FILL_AREA_STYLE ('',( #308 ) ) ;
#59 = EDGE_CURVE ( 'NONE', #202, #306, #88, .T. ) ;
#60 = AXIS2_PLACEMENT_3D ( 'NONE', #182, #228, #324 ) ;
#61 = PRESENTATION_STYLE_ASSIGNMENT (( #187 ) ) ;
#62 = FACE_OUTER_BOUND ( 'NONE', #107, .T. ) ;
#63 = VECTOR ( 'NONE', #16, 39.37007874015748143 ) ;
#64 = ORIENTED_EDGE ( 'NONE', *, *, #150, .T. ) ;
#65 = CYLINDRICAL_SURFACE ( 'NONE', #68, 0.06250000000000000000 ) ;
#66 = ORIENTED_EDGE ( 'NONE', *, *, #47, .F. ) ;
#67 = ORIENTED_EDGE ( 'NONE', *, *, #150, .F. ) ;
#68 = AXIS2_PLACEMENT_3D ( 'NONE', #267, #23, #201 ) ;
#69 = CIRCLE ( 'NONE', #231, 0.007992000000000000839 ) ;
#70 = CARTESIAN_POINT ( 'NONE',  ( 2.939152317953648508E-18, 0.0000000000000000000, 0.02400000000000000050 ) ) ;
#71 = APPLICATION_PROTOCOL_DEFINITION ( 'draft international standard', 'automotive_design', 1998, #76 ) ;
#72 = ORIENTED_EDGE ( 'NONE', *, *, #59, .T. ) ;
#73 = ORIENTED_EDGE ( 'NONE', *, *, #148, .F. ) ;
#74 = PRODUCT_CONTEXT ( 'NONE', #76, 'mechanical' ) ;
#75 = ADVANCED_FACE ( 'NONE', ( #169 ), #65, .T. ) ;
#76 = APPLICATION_CONTEXT ( 'automotive_design' ) ;
#77 = DIRECTION ( 'NONE',  ( 1.224646799147353207E-16, 1.000000000000000000, -0.0000000000000000000 ) ) ;
#78 = EDGE_CURVE ( 'NONE', #277, #304, #246, .T. ) ;
#79 = DIRECTION ( 'NONE',  ( -0.0000000000000000000, -0.0000000000000000000, -1.000000000000000000 ) ) ;
#80 = LINE ( 'NONE', #134, #191 ) ;
#81 = PLANE ( 'NONE',  #291 ) ;
#82 = EDGE_CURVE ( 'NONE', #93, #294, #285, .T. ) ;
#83 = LINE ( 'NONE', #305, #4 ) ;
#84 = ORIENTED_EDGE ( 'NONE', *, *, #261, .T. ) ;
#85 = AXIS2_PLACEMENT_3D ( 'NONE', #70, #266, #95 ) ;
#86 = ORIENTED_EDGE ( 'NONE', *, *, #174, .T. ) ;
#87 = DIRECTION ( 'NONE',  ( 0.0000000000000000000, 1.000000000000000000, 0.0000000000000000000 ) ) ;
#88 = CIRCLE ( 'NONE', #307, 0.007992000000000002574 ) ;
#89 = DIRECTION ( 'NONE',  ( -1.000000000000000000, 0.0000000000000000000, 0.0000000000000000000 ) ) ;
#90 = ORIENTED_EDGE ( 'NONE', *, *, #261, .F. ) ;
#91 = PRODUCT_RELATED_PRODUCT_CATEGORY ( 'part', '', ( #165 ) ) ;
#92 = VECTOR ( 'NONE', #303, 39.37007874015748143 ) ;
#93 = VERTEX_POINT ( 'NONE', #24 ) ;
#94 = EDGE_LOOP ( 'NONE', ( #222, #155, #200 ) ) ;
#95 = DIRECTION ( 'NONE',  ( 1.000000000000000000, 0.0000000000000000000, 0.0000000000000000000 ) ) ;
#96 = ORIENTED_EDGE ( 'NONE', *, *, #316, .T. ) ;
#97 = APPLICATION_PROTOCOL_DEFINITION ( 'draft international standard', 'automotive_design', 1998, #101 ) ;
#98 = CIRCLE ( 'NONE', #60, 0.06250000000000000000 ) ;
#99 = FACE_OUTER_BOUND ( 'NONE', #52, .T. ) ;
#100 = DIRECTION ( 'NONE',  ( 1.000000000000000000, 0.0000000000000000000, 0.0000000000000000000 ) ) ;
#101 = APPLICATION_CONTEXT ( 'automotive_design' ) ;
#102 = ADVANCED_FACE ( 'NONE', ( #250 ), #81, .T. ) ;
#103 = DIRECTION ( 'NONE',  ( 1.224646799147353454E-16, 0.0000000000000000000, 1.000000000000000000 ) ) ;
#104 = LINE ( 'NONE', #244, #92 ) ;
#105 = AXIS2_PLACEMENT_3D ( 'NONE', #269, #36, #168 ) ;
#106 = DIRECTION ( 'NONE',  ( -1.224646799147353454E-16, -0.0000000000000000000, -1.000000000000000000 ) ) ;
#107 = EDGE_LOOP ( 'NONE', ( #256, #315, #156 ) ) ;
#108 = EDGE_CURVE ( 'NONE', #294, #41, #83, .T. ) ;
#109 = DIRECTION ( 'NONE',  ( 1.000000000000000000, 0.0000000000000000000, 0.0000000000000000000 ) ) ;
#110 = ORIENTED_EDGE ( 'NONE', *, *, #290, .F. ) ;
#111 = EDGE_CURVE ( 'NONE', #133, #28, #80, .T. ) ;
#112 = ORIENTED_EDGE ( 'NONE', *, *, #170, .F. ) ;
#113 = ORIENTED_EDGE ( 'NONE', *, *, #40, .T. ) ;
#114 = SPHERICAL_SURFACE ( 'NONE', #163, 0.007992000000000000839 ) ;
#115 = EDGE_CURVE ( 'NONE', #28, #41, #98, .T. ) ;
#116 = CLOSED_SHELL ( 'NONE', ( #287, #17, #203, #124, #10, #75, #102, #176, #13, #3, #279 ) ) ;
#117 =( NAMED_UNIT ( * ) SI_UNIT ( $, .STERADIAN. ) SOLID_ANGLE_UNIT ( ) );
#118 = AXIS2_PLACEMENT_3D ( 'NONE', #322, #276, #100 ) ;
#119 = STYLED_ITEM ( 'NONE', ( #61 ), #215 ) ;
#120 =( CONVERSION_BASED_UNIT ( 'INCH', #286 ) LENGTH_UNIT ( ) NAMED_UNIT ( #257 ) );
#121 = LINE ( 'NONE', #293, #63 ) ;
#122 = PRODUCT_DEFINITION ( 'UNKNOWN', '', #247, #57 ) ;
#123 = FACE_OUTER_BOUND ( 'NONE', #245, .T. ) ;
#124 = ADVANCED_FACE ( 'NONE', ( #278 ), #167, .T. ) ;
#125 = CONICAL_SURFACE ( 'NONE', #118, 0.007992000000000002574, 0.1745329251994338637 ) ;
#126 = EDGE_LOOP ( 'NONE', ( #243, #239, #86, #67 ) ) ;
#127 = DIRECTION ( 'NONE',  ( -1.000000000000000000, 0.0000000000000000000, 1.224646799147353454E-16 ) ) ;
#128 = DIRECTION ( 'NONE',  ( 1.000000000000000000, 0.0000000000000000000, -0.0000000000000000000 ) ) ;
#129 = SHAPE_DEFINITION_REPRESENTATION ( #234, #215 ) ;
#130 = DIRECTION ( 'NONE',  ( -1.000000000000000000, 0.0000000000000000000, 0.0000000000000000000 ) ) ;
#131 =( CONVERSION_BASED_UNIT ( 'INCH', #8 ) LENGTH_UNIT ( ) NAMED_UNIT ( #6 ) );
#132 = DIRECTION ( 'NONE',  ( 0.0000000000000000000, 0.0000000000000000000, 1.000000000000000000 ) ) ;
#133 = VERTEX_POINT ( 'NONE', #22 ) ;
#134 = CARTESIAN_POINT ( 'NONE',  ( -0.007992000000000000839, 9.787377218785650228E-19, 0.02400000000000000050 ) ) ;
#135 = AXIS2_PLACEMENT_3D ( 'NONE', #55, #179, #252 ) ;
#136 = CARTESIAN_POINT ( 'NONE',  ( 0.0000000000000000000, 0.0000000000000000000, 1.500000000000000222 ) ) ;
#137 = ORIENTED_EDGE ( 'NONE', *, *, #190, .T. ) ;
#138 = CARTESIAN_POINT ( 'NONE',  ( 9.787377218785650228E-19, 0.0000000000000000000, 0.007992000000000000839 ) ) ;
#139 = DIRECTION ( 'NONE',  ( 0.1736481776669313581, 0.0000000000000000000, 0.9848077530122077983 ) ) ;
#140 = AXIS2_PLACEMENT_3D ( 'NONE', #136, #132, #180 ) ;
#141 = CARTESIAN_POINT ( 'NONE',  ( 0.007992000000000002574, 9.787377218785648302E-19, 0.007992000000000000839 ) ) ;
#142 =( CONVERSION_BASED_UNIT ( 'INCH', #259 ) LENGTH_UNIT ( ) NAMED_UNIT ( #209 ) );
#143 = DIRECTION ( 'NONE',  ( 1.000000000000000000, 0.0000000000000000000, 0.0000000000000000000 ) ) ;
#144 = AXIS2_PLACEMENT_3D ( 'NONE', #198, #197, #220 ) ;
#145 = PRESENTATION_LAYER_ASSIGNMENT (  '', '', ( #119 ) ) ;
#146 = AXIS2_PLACEMENT_3D ( 'NONE', #177, #106, #273 ) ;
#147 = DIRECTION ( 'NONE',  ( -1.224646799147353454E-16, -0.0000000000000000000, -1.000000000000000000 ) ) ;
#148 = EDGE_CURVE ( 'NONE', #294, #93, #172, .T. ) ;
#149 = DIRECTION ( 'NONE',  ( -1.224646799147353454E-16, -0.0000000000000000000, -1.000000000000000000 ) ) ;
#150 = EDGE_CURVE ( 'NONE', #41, #28, #210, .T. ) ;
#151 = DIRECTION ( 'NONE',  ( 0.7071067811865456854, 8.659560562354911904E-17, -0.7071067811865493491 ) ) ;
#152 = ORIENTED_EDGE ( 'NONE', *, *, #115, .F. ) ;
#153 = CARTESIAN_POINT ( 'NONE',  ( 9.787377218785650228E-19, 0.0000000000000000000, 0.007992000000000000839 ) ) ;
#154 = DIRECTION ( 'NONE',  ( 1.000000000000000000, 0.0000000000000000000, 0.0000000000000000000 ) ) ;
#155 = ORIENTED_EDGE ( 'NONE', *, *, #298, .T. ) ;
#156 = ORIENTED_EDGE ( 'NONE', *, *, #199, .F. ) ;
#157 = FILL_AREA_STYLE ('',( #300 ) ) ;
#158 = SURFACE_STYLE_FILL_AREA ( #157 ) ;
#159 = VECTOR ( 'NONE', #149, 39.37007874015748143 ) ;
#160 = ORIENTED_EDGE ( 'NONE', *, *, #40, .F. ) ;
#161 = SURFACE_STYLE_FILL_AREA ( #58 ) ;
#162 = DIRECTION ( 'NONE',  ( 0.0000000000000000000, -1.000000000000000000, 0.0000000000000000000 ) ) ;
#163 = AXIS2_PLACEMENT_3D ( 'NONE', #138, #87, #9 ) ;
#164 = DIRECTION ( 'NONE',  ( -0.7071067811865456854, 0.0000000000000000000, -0.7071067811865493491 ) ) ;
#165 = PRODUCT ( 'Micro_BMS-016-2X', 'Micro_BMS-016-2X', '', ( #74 ) ) ;
#166 = LINE ( 'NONE', #211, #14 ) ;
#167 = CONICAL_SURFACE ( 'NONE', #280, 0.04750000000000064587, 0.7853981633974457255 ) ;
#168 = DIRECTION ( 'NONE',  ( -1.000000000000000000, 0.0000000000000000000, 1.224646799147353454E-16 ) ) ;
#169 = FACE_OUTER_BOUND ( 'NONE', #126, .T. ) ;
#170 = EDGE_CURVE ( 'NONE', #133, #272, #45, .T. ) ;
#171 = CARTESIAN_POINT ( 'NONE',  ( 0.0000000000000000000, 0.0000000000000000000, 1.500000000000000222 ) ) ;
#172 = CIRCLE ( 'NONE', #264, 0.06250000000000000000 ) ;
#173 = CARTESIAN_POINT ( 'NONE',  ( 0.06250000000000004163, 7.654042494670960626E-18, 0.3331302294237204475 ) ) ;
#174 = EDGE_CURVE ( 'NONE', #93, #28, #104, .T. ) ;
#175 = ORIENTED_EDGE ( 'NONE', *, *, #47, .T. ) ;
#176 = ADVANCED_FACE ( 'NONE', ( #46 ), #38, .T. ) ;
#177 = CARTESIAN_POINT ( 'NONE',  ( 4.079668691629827701E-17, 0.0000000000000000000, 0.3331302294237204475 ) ) ;
#178 = AXIS2_PLACEMENT_3D ( 'NONE', #153, #103, #51 ) ;
#179 = DIRECTION ( 'NONE',  ( 0.0000000000000000000, 0.0000000000000000000, -1.000000000000000000 ) ) ;
#180 = DIRECTION ( 'NONE',  ( 1.000000000000000000, 0.0000000000000000000, 0.0000000000000000000 ) ) ;
#181 = ORIENTED_EDGE ( 'NONE', *, *, #50, .T. ) ;
#182 = CARTESIAN_POINT ( 'NONE',  ( 4.079668691629827701E-17, 0.0000000000000000000, 0.3331302294237204475 ) ) ;
#183 = CARTESIAN_POINT ( 'NONE',  ( 0.0000000000000000000, 0.0000000000000000000, 1.500000000000000222 ) ) ;
#184 = ORIENTED_EDGE ( 'NONE', *, *, #111, .T. ) ;
#185 =( NAMED_UNIT ( * ) PLANE_ANGLE_UNIT ( ) SI_UNIT ( $, .RADIAN. ) );
#186 = CARTESIAN_POINT ( 'NONE',  ( 9.787377218785650228E-19, 0.0000000000000000000, 0.007992000000000000839 ) ) ;
#187 = SURFACE_STYLE_USAGE ( .BOTH. , #232 ) ;
#188 = CARTESIAN_POINT ( 'NONE',  ( 0.0000000000000000000, 0.0000000000000000000, 0.0000000000000000000 ) ) ;
#189 = LINE ( 'NONE', #18, #310 ) ;
#190 = EDGE_CURVE ( 'NONE', #304, #277, #219, .T. ) ;
#191 = VECTOR ( 'NONE', #224, 39.37007874015747433 ) ;
#192 = CYLINDRICAL_SURFACE ( 'NONE', #274, 0.007992000000000002574 ) ;
#193 = CARTESIAN_POINT ( 'NONE',  ( -0.007992000000000000839, 0.0000000000000000000, 0.007992000000000002574 ) ) ;
#194 = CARTESIAN_POINT ( 'NONE',  ( 0.007992000000000006044, 0.0000000000000000000, 0.02400000000000000050 ) ) ;
#195 = AXIS2_PLACEMENT_3D ( 'NONE', #171, #319, #317 ) ;
#196 = CIRCLE ( 'NONE', #30, 0.007992000000000000839 ) ;
#197 = DIRECTION ( 'NONE',  ( 0.0000000000000000000, 0.0000000000000000000, -1.000000000000000000 ) ) ;
#198 = CARTESIAN_POINT ( 'NONE',  ( 0.0000000000000000000, 0.0000000000000000000, 1.500000000000000222 ) ) ;
#199 = EDGE_CURVE ( 'NONE', #306, #202, #314, .T. ) ;
#200 = ORIENTED_EDGE ( 'NONE', *, *, #59, .F. ) ;
#201 = DIRECTION ( 'NONE',  ( -1.000000000000000000, 0.0000000000000000000, 0.0000000000000000000 ) ) ;
#202 = VERTEX_POINT ( 'NONE', #193 ) ;
#203 = ADVANCED_FACE ( 'NONE', ( #302 ), #125, .T. ) ;
#204 = EDGE_LOOP ( 'NONE', ( #217, #225, #84, #64 ) ) ;
#205 =( GEOMETRIC_REPRESENTATION_CONTEXT ( 3 ) GLOBAL_UNCERTAINTY_ASSIGNED_CONTEXT ( ( #282 ) ) GLOBAL_UNIT_ASSIGNED_CONTEXT ( ( #142, #235, #117 ) ) REPRESENTATION_CONTEXT ( 'NONE', 'WORKASPACE' ) );
#206 = CARTESIAN_POINT ( 'NONE',  ( 9.787377218785650228E-19, 0.0000000000000000000, 0.007992000000000000839 ) ) ;
#207 = SPHERICAL_SURFACE ( 'NONE', #320, 0.007992000000000000839 ) ;
#208 = EDGE_LOOP ( 'NONE', ( #265, #251, #7, #73 ) ) ;
#209 = DIMENSIONAL_EXPONENTS ( 1.000000000000000000, 0.0000000000000000000, 0.0000000000000000000, 0.0000000000000000000, 0.0000000000000000000, 0.0000000000000000000, 0.0000000000000000000 ) ;
#210 = CIRCLE ( 'NONE', #146, 0.06250000000000000000 ) ;
#211 = CARTESIAN_POINT ( 'NONE',  ( -0.04750000000000064587, 0.0000000000000000000, 1.500000000000000222 ) ) ;
#212 = DIRECTION ( 'NONE',  ( -1.000000000000000000, 0.0000000000000000000, 1.335245398554932983E-16 ) ) ;
#213 = COLOUR_RGB ( '',0.7921568627450980005, 0.8196078431372548767, 0.9333333333333333481 ) ;
#214 = EDGE_CURVE ( 'NONE', #25, #202, #196, .T. ) ;
#215 = ADVANCED_BREP_SHAPE_REPRESENTATION ( 'Micro_BMS-016-2X', ( #260, #226 ), #205 ) ;
#216 = ORIENTED_EDGE ( 'NONE', *, *, #199, .T. ) ;
#217 = ORIENTED_EDGE ( 'NONE', *, *, #111, .F. ) ;
#218 = CYLINDRICAL_SURFACE ( 'NONE', #105, 0.007992000000000002574 ) ;
#219 = CIRCLE ( 'NONE', #140, 0.04750000000000064587 ) ;
#220 = DIRECTION ( 'NONE',  ( -1.000000000000000000, 0.0000000000000000000, 0.0000000000000000000 ) ) ;
#221 = DIRECTION ( 'NONE',  ( 0.0000000000000000000, 0.0000000000000000000, -1.000000000000000000 ) ) ;
#222 = ORIENTED_EDGE ( 'NONE', *, *, #214, .F. ) ;
#223 =( NAMED_UNIT ( * ) PLANE_ANGLE_UNIT ( ) SI_UNIT ( $, .RADIAN. ) );
#224 = DIRECTION ( 'NONE',  ( -0.1736481776669311639, 2.126576849575783008E-17, 0.9848077530122080203 ) ) ;
#225 = ORIENTED_EDGE ( 'NONE', *, *, #316, .F. ) ;
#226 = AXIS2_PLACEMENT_3D ( 'NONE', #318, #268, #295 ) ;
#227 = CARTESIAN_POINT ( 'NONE',  ( 0.0000000000000000000, 0.0000000000000000000, 1.500000000000000222 ) ) ;
#228 = DIRECTION ( 'NONE',  ( -1.224646799147353454E-16, -0.0000000000000000000, -1.000000000000000000 ) ) ;
#229 = DIRECTION ( 'NONE',  ( 0.0000000000000000000, 1.000000000000000000, 0.0000000000000000000 ) ) ;
#230 = AXIS2_PLACEMENT_3D ( 'NONE', #20, #281, #323 ) ;
#231 = AXIS2_PLACEMENT_3D ( 'NONE', #186, #162, #258 ) ;
#232 = SURFACE_SIDE_STYLE ('',( #161 ) ) ;
#233 = DIRECTION ( 'NONE',  ( -1.224646799147353454E-16, -0.0000000000000000000, -1.000000000000000000 ) ) ;
#234 = PRODUCT_DEFINITION_SHAPE ( 'NONE', 'NONE',  #122 ) ;
#235 =( NAMED_UNIT ( * ) PLANE_ANGLE_UNIT ( ) SI_UNIT ( $, .RADIAN. ) );
#236 =( LENGTH_UNIT ( ) NAMED_UNIT ( * ) SI_UNIT ( $, .METRE. ) );
#237 = VECTOR ( 'NONE', #139, 39.37007874015748143 ) ;
#238 = MECHANICAL_DESIGN_GEOMETRIC_PRESENTATION_REPRESENTATION (  '', ( #119 ), #311 ) ;
#239 = ORIENTED_EDGE ( 'NONE', *, *, #148, .T. ) ;
#240 = EDGE_LOOP ( 'NONE', ( #35, #137 ) ) ;
#241 = CARTESIAN_POINT ( 'NONE',  ( -0.06249999999999995837, 0.0000000000000000000, 0.3331302294237204475 ) ) ;
#242 = LINE ( 'NONE', #271, #159 ) ;
#243 = ORIENTED_EDGE ( 'NONE', *, *, #108, .F. ) ;
#244 = CARTESIAN_POINT ( 'NONE',  ( -0.06250000000000000000, 0.0000000000000000000, 1.500000000000000222 ) ) ;
#245 = EDGE_LOOP ( 'NONE', ( #255, #113, #216, #66 ) ) ;
#246 = CIRCLE ( 'NONE', #270, 0.04750000000000064587 ) ;
#247 = PRODUCT_DEFINITION_FORMATION_WITH_SPECIFIED_SOURCE ( 'ANY', '', #165, .NOT_KNOWN. ) ;
#248 =( NAMED_UNIT ( * ) SI_UNIT ( $, .STERADIAN. ) SOLID_ANGLE_UNIT ( ) );
#249 = CARTESIAN_POINT ( 'NONE',  ( 0.0000000000000000000, 0.0000000000000000000, 1.500000000000000222 ) ) ;
#250 = FACE_OUTER_BOUND ( 'NONE', #240, .T. ) ;
#251 = ORIENTED_EDGE ( 'NONE', *, *, #78, .F. ) ;
#252 = DIRECTION ( 'NONE',  ( 1.000000000000000000, 0.0000000000000000000, 0.0000000000000000000 ) ) ;
#253 = PRESENTATION_LAYER_ASSIGNMENT (  '', '', ( #21 ) ) ;
#254 = SURFACE_SIDE_STYLE ('',( #158 ) ) ;
#255 = ORIENTED_EDGE ( 'NONE', *, *, #170, .T. ) ;
#256 = ORIENTED_EDGE ( 'NONE', *, *, #298, .F. ) ;
#257 = DIMENSIONAL_EXPONENTS ( 1.000000000000000000, 0.0000000000000000000, 0.0000000000000000000, 0.0000000000000000000, 0.0000000000000000000, 0.0000000000000000000, 0.0000000000000000000 ) ;
#258 = DIRECTION ( 'NONE',  ( 0.0000000000000000000, 0.0000000000000000000, -1.000000000000000000 ) ) ;
#259 = LENGTH_MEASURE_WITH_UNIT ( LENGTH_MEASURE( 0.02539999999999999897 ), #236 );
#260 = MANIFOLD_SOLID_BREP ( 'Fillet1', #116 ) ;
#261 = EDGE_CURVE ( 'NONE', #272, #41, #29, .T. ) ;
#262 = UNCERTAINTY_MEASURE_WITH_UNIT (LENGTH_MEASURE( 1.000000000000000082E-05 ), #120, 'distance_accuracy_value', 'NONE');
#263 = FACE_OUTER_BOUND ( 'NONE', #94, .T. ) ;
#264 = AXIS2_PLACEMENT_3D ( 'NONE', #325, #221, #109 ) ;
#265 = ORIENTED_EDGE ( 'NONE', *, *, #50, .F. ) ;
#266 = DIRECTION ( 'NONE',  ( 1.224646799147353454E-16, 0.0000000000000000000, 1.000000000000000000 ) ) ;
#267 = CARTESIAN_POINT ( 'NONE',  ( 0.0000000000000000000, 0.0000000000000000000, 1.500000000000000222 ) ) ;
#268 = DIRECTION ( 'NONE',  ( 0.0000000000000000000, 0.0000000000000000000, 1.000000000000000000 ) ) ;
#269 = CARTESIAN_POINT ( 'NONE',  ( 0.0000000000000000000, 0.0000000000000000000, 0.0000000000000000000 ) ) ;
#270 = AXIS2_PLACEMENT_3D ( 'NONE', #249, #1, #154 ) ;
#271 = CARTESIAN_POINT ( 'NONE',  ( -0.007992000000000002574, 0.0000000000000000000, 9.787377218785652154E-19 ) ) ;
#272 = VERTEX_POINT ( 'NONE', #194 ) ;
#273 = DIRECTION ( 'NONE',  ( 1.000000000000000000, 0.0000000000000000000, 0.0000000000000000000 ) ) ;
#274 = AXIS2_PLACEMENT_3D ( 'NONE', #188, #147, #127 ) ;
#275 = DIRECTION ( 'NONE',  ( 0.0000000000000000000, 0.0000000000000000000, 1.000000000000000000 ) ) ;
#276 = DIRECTION ( 'NONE',  ( 1.224646799147353454E-16, 0.0000000000000000000, 1.000000000000000000 ) ) ;
#277 = VERTEX_POINT ( 'NONE', #283 ) ;
#278 = FACE_OUTER_BOUND ( 'NONE', #296, .T. ) ;
#279 = ADVANCED_FACE ( 'NONE', ( #263 ), #114, .T. ) ;
#280 = AXIS2_PLACEMENT_3D ( 'NONE', #227, #44, #130 ) ;
#281 = DIRECTION ( 'NONE',  ( -1.224646799147353454E-16, -0.0000000000000000000, -1.000000000000000000 ) ) ;
#282 = UNCERTAINTY_MEASURE_WITH_UNIT (LENGTH_MEASURE( 1.000000000000000082E-05 ), #142, 'distance_accuracy_value', 'NONE');
#283 = CARTESIAN_POINT ( 'NONE',  ( -0.04750000000000064587, 0.0000000000000000000, 1.500000000000000222 ) ) ;
#284 = ORIENTED_EDGE ( 'NONE', *, *, #115, .T. ) ;
#285 = CIRCLE ( 'NONE', #135, 0.06250000000000000000 ) ;
#286 = LENGTH_MEASURE_WITH_UNIT ( LENGTH_MEASURE( 0.02539999999999999897 ), #34 );
#287 = ADVANCED_FACE ( 'NONE', ( #62 ), #207, .T. ) ;
#288 = CARTESIAN_POINT ( 'NONE',  ( 0.007992000000000006044, 0.0000000000000000000, 0.02400000000000000050 ) ) ;
#289 = ORIENTED_EDGE ( 'NONE', *, *, #82, .T. ) ;
#290 = EDGE_CURVE ( 'NONE', #277, #93, #166, .T. ) ;
#291 = AXIS2_PLACEMENT_3D ( 'NONE', #183, #275, #128 ) ;
#292 = EDGE_LOOP ( 'NONE', ( #112, #184, #284, #90 ) ) ;
#293 = CARTESIAN_POINT ( 'NONE',  ( 0.007992000000000002574, 9.787377218785648302E-19, -9.787377218785652154E-19 ) ) ;
#294 = VERTEX_POINT ( 'NONE', #309 ) ;
#295 = DIRECTION ( 'NONE',  ( 1.000000000000000000, 0.0000000000000000000, 0.0000000000000000000 ) ) ;
#296 = EDGE_LOOP ( 'NONE', ( #56, #181, #49, #110 ) ) ;
#297 = EDGE_LOOP ( 'NONE', ( #160, #96, #175, #72 ) ) ;
#298 = EDGE_CURVE ( 'NONE', #25, #306, #69, .T. ) ;
#299 = CARTESIAN_POINT ( 'NONE',  ( 9.787377218785650228E-19, 0.0000000000000000000, 0.007992000000000000839 ) ) ;
#300 = FILL_AREA_STYLE_COLOUR ( '', #213 ) ;
#301 = MECHANICAL_DESIGN_GEOMETRIC_PRESENTATION_REPRESENTATION (  '', ( #21 ), #53 ) ;
#302 = FACE_OUTER_BOUND ( 'NONE', #292, .T. ) ;
#303 = DIRECTION ( 'NONE',  ( -0.0000000000000000000, -0.0000000000000000000, -1.000000000000000000 ) ) ;
#304 = VERTEX_POINT ( 'NONE', #31 ) ;
#305 = CARTESIAN_POINT ( 'NONE',  ( 0.06250000000000000000, 7.654042494670956004E-18, 1.500000000000000222 ) ) ;
#306 = VERTEX_POINT ( 'NONE', #141 ) ;
#307 = AXIS2_PLACEMENT_3D ( 'NONE', #11, #313, #212 ) ;
#308 = FILL_AREA_STYLE_COLOUR ( '', #15 ) ;
#309 = CARTESIAN_POINT ( 'NONE',  ( 0.06250000000000000000, 7.654042494670956004E-18, 1.485000000000000764 ) ) ;
#310 = VECTOR ( 'NONE', #151, 39.37007874015748143 ) ;
#311 =( GEOMETRIC_REPRESENTATION_CONTEXT ( 3 ) GLOBAL_UNCERTAINTY_ASSIGNED_CONTEXT ( ( #43 ) ) GLOBAL_UNIT_ASSIGNED_CONTEXT ( ( #131, #223, #248 ) ) REPRESENTATION_CONTEXT ( 'NONE', 'WORKASPACE' ) );
#312 = CARTESIAN_POINT ( 'NONE',  ( 2.939152317953648508E-18, 0.0000000000000000000, 0.02400000000000000050 ) ) ;
#313 = DIRECTION ( 'NONE',  ( 1.224646799147353454E-16, 0.0000000000000000000, 1.000000000000000000 ) ) ;
#314 = CIRCLE ( 'NONE', #178, 0.007992000000000002574 ) ;
#315 = ORIENTED_EDGE ( 'NONE', *, *, #214, .T. ) ;
#316 = EDGE_CURVE ( 'NONE', #272, #133, #321, .T. ) ;
#317 = DIRECTION ( 'NONE',  ( -1.000000000000000000, 0.0000000000000000000, 0.0000000000000000000 ) ) ;
#318 = CARTESIAN_POINT ( 'NONE',  ( 0.0000000000000000000, 0.0000000000000000000, 0.0000000000000000000 ) ) ;
#319 = DIRECTION ( 'NONE',  ( -0.0000000000000000000, -0.0000000000000000000, -1.000000000000000000 ) ) ;
#320 = AXIS2_PLACEMENT_3D ( 'NONE', #206, #229, #143 ) ;
#321 = CIRCLE ( 'NONE', #54, 0.007992000000000002574 ) ;
#322 = CARTESIAN_POINT ( 'NONE',  ( 2.939152317953648508E-18, 0.0000000000000000000, 0.02400000000000000050 ) ) ;
#323 = DIRECTION ( 'NONE',  ( -1.000000000000000000, 0.0000000000000000000, 0.0000000000000000000 ) ) ;
#324 = DIRECTION ( 'NONE',  ( 1.000000000000000000, 0.0000000000000000000, 0.0000000000000000000 ) ) ;
#325 = CARTESIAN_POINT ( 'NONE',  ( 0.0000000000000000000, 0.0000000000000000000, 1.485000000000000764 ) ) ;
ENDSEC;
END-ISO-10303-21;
