ISO-10303-21;
HEADER;
FILE_DESCRIPTION (( 'STEP AP214' ),
    '1' );
FILE_NAME ('59516.STEP',
    '2023-07-24T15:48:18',
    ( '' ),
    ( '' ),
    'SwSTEP 2.0',
    'SolidWorks 2023',
    '' );
FILE_SCHEMA (( 'AUTOMOTIVE_DESIGN' ));
ENDSEC;

DATA;
#1 = CARTESIAN_POINT ( 'NONE',  ( 1.110933172342116556E-33, 9.000000000000000000, 0.000000000000000000 ) ) ;
#2 = SURFACE_SIDE_STYLE ('',( #273 ) ) ;
#3 = EDGE_CURVE ( 'NONE', #109, #99, #206, .T. ) ;
#4 = CARTESIAN_POINT ( 'NONE',  ( 1.469576158976823750E-15, 63.00000000000000000, 0.000000000000000000 ) ) ;
#5 = AXIS2_PLACEMENT_3D ( 'NONE', #61, #169, #204 ) ;
#6 = FILL_AREA_STYLE ('',( #201 ) ) ;
#7 = EDGE_LOOP ( 'NONE', ( #231, #66 ) ) ;
#8 =( NAMED_UNIT ( * ) SI_UNIT ( $, .STERADIAN. ) SOLID_ANGLE_UNIT ( ) );
#9 = EDGE_CURVE ( 'NONE', #225, #99, #162, .T. ) ;
#10 = SURFACE_SIDE_STYLE ('',( #124 ) ) ;
#11 = CIRCLE ( 'NONE', #214, 3.000000000000000000 ) ;
#12 = DIRECTION ( 'NONE',  ( -1.000000000000000000, 0.000000000000000000, 0.000000000000000000 ) ) ;
#13 = VECTOR ( 'NONE', #100, 1000.000000000000000 ) ;
#14 = DIRECTION ( 'NONE',  ( -0.000000000000000000, -1.000000000000000000, -0.000000000000000000 ) ) ;
#15 = APPLICATION_PROTOCOL_DEFINITION ( 'draft international standard', 'automotive_design', 1998, #139 ) ;
#16 = SURFACE_STYLE_FILL_AREA ( #59 ) ;
#17 = UNCERTAINTY_MEASURE_WITH_UNIT (LENGTH_MEASURE( 1.000000000000000082E-05 ), #65, 'distance_accuracy_value', 'NONE');
#18 = PRODUCT_CONTEXT ( 'NONE', #139, 'mechanical' ) ;
#19 = PRODUCT_RELATED_PRODUCT_CATEGORY ( 'part', '', ( #28 ) ) ;
#20 = FILL_AREA_STYLE_COLOUR ( '', #144 ) ;
#21 = SURFACE_STYLE_FILL_AREA ( #89 ) ;
#22 = STYLED_ITEM ( 'NONE', ( #176 ), #147 ) ;
#23 = FACE_OUTER_BOUND ( 'NONE', #117, .T. ) ;
#24 = ORIENTED_EDGE ( 'NONE', *, *, #63, .F. ) ;
#25 = FILL_AREA_STYLE ('',( #159 ) ) ;
#26 = ORIENTED_EDGE ( 'NONE', *, *, #287, .T. ) ;
#27 = DIRECTION ( 'NONE',  ( -1.000000000000000000, 2.721437331438562546E-17, 0.000000000000000000 ) ) ;
#28 = PRODUCT ( '59516', '59516', '', ( #18 ) ) ;
#29 =( NAMED_UNIT ( * ) SI_UNIT ( $, .STERADIAN. ) SOLID_ANGLE_UNIT ( ) );
#30 = CARTESIAN_POINT ( 'NONE',  ( -2.999999999999997335, 63.00000000000000000, 0.000000000000000000 ) ) ;
#31 = CIRCLE ( 'NONE', #188, 3.000000000000000000 ) ;
#32 =( NAMED_UNIT ( * ) PLANE_ANGLE_UNIT ( ) SI_UNIT ( $, .RADIAN. ) );
#33 = ORIENTED_EDGE ( 'NONE', *, *, #46, .T. ) ;
#34 = EDGE_CURVE ( 'NONE', #153, #225, #254, .T. ) ;
#35 = CARTESIAN_POINT ( 'NONE',  ( 1.469576158976823750E-15, 63.00000000000000000, 0.000000000000000000 ) ) ;
#36 = DIRECTION ( 'NONE',  ( -1.000000000000000000, 0.000000000000000000, 0.000000000000000000 ) ) ;
#37 = CARTESIAN_POINT ( 'NONE',  ( 3.673940397442059868E-16, 0.000000000000000000, 3.000000000000000000 ) ) ;
#38 = ADVANCED_FACE ( 'NONE', ( #79 ), #189, .T. ) ;
#39 = DIRECTION ( 'NONE',  ( 2.721437331438562546E-17, 1.000000000000000000, -0.000000000000000000 ) ) ;
#40 = DIRECTION ( 'NONE',  ( -0.000000000000000000, -1.000000000000000000, -0.000000000000000000 ) ) ;
#41 = ORIENTED_EDGE ( 'NONE', *, *, #267, .T. ) ;
#42 = COLOUR_RGB ( '',1.000000000000000000, 0.000000000000000000, 0.000000000000000000 ) ;
#43 = CARTESIAN_POINT ( 'NONE',  ( 3.673940397442059868E-16, 9.000000000000000000, 3.000000000000000000 ) ) ;
#44 = CIRCLE ( 'NONE', #54, 3.000000000000000000 ) ;
#45 = DIRECTION ( 'NONE',  ( 0.000000000000000000, -0.000000000000000000, 1.000000000000000000 ) ) ;
#46 = EDGE_CURVE ( 'NONE', #76, #128, #44, .T. ) ;
#47 = DIRECTION ( 'NONE',  ( -1.000000000000000000, 0.000000000000000000, 0.000000000000000000 ) ) ;
#48 = COLOUR_RGB ( '',1.000000000000000000, 0.000000000000000000, 0.000000000000000000 ) ;
#49 = ORIENTED_EDGE ( 'NONE', *, *, #103, .T. ) ;
#50 =( NAMED_UNIT ( * ) SI_UNIT ( $, .STERADIAN. ) SOLID_ANGLE_UNIT ( ) );
#51 = CARTESIAN_POINT ( 'NONE',  ( 0.000000000000000000, 0.000000000000000000, 0.000000000000000000 ) ) ;
#52 = PLANE ( 'NONE',  #210 ) ;
#53 = STYLED_ITEM ( 'NONE', ( #91 ), #244 ) ;
#54 = AXIS2_PLACEMENT_3D ( 'NONE', #163, #39, #36 ) ;
#55 = CARTESIAN_POINT ( 'NONE',  ( 0.000000000000000000, 0.000000000000000000, 0.000000000000000000 ) ) ;
#56 = FACE_OUTER_BOUND ( 'NONE', #277, .T. ) ;
#57 =( LENGTH_UNIT ( ) NAMED_UNIT ( * ) SI_UNIT ( .MILLI., .METRE. ) );
#58 = ORIENTED_EDGE ( 'NONE', *, *, #3, .F. ) ;
#59 = FILL_AREA_STYLE ('',( #208 ) ) ;
#60 = UNCERTAINTY_MEASURE_WITH_UNIT (LENGTH_MEASURE( 1.000000000000000082E-05 ), #275, 'distance_accuracy_value', 'NONE');
#61 = CARTESIAN_POINT ( 'NONE',  ( 0.000000000000000000, 0.000000000000000000, 0.000000000000000000 ) ) ;
#62 = LINE ( 'NONE', #84, #199 ) ;
#63 = EDGE_CURVE ( 'NONE', #128, #219, #62, .T. ) ;
#64 = ADVANCED_FACE ( 'NONE', ( #167 ), #121, .T. ) ;
#65 =( LENGTH_UNIT ( ) NAMED_UNIT ( * ) SI_UNIT ( .MILLI., .METRE. ) );
#66 = ORIENTED_EDGE ( 'NONE', *, *, #249, .F. ) ;
#67 = CARTESIAN_POINT ( 'NONE',  ( 0.000000000000000000, 0.000000000000000000, -3.000000000000000000 ) ) ;
#68 = PRODUCT_DEFINITION_SHAPE ( 'NONE', 'NONE',  #155 ) ;
#69 = PRESENTATION_STYLE_ASSIGNMENT (( #270 ) ) ;
#70 = DIRECTION ( 'NONE',  ( -0.000000000000000000, -1.000000000000000000, -0.000000000000000000 ) ) ;
#71 = CARTESIAN_POINT ( 'NONE',  ( 3.000000000000000000, 63.00000000000000000, 0.000000000000000000 ) ) ;
#72 = CIRCLE ( 'NONE', #271, 2.999999999999998668 ) ;
#73 = PRESENTATION_LAYER_ASSIGNMENT (  '', '', ( #191 ) ) ;
#74 = AXIS2_PLACEMENT_3D ( 'NONE', #228, #96, #274 ) ;
#75 = DIRECTION ( 'NONE',  ( 2.721437331438562546E-17, 1.000000000000000000, -0.000000000000000000 ) ) ;
#76 = VERTEX_POINT ( 'NONE', #239 ) ;
#77 = PRESENTATION_LAYER_ASSIGNMENT (  '', '', ( #138 ) ) ;
#78 = DIRECTION ( 'NONE',  ( -1.000000000000000000, 0.000000000000000000, 0.000000000000000000 ) ) ;
#79 = FACE_OUTER_BOUND ( 'NONE', #175, .T. ) ;
#80 = DIRECTION ( 'NONE',  ( -1.000000000000000000, 0.000000000000000000, 0.000000000000000000 ) ) ;
#81 =( NAMED_UNIT ( * ) PLANE_ANGLE_UNIT ( ) SI_UNIT ( $, .RADIAN. ) );
#82 = MECHANICAL_DESIGN_GEOMETRIC_PRESENTATION_REPRESENTATION (  '', ( #53 ), #88 ) ;
#83 = MECHANICAL_DESIGN_GEOMETRIC_PRESENTATION_REPRESENTATION (  '', ( #191 ), #259 ) ;
#84 = CARTESIAN_POINT ( 'NONE',  ( 3.000000000000000444, 63.00000000000000000, 3.673940397442058882E-16 ) ) ;
#85 = ORIENTED_EDGE ( 'NONE', *, *, #249, .T. ) ;
#86 = PRESENTATION_STYLE_ASSIGNMENT (( #146 ) ) ;
#87 = SURFACE_STYLE_FILL_AREA ( #264 ) ;
#88 =( GEOMETRIC_REPRESENTATION_CONTEXT ( 3 ) GLOBAL_UNCERTAINTY_ASSIGNED_CONTEXT ( ( #243 ) ) GLOBAL_UNIT_ASSIGNED_CONTEXT ( ( #92, #32, #8 ) ) REPRESENTATION_CONTEXT ( 'NONE', 'WORKASPACE' ) );
#89 = FILL_AREA_STYLE ('',( #127 ) ) ;
#90 = CLOSED_SHELL ( 'NONE', ( #173, #64, #195, #38 ) ) ;
#91 = PRESENTATION_STYLE_ASSIGNMENT (( #218 ) ) ;
#92 =( LENGTH_UNIT ( ) NAMED_UNIT ( * ) SI_UNIT ( .MILLI., .METRE. ) );
#93 = DIRECTION ( 'NONE',  ( 1.000000000000000000, -2.721437331438562546E-17, 0.000000000000000000 ) ) ;
#94 = SURFACE_SIDE_STYLE ('',( #112 ) ) ;
#95 = CYLINDRICAL_SURFACE ( 'NONE', #156, 2.999999999999999112 ) ;
#96 = DIRECTION ( 'NONE',  ( -0.000000000000000000, -1.000000000000000000, -0.000000000000000000 ) ) ;
#97 = SURFACE_STYLE_USAGE ( .BOTH. , #10 ) ;
#98 = PRESENTATION_LAYER_ASSIGNMENT (  '', '', ( #53 ) ) ;
#99 = VERTEX_POINT ( 'NONE', #67 ) ;
#100 = DIRECTION ( 'NONE',  ( -0.000000000000000000, -1.000000000000000000, -0.000000000000000000 ) ) ;
#101 = PRESENTATION_LAYER_ASSIGNMENT (  '', '', ( #22 ) ) ;
#102 = PRESENTATION_STYLE_ASSIGNMENT (( #97 ) ) ;
#103 = EDGE_CURVE ( 'NONE', #76, #180, #286, .T. ) ;
#104 =( LENGTH_UNIT ( ) NAMED_UNIT ( * ) SI_UNIT ( .MILLI., .METRE. ) );
#105 = CIRCLE ( 'NONE', #190, 3.000000000000000000 ) ;
#106 = VECTOR ( 'NONE', #40, 1000.000000000000000 ) ;
#107 = SURFACE_SIDE_STYLE ('',( #21 ) ) ;
#108 = ORIENTED_EDGE ( 'NONE', *, *, #287, .F. ) ;
#109 = VERTEX_POINT ( 'NONE', #125 ) ;
#110 =( NAMED_UNIT ( * ) PLANE_ANGLE_UNIT ( ) SI_UNIT ( $, .RADIAN. ) );
#111 = MECHANICAL_DESIGN_GEOMETRIC_PRESENTATION_REPRESENTATION (  '', ( #138 ), #132 ) ;
#112 = SURFACE_STYLE_FILL_AREA ( #6 ) ;
#113 = DIRECTION ( 'NONE',  ( -2.721437331438562546E-17, -1.000000000000000000, 0.000000000000000000 ) ) ;
#114 = DIRECTION ( 'NONE',  ( -0.000000000000000000, -1.000000000000000000, -0.000000000000000000 ) ) ;
#115 = MECHANICAL_DESIGN_GEOMETRIC_PRESENTATION_REPRESENTATION (  '', ( #284 ), #229 ) ;
#116 = AXIS2_PLACEMENT_3D ( 'NONE', #237, #212, #47 ) ;
#117 = EDGE_LOOP ( 'NONE', ( #160, #207, #151, #58 ) ) ;
#118 = ORIENTED_EDGE ( 'NONE', *, *, #63, .T. ) ;
#119 = PRESENTATION_LAYER_ASSIGNMENT (  '', '', ( #284 ) ) ;
#120 =( GEOMETRIC_REPRESENTATION_CONTEXT ( 3 ) GLOBAL_UNCERTAINTY_ASSIGNED_CONTEXT ( ( #145 ) ) GLOBAL_UNIT_ASSIGNED_CONTEXT ( ( #129, #150, #50 ) ) REPRESENTATION_CONTEXT ( 'NONE', 'WORKASPACE' ) );
#121 = PLANE ( 'NONE',  #236 ) ;
#122 =( NAMED_UNIT ( * ) SI_UNIT ( $, .STERADIAN. ) SOLID_ANGLE_UNIT ( ) );
#123 = DIRECTION ( 'NONE',  ( 0.000000000000000000, 0.000000000000000000, -1.000000000000000000 ) ) ;
#124 = SURFACE_STYLE_FILL_AREA ( #257 ) ;
#125 = CARTESIAN_POINT ( 'NONE',  ( 0.000000000000000000, 9.000000000000000000, -3.000000000000000000 ) ) ;
#126 = EDGE_CURVE ( 'NONE', #180, #219, #285, .T. ) ;
#127 = FILL_AREA_STYLE_COLOUR ( '', #266 ) ;
#128 = VERTEX_POINT ( 'NONE', #242 ) ;
#129 =( LENGTH_UNIT ( ) NAMED_UNIT ( * ) SI_UNIT ( .MILLI., .METRE. ) );
#130 = PLANE ( 'NONE',  #177 ) ;
#131 = ORIENTED_EDGE ( 'NONE', *, *, #34, .F. ) ;
#132 =( GEOMETRIC_REPRESENTATION_CONTEXT ( 3 ) GLOBAL_UNCERTAINTY_ASSIGNED_CONTEXT ( ( #211 ) ) GLOBAL_UNIT_ASSIGNED_CONTEXT ( ( #104, #234, #194 ) ) REPRESENTATION_CONTEXT ( 'NONE', 'WORKASPACE' ) );
#133 = FACE_OUTER_BOUND ( 'NONE', #7, .T. ) ;
#134 = PRESENTATION_LAYER_ASSIGNMENT (  '', '', ( #148 ) ) ;
#135 = CYLINDRICAL_SURFACE ( 'NONE', #256, 3.000000000000000000 ) ;
#136 = DIRECTION ( 'NONE',  ( -0.000000000000000000, -1.000000000000000000, -0.000000000000000000 ) ) ;
#137 = CARTESIAN_POINT ( 'NONE',  ( 3.673940397442059868E-16, 0.000000000000000000, 3.000000000000000000 ) ) ;
#138 = STYLED_ITEM ( 'NONE', ( #86 ), #173 ) ;
#139 = APPLICATION_CONTEXT ( 'automotive_design' ) ;
#140 = DIRECTION ( 'NONE',  ( 0.000000000000000000, -1.000000000000000000, -0.000000000000000000 ) ) ;
#141 = CARTESIAN_POINT ( 'NONE',  ( 1.469576158976823750E-15, 63.00000000000000000, 0.000000000000000000 ) ) ;
#142 = ORIENTED_EDGE ( 'NONE', *, *, #9, .F. ) ;
#143 = DIRECTION ( 'NONE',  ( 0.000000000000000000, 0.000000000000000000, -1.000000000000000000 ) ) ;
#144 = COLOUR_RGB ( '',0.7921568627450980005, 0.8196078431372548767, 0.9333333333333333481 ) ;
#145 = UNCERTAINTY_MEASURE_WITH_UNIT (LENGTH_MEASURE( 1.000000000000000082E-05 ), #129, 'distance_accuracy_value', 'NONE');
#146 = SURFACE_STYLE_USAGE ( .BOTH. , #107 ) ;
#147 = MANIFOLD_SOLID_BREP ( 'Revolve - Cutting Edge', #90 ) ;
#148 = STYLED_ITEM ( 'NONE', ( #102 ), #64 ) ;
#149 = DIRECTION ( 'NONE',  ( 0.000000000000000000, 1.000000000000000000, 0.000000000000000000 ) ) ;
#150 =( NAMED_UNIT ( * ) PLANE_ANGLE_UNIT ( ) SI_UNIT ( $, .RADIAN. ) );
#151 = ORIENTED_EDGE ( 'NONE', *, *, #238, .F. ) ;
#152 =( GEOMETRIC_REPRESENTATION_CONTEXT ( 3 ) GLOBAL_UNCERTAINTY_ASSIGNED_CONTEXT ( ( #17 ) ) GLOBAL_UNIT_ASSIGNED_CONTEXT ( ( #65, #196, #283 ) ) REPRESENTATION_CONTEXT ( 'NONE', 'WORKASPACE' ) );
#153 = VERTEX_POINT ( 'NONE', #43 ) ;
#154 = FACE_OUTER_BOUND ( 'NONE', #251, .T. ) ;
#155 = PRODUCT_DEFINITION ( 'UNKNOWN', '', #265, #263 ) ;
#156 = AXIS2_PLACEMENT_3D ( 'NONE', #4, #75, #268 ) ;
#157 = ADVANCED_BREP_SHAPE_REPRESENTATION ( '59516', ( #147, #244, #5 ), #230 ) ;
#158 = CARTESIAN_POINT ( 'NONE',  ( 0.000000000000000000, 0.000000000000000000, 0.000000000000000000 ) ) ;
#159 = FILL_AREA_STYLE_COLOUR ( '', #42 ) ;
#160 = ORIENTED_EDGE ( 'NONE', *, *, #166, .T. ) ;
#161 = DIRECTION ( 'NONE',  ( 2.721437331438562546E-17, 1.000000000000000000, -0.000000000000000000 ) ) ;
#162 = CIRCLE ( 'NONE', #192, 3.000000000000000000 ) ;
#163 = CARTESIAN_POINT ( 'NONE',  ( 0.000000000000000000, 9.000000000000001776, 0.000000000000000000 ) ) ;
#164 = FACE_OUTER_BOUND ( 'NONE', #182, .T. ) ;
#165 =( NAMED_UNIT ( * ) SI_UNIT ( $, .STERADIAN. ) SOLID_ANGLE_UNIT ( ) );
#166 = EDGE_CURVE ( 'NONE', #109, #153, #31, .T. ) ;
#167 = FACE_OUTER_BOUND ( 'NONE', #245, .T. ) ;
#168 = CIRCLE ( 'NONE', #74, 3.000000000000000000 ) ;
#169 = DIRECTION ( 'NONE',  ( 0.000000000000000000, 0.000000000000000000, 1.000000000000000000 ) ) ;
#170 = CARTESIAN_POINT ( 'NONE',  ( 0.000000000000000000, 0.000000000000000000, 0.000000000000000000 ) ) ;
#171 = SURFACE_STYLE_USAGE ( .BOTH. , #216 ) ;
#172 = ORIENTED_EDGE ( 'NONE', *, *, #3, .T. ) ;
#173 = ADVANCED_FACE ( 'NONE', ( #23 ), #197, .T. ) ;
#174 = DIRECTION ( 'NONE',  ( 2.721437331438562546E-17, 1.000000000000000000, -0.000000000000000000 ) ) ;
#175 = EDGE_LOOP ( 'NONE', ( #203, #253 ) ) ;
#176 = PRESENTATION_STYLE_ASSIGNMENT (( #171 ) ) ;
#177 = AXIS2_PLACEMENT_3D ( 'NONE', #1, #250, #27 ) ;
#178 = CARTESIAN_POINT ( 'NONE',  ( 3.000000000000000444, 63.00000000000000000, 3.673940397442059868E-16 ) ) ;
#179 = MECHANICAL_DESIGN_GEOMETRIC_PRESENTATION_REPRESENTATION (  '', ( #22 ), #152 ) ;
#180 = VERTEX_POINT ( 'NONE', #30 ) ;
#181 = ORIENTED_EDGE ( 'NONE', *, *, #166, .F. ) ;
#182 = EDGE_LOOP ( 'NONE', ( #33, #118, #233, #255 ) ) ;
#183 = DIRECTION ( 'NONE',  ( 2.721437331438562546E-17, 1.000000000000000000, -0.000000000000000000 ) ) ;
#184 = ADVANCED_FACE ( 'NONE', ( #200 ), #95, .T. ) ;
#185 =( NAMED_UNIT ( * ) PLANE_ANGLE_UNIT ( ) SI_UNIT ( $, .RADIAN. ) );
#186 = SURFACE_SIDE_STYLE ('',( #16 ) ) ;
#187 = CARTESIAN_POINT ( 'NONE',  ( 0.000000000000000000, 0.000000000000000000, 0.000000000000000000 ) ) ;
#188 = AXIS2_PLACEMENT_3D ( 'NONE', #261, #215, #288 ) ;
#189 = PLANE ( 'NONE',  #202 ) ;
#190 = AXIS2_PLACEMENT_3D ( 'NONE', #223, #224, #78 ) ;
#191 = STYLED_ITEM ( 'NONE', ( #258 ), #38 ) ;
#192 = AXIS2_PLACEMENT_3D ( 'NONE', #170, #14, #123 ) ;
#193 = APPLICATION_CONTEXT ( 'automotive_design' ) ;
#194 =( NAMED_UNIT ( * ) SI_UNIT ( $, .STERADIAN. ) SOLID_ANGLE_UNIT ( ) );
#195 = ADVANCED_FACE ( 'NONE', ( #154 ), #135, .T. ) ;
#196 =( NAMED_UNIT ( * ) PLANE_ANGLE_UNIT ( ) SI_UNIT ( $, .RADIAN. ) );
#197 = CYLINDRICAL_SURFACE ( 'NONE', #248, 3.000000000000000000 ) ;
#198 = AXIS2_PLACEMENT_3D ( 'NONE', #35, #252, #80 ) ;
#199 = VECTOR ( 'NONE', #183, 1000.000000000000000 ) ;
#200 = FACE_OUTER_BOUND ( 'NONE', #217, .T. ) ;
#201 = FILL_AREA_STYLE_COLOUR ( '', #235 ) ;
#202 = AXIS2_PLACEMENT_3D ( 'NONE', #187, #140, #143 ) ;
#203 = ORIENTED_EDGE ( 'NONE', *, *, #238, .T. ) ;
#204 = DIRECTION ( 'NONE',  ( 1.000000000000000000, 0.000000000000000000, 0.000000000000000000 ) ) ;
#205 = ADVANCED_FACE ( 'NONE', ( #56 ), #52, .F. ) ;
#206 = LINE ( 'NONE', #227, #106 ) ;
#207 = ORIENTED_EDGE ( 'NONE', *, *, #34, .T. ) ;
#208 = FILL_AREA_STYLE_COLOUR ( '', #48 ) ;
#209 = SURFACE_STYLE_USAGE ( .BOTH. , #186 ) ;
#210 = AXIS2_PLACEMENT_3D ( 'NONE', #71, #113, #93 ) ;
#211 = UNCERTAINTY_MEASURE_WITH_UNIT (LENGTH_MEASURE( 1.000000000000000082E-05 ), #104, 'distance_accuracy_value', 'NONE');
#212 = DIRECTION ( 'NONE',  ( 2.721437331438562546E-17, 1.000000000000000000, -0.000000000000000000 ) ) ;
#213 = CARTESIAN_POINT ( 'NONE',  ( 0.000000000000000000, 9.000000000000000000, 0.000000000000000000 ) ) ;
#214 = AXIS2_PLACEMENT_3D ( 'NONE', #55, #136, #221 ) ;
#215 = DIRECTION ( 'NONE',  ( -0.000000000000000000, -1.000000000000000000, -0.000000000000000000 ) ) ;
#216 = SURFACE_SIDE_STYLE ('',( #87 ) ) ;
#217 = EDGE_LOOP ( 'NONE', ( #24, #85, #49, #280 ) ) ;
#218 = SURFACE_STYLE_USAGE ( .BOTH. , #94 ) ;
#219 = VERTEX_POINT ( 'NONE', #178 ) ;
#220 = CLOSED_SHELL ( 'NONE', ( #278, #226, #184, #205 ) ) ;
#221 = DIRECTION ( 'NONE',  ( 0.000000000000000000, 0.000000000000000000, -1.000000000000000000 ) ) ;
#222 = DIRECTION ( 'NONE',  ( 0.000000000000000000, 0.000000000000000000, -1.000000000000000000 ) ) ;
#223 = CARTESIAN_POINT ( 'NONE',  ( 0.000000000000000000, 9.000000000000001776, 0.000000000000000000 ) ) ;
#224 = DIRECTION ( 'NONE',  ( 2.721437331438562546E-17, 1.000000000000000000, -0.000000000000000000 ) ) ;
#225 = VERTEX_POINT ( 'NONE', #137 ) ;
#226 = ADVANCED_FACE ( 'NONE', ( #133 ), #130, .F. ) ;
#227 = CARTESIAN_POINT ( 'NONE',  ( 0.000000000000000000, 0.000000000000000000, -3.000000000000000000 ) ) ;
#228 = CARTESIAN_POINT ( 'NONE',  ( 0.000000000000000000, 9.000000000000000000, 0.000000000000000000 ) ) ;
#229 =( GEOMETRIC_REPRESENTATION_CONTEXT ( 3 ) GLOBAL_UNCERTAINTY_ASSIGNED_CONTEXT ( ( #262 ) ) GLOBAL_UNIT_ASSIGNED_CONTEXT ( ( #269, #110, #29 ) ) REPRESENTATION_CONTEXT ( 'NONE', 'WORKASPACE' ) );
#230 =( GEOMETRIC_REPRESENTATION_CONTEXT ( 3 ) GLOBAL_UNCERTAINTY_ASSIGNED_CONTEXT ( ( #246 ) ) GLOBAL_UNIT_ASSIGNED_CONTEXT ( ( #57, #185, #122 ) ) REPRESENTATION_CONTEXT ( 'NONE', 'WORKASPACE' ) );
#231 = ORIENTED_EDGE ( 'NONE', *, *, #46, .F. ) ;
#232 = APPLICATION_PROTOCOL_DEFINITION ( 'draft international standard', 'automotive_design', 1998, #193 ) ;
#233 = ORIENTED_EDGE ( 'NONE', *, *, #126, .F. ) ;
#234 =( NAMED_UNIT ( * ) PLANE_ANGLE_UNIT ( ) SI_UNIT ( $, .RADIAN. ) );
#235 = COLOUR_RGB ( '',0.7921568627450980005, 0.8196078431372548767, 0.9333333333333333481 ) ;
#236 = AXIS2_PLACEMENT_3D ( 'NONE', #213, #149, #45 ) ;
#237 = CARTESIAN_POINT ( 'NONE',  ( 1.469576158976823750E-15, 63.00000000000000000, 0.000000000000000000 ) ) ;
#238 = EDGE_CURVE ( 'NONE', #99, #225, #11, .T. ) ;
#239 = CARTESIAN_POINT ( 'NONE',  ( -3.000000000000000000, 9.000000000000001776, 0.000000000000000000 ) ) ;
#240 = ORIENTED_EDGE ( 'NONE', *, *, #126, .T. ) ;
#241 = VECTOR ( 'NONE', #174, 1000.000000000000000 ) ;
#242 = CARTESIAN_POINT ( 'NONE',  ( 3.000000000000000444, 9.000000000000001776, 3.673940397442059868E-16 ) ) ;
#243 = UNCERTAINTY_MEASURE_WITH_UNIT (LENGTH_MEASURE( 1.000000000000000082E-05 ), #92, 'distance_accuracy_value', 'NONE');
#244 = MANIFOLD_SOLID_BREP ( 'Revolve - Tool Body (Straight Shanked)', #220 ) ;
#245 = EDGE_LOOP ( 'NONE', ( #181, #108 ) ) ;
#246 = UNCERTAINTY_MEASURE_WITH_UNIT (LENGTH_MEASURE( 1.000000000000000082E-05 ), #57, 'distance_accuracy_value', 'NONE');
#247 = DIRECTION ( 'NONE',  ( 0.000000000000000000, 0.000000000000000000, -1.000000000000000000 ) ) ;
#248 = AXIS2_PLACEMENT_3D ( 'NONE', #51, #70, #222 ) ;
#249 = EDGE_CURVE ( 'NONE', #128, #76, #105, .T. ) ;
#250 = DIRECTION ( 'NONE',  ( 2.721437331438562546E-17, 1.000000000000000000, -0.000000000000000000 ) ) ;
#251 = EDGE_LOOP ( 'NONE', ( #131, #26, #172, #142 ) ) ;
#252 = DIRECTION ( 'NONE',  ( 2.721437331438562546E-17, 1.000000000000000000, -0.000000000000000000 ) ) ;
#253 = ORIENTED_EDGE ( 'NONE', *, *, #9, .T. ) ;
#254 = LINE ( 'NONE', #37, #13 ) ;
#255 = ORIENTED_EDGE ( 'NONE', *, *, #103, .F. ) ;
#256 = AXIS2_PLACEMENT_3D ( 'NONE', #158, #114, #247 ) ;
#257 = FILL_AREA_STYLE ('',( #282 ) ) ;
#258 = PRESENTATION_STYLE_ASSIGNMENT (( #209 ) ) ;
#259 =( GEOMETRIC_REPRESENTATION_CONTEXT ( 3 ) GLOBAL_UNCERTAINTY_ASSIGNED_CONTEXT ( ( #60 ) ) GLOBAL_UNIT_ASSIGNED_CONTEXT ( ( #275, #81, #165 ) ) REPRESENTATION_CONTEXT ( 'NONE', 'WORKASPACE' ) );
#260 = CARTESIAN_POINT ( 'NONE',  ( -2.999999999999997780, 63.00000000000000000, 0.000000000000000000 ) ) ;
#261 = CARTESIAN_POINT ( 'NONE',  ( 0.000000000000000000, 9.000000000000000000, 0.000000000000000000 ) ) ;
#262 = UNCERTAINTY_MEASURE_WITH_UNIT (LENGTH_MEASURE( 1.000000000000000082E-05 ), #269, 'distance_accuracy_value', 'NONE');
#263 = PRODUCT_DEFINITION_CONTEXT ( 'detailed design', #193, 'design' ) ;
#264 = FILL_AREA_STYLE ('',( #20 ) ) ;
#265 = PRODUCT_DEFINITION_FORMATION_WITH_SPECIFIED_SOURCE ( 'ANY', '', #28, .NOT_KNOWN. ) ;
#266 = COLOUR_RGB ( '',1.000000000000000000, 0.000000000000000000, 0.000000000000000000 ) ;
#267 = EDGE_CURVE ( 'NONE', #219, #180, #72, .T. ) ;
#268 = DIRECTION ( 'NONE',  ( -1.000000000000000000, 0.000000000000000000, 0.000000000000000000 ) ) ;
#269 =( LENGTH_UNIT ( ) NAMED_UNIT ( * ) SI_UNIT ( .MILLI., .METRE. ) );
#270 = SURFACE_STYLE_USAGE ( .BOTH. , #2 ) ;
#271 = AXIS2_PLACEMENT_3D ( 'NONE', #141, #161, #12 ) ;
#272 = MECHANICAL_DESIGN_GEOMETRIC_PRESENTATION_REPRESENTATION (  '', ( #148 ), #120 ) ;
#273 = SURFACE_STYLE_FILL_AREA ( #25 ) ;
#274 = DIRECTION ( 'NONE',  ( 0.000000000000000000, 0.000000000000000000, -1.000000000000000000 ) ) ;
#275 =( LENGTH_UNIT ( ) NAMED_UNIT ( * ) SI_UNIT ( .MILLI., .METRE. ) );
#276 = SHAPE_DEFINITION_REPRESENTATION ( #68, #157 ) ;
#277 = EDGE_LOOP ( 'NONE', ( #240, #41 ) ) ;
#278 = ADVANCED_FACE ( 'NONE', ( #164 ), #279, .T. ) ;
#279 = CYLINDRICAL_SURFACE ( 'NONE', #198, 2.999999999999999112 ) ;
#280 = ORIENTED_EDGE ( 'NONE', *, *, #267, .F. ) ;
#281 = COLOUR_RGB ( '',1.000000000000000000, 0.000000000000000000, 0.000000000000000000 ) ;
#282 = FILL_AREA_STYLE_COLOUR ( '', #281 ) ;
#283 =( NAMED_UNIT ( * ) SI_UNIT ( $, .STERADIAN. ) SOLID_ANGLE_UNIT ( ) );
#284 = STYLED_ITEM ( 'NONE', ( #69 ), #195 ) ;
#285 = CIRCLE ( 'NONE', #116, 2.999999999999998668 ) ;
#286 = LINE ( 'NONE', #260, #241 ) ;
#287 = EDGE_CURVE ( 'NONE', #153, #109, #168, .T. ) ;
#288 = DIRECTION ( 'NONE',  ( 0.000000000000000000, 0.000000000000000000, -1.000000000000000000 ) ) ;
ENDSEC;
END-ISO-10303-21;
