ISO-10303-21;
HEADER;
FILE_DESCRIPTION (( 'STEP AP214' ),
    '1' );
FILE_NAME ('Micro_SEM-312-02X.STEP',
    '2021-09-02T02:47:52',
    ( '' ),
    ( '' ),
    'SwSTEP 2.0',
    'SolidWorks 2020',
    '' );
FILE_SCHEMA (( 'AUTOMOTIVE_DESIGN' ));
ENDSEC;

DATA;
#1 = CIRCLE ( 'NONE', #165, 0.1560937499999999478 ) ;
#2 = DIRECTION ( 'NONE',  ( -1.000000000000000000, 0.0000000000000000000, 1.224646799147353454E-16 ) ) ;
#3 = DIRECTION ( 'NONE',  ( 1.000000000000000000, 0.0000000000000000000, 0.0000000000000000000 ) ) ;
#4 = AXIS2_PLACEMENT_3D ( 'NONE', #284, #127, #11 ) ;
#5 = ADVANCED_FACE ( 'NONE', ( #18 ), #80, .T. ) ;
#6 = EDGE_CURVE ( 'NONE', #179, #290, #130, .T. ) ;
#7 = CARTESIAN_POINT ( 'NONE',  ( -0.1562500000000000000, 0.0000000000000000000, 1.984999999999999654 ) ) ;
#8 = FACE_OUTER_BOUND ( 'NONE', #129, .T. ) ;
#9 = DIRECTION ( 'NONE',  ( -1.224646799147353207E-16, -0.0000000000000000000, -1.000000000000000000 ) ) ;
#10 = VERTEX_POINT ( 'NONE', #21 ) ;
#11 = DIRECTION ( 'NONE',  ( -1.000000000000000000, 0.0000000000000000000, 0.0000000000000000000 ) ) ;
#12 = DIMENSIONAL_EXPONENTS ( 1.000000000000000000, 0.0000000000000000000, 0.0000000000000000000, 0.0000000000000000000, 0.0000000000000000000, 0.0000000000000000000, 0.0000000000000000000 ) ;
#13 = LINE ( 'NONE', #63, #186 ) ;
#14 = DIRECTION ( 'NONE',  ( -0.0000000000000000000, -0.0000000000000000000, -1.000000000000000000 ) ) ;
#15 = VECTOR ( 'NONE', #132, 39.37007874015748143 ) ;
#16 = AXIS2_PLACEMENT_3D ( 'NONE', #39, #131, #101 ) ;
#17 =( NAMED_UNIT ( * ) PLANE_ANGLE_UNIT ( ) SI_UNIT ( $, .RADIAN. ) );
#18 = FACE_OUTER_BOUND ( 'NONE', #264, .T. ) ;
#19 = DIRECTION ( 'NONE',  ( -1.224646799147353207E-16, -0.0000000000000000000, -1.000000000000000000 ) ) ;
#20 = DIRECTION ( 'NONE',  ( -1.000000000000000000, 0.0000000000000000000, 0.0000000000000000000 ) ) ;
#21 = CARTESIAN_POINT ( 'NONE',  ( -0.1412499999999997646, 0.0000000000000000000, 2.000000000000000000 ) ) ;
#22 = DIMENSIONAL_EXPONENTS ( 1.000000000000000000, 0.0000000000000000000, 0.0000000000000000000, 0.0000000000000000000, 0.0000000000000000000, 0.0000000000000000000, 0.0000000000000000000 ) ;
#23 = ORIENTED_EDGE ( 'NONE', *, *, #245, .F. ) ;
#24 = AXIS2_PLACEMENT_3D ( 'NONE', #243, #99, #84 ) ;
#25 = DIRECTION ( 'NONE',  ( 0.0000000000000000000, 0.0000000000000000000, 1.000000000000000000 ) ) ;
#26 = EDGE_CURVE ( 'NONE', #10, #145, #51, .T. ) ;
#27 = FACE_OUTER_BOUND ( 'NONE', #62, .T. ) ;
#28 = COLOUR_RGB ( '',0.7921568627450980005, 0.8196078431372548767, 0.9333333333333333481 ) ;
#29 = DIRECTION ( 'NONE',  ( -1.000000000000000000, 0.0000000000000000000, 0.0000000000000000000 ) ) ;
#30 = CONICAL_SURFACE ( 'NONE', #167, 0.1560937499999999478, 0.1745329251994339470 ) ;
#31 = PRODUCT_DEFINITION_FORMATION_WITH_SPECIFIED_SOURCE ( 'ANY', '', #261, .NOT_KNOWN. ) ;
#32 = ORIENTED_EDGE ( 'NONE', *, *, #75, .T. ) ;
#33 = ORIENTED_EDGE ( 'NONE', *, *, #281, .F. ) ;
#34 = VERTEX_POINT ( 'NONE', #175 ) ;
#35 = UNCERTAINTY_MEASURE_WITH_UNIT (LENGTH_MEASURE( 1.000000000000000082E-05 ), #178, 'distance_accuracy_value', 'NONE');
#36 = AXIS2_PLACEMENT_3D ( 'NONE', #119, #218, #3 ) ;
#37 = CARTESIAN_POINT ( 'NONE',  ( 0.1412499999999997646, 1.821662113731686019E-17, 2.000000000000000000 ) ) ;
#38 = PLANE ( 'NONE',  #296 ) ;
#39 = CARTESIAN_POINT ( 'NONE',  ( 0.0000000000000000000, 0.0000000000000000000, 2.000000000000000000 ) ) ;
#40 = DIRECTION ( 'NONE',  ( 1.000000000000000000, 0.0000000000000000000, -0.0000000000000000000 ) ) ;
#41 = DIRECTION ( 'NONE',  ( -1.000000000000000000, 0.0000000000000000000, 0.0000000000000000000 ) ) ;
#42 = LENGTH_MEASURE_WITH_UNIT ( LENGTH_MEASURE( 0.02539999999999999897 ), #286 );
#43 = ORIENTED_EDGE ( 'NONE', *, *, #68, .T. ) ;
#44 = CONICAL_SURFACE ( 'NONE', #4, 0.1412499999999997646, 0.7853981633974482790 ) ;
#45 = DIRECTION ( 'NONE',  ( -0.0000000000000000000, -0.0000000000000000000, -1.000000000000000000 ) ) ;
#46 = EDGE_LOOP ( 'NONE', ( #33, #85, #205, #87 ) ) ;
#47 = EDGE_LOOP ( 'NONE', ( #168, #200, #121, #72 ) ) ;
#48 = CIRCLE ( 'NONE', #36, 0.1562500000000000000 ) ;
#49 = CYLINDRICAL_SURFACE ( 'NONE', #288, 0.1560937499999999478 ) ;
#50 = DIRECTION ( 'NONE',  ( 1.000000000000000000, 0.0000000000000000000, 0.0000000000000000000 ) ) ;
#51 = CIRCLE ( 'NONE', #16, 0.1412499999999997646 ) ;
#52 =( CONVERSION_BASED_UNIT ( 'INCH', #274 ) LENGTH_UNIT ( ) NAMED_UNIT ( #22 ) );
#53 = APPLICATION_CONTEXT ( 'automotive_design' ) ;
#54 = CYLINDRICAL_SURFACE ( 'NONE', #24, 0.1562500000000000000 ) ;
#55 = DIRECTION ( 'NONE',  ( 0.0000000000000000000, 0.0000000000000000000, 1.000000000000000000 ) ) ;
#56 = CARTESIAN_POINT ( 'NONE',  ( 6.123233995736766036E-17, 0.0000000000000000000, 0.5000000000000000000 ) ) ;
#57 = VERTEX_POINT ( 'NONE', #110 ) ;
#58 = ADVANCED_FACE ( 'NONE', ( #155 ), #207, .T. ) ;
#59 = AXIS2_PLACEMENT_3D ( 'NONE', #253, #55, #61 ) ;
#60 = LINE ( 'NONE', #246, #275 ) ;
#61 = DIRECTION ( 'NONE',  ( 1.000000000000000000, 0.0000000000000000000, -0.0000000000000000000 ) ) ;
#62 = EDGE_LOOP ( 'NONE', ( #225, #271, #196, #228 ) ) ;
#63 = CARTESIAN_POINT ( 'NONE',  ( -0.1560937499999999478, 0.0000000000000000000, 1.911597113044071073E-17 ) ) ;
#64 = DIMENSIONAL_EXPONENTS ( 1.000000000000000000, 0.0000000000000000000, 0.0000000000000000000, 0.0000000000000000000, 0.0000000000000000000, 0.0000000000000000000, 0.0000000000000000000 ) ;
#65 = EDGE_LOOP ( 'NONE', ( #23, #76, #152, #174 ) ) ;
#66 = MANIFOLD_SOLID_BREP ( 'Cut-Revolve1', #193 ) ;
#67 = CONICAL_SURFACE ( 'NONE', #202, 0.1560937499999999478, 0.1745329251994339470 ) ;
#68 = EDGE_CURVE ( 'NONE', #34, #267, #237, .T. ) ;
#69 = SURFACE_STYLE_FILL_AREA ( #257 ) ;
#70 = APPLICATION_PROTOCOL_DEFINITION ( 'draft international standard', 'automotive_design', 1998, #142 ) ;
#71 = VECTOR ( 'NONE', #9, 39.37007874015748143 ) ;
#72 = ORIENTED_EDGE ( 'NONE', *, *, #255, .F. ) ;
#73 = ADVANCED_FACE ( 'NONE', ( #138 ), #30, .T. ) ;
#74 = AXIS2_PLACEMENT_3D ( 'NONE', #100, #230, #20 ) ;
#75 = EDGE_CURVE ( 'NONE', #57, #250, #1, .T. ) ;
#76 = ORIENTED_EDGE ( 'NONE', *, *, #120, .T. ) ;
#77 = DIRECTION ( 'NONE',  ( -0.7071067811865475727, 0.0000000000000000000, -0.7071067811865474617 ) ) ;
#78 = ORIENTED_EDGE ( 'NONE', *, *, #255, .T. ) ;
#79 = EDGE_CURVE ( 'NONE', #269, #159, #48, .T. ) ;
#80 = PLANE ( 'NONE',  #59 ) ;
#81 = CARTESIAN_POINT ( 'NONE',  ( -0.1560937499999998923, 1.911597113044071073E-17, 0.5000000000000000000 ) ) ;
#82 = DIRECTION ( 'NONE',  ( 1.000000000000000000, 0.0000000000000000000, 0.0000000000000000000 ) ) ;
#83 = ORIENTED_EDGE ( 'NONE', *, *, #239, .F. ) ;
#84 = DIRECTION ( 'NONE',  ( -1.000000000000000000, 0.0000000000000000000, 0.0000000000000000000 ) ) ;
#85 = ORIENTED_EDGE ( 'NONE', *, *, #156, .T. ) ;
#86 = LINE ( 'NONE', #153, #71 ) ;
#87 = ORIENTED_EDGE ( 'NONE', *, *, #114, .F. ) ;
#88 = AXIS2_PLACEMENT_3D ( 'NONE', #223, #158, #180 ) ;
#89 = LINE ( 'NONE', #95, #273 ) ;
#90 = DIRECTION ( 'NONE',  ( 1.224646799147353207E-16, 0.0000000000000000000, 1.000000000000000000 ) ) ;
#91 = PRODUCT_DEFINITION_SHAPE ( 'NONE', 'NONE',  #184 ) ;
#92 = SURFACE_STYLE_USAGE ( .BOTH. , #212 ) ;
#93 = LENGTH_MEASURE_WITH_UNIT ( LENGTH_MEASURE( 0.02539999999999999897 ), #113 );
#94 = DIRECTION ( 'NONE',  ( 1.000000000000000000, 0.0000000000000000000, 0.0000000000000000000 ) ) ;
#95 = CARTESIAN_POINT ( 'NONE',  ( 0.1562500000000000000, 1.913510623667739463E-17, 2.000000000000000000 ) ) ;
#96 = CARTESIAN_POINT ( 'NONE',  ( 0.1412499999999997646, 1.729813603795632883E-17, 2.000000000000000000 ) ) ;
#97 = AXIS2_PLACEMENT_3D ( 'NONE', #139, #25, #50 ) ;
#98 = DIRECTION ( 'NONE',  ( 1.000000000000000000, 0.0000000000000000000, 0.0000000000000000000 ) ) ;
#99 = DIRECTION ( 'NONE',  ( -0.0000000000000000000, -0.0000000000000000000, -1.000000000000000000 ) ) ;
#100 = CARTESIAN_POINT ( 'NONE',  ( 0.0000000000000000000, 0.0000000000000000000, 2.000000000000000000 ) ) ;
#101 = DIRECTION ( 'NONE',  ( 1.000000000000000000, 0.0000000000000000000, 0.0000000000000000000 ) ) ;
#102 = CARTESIAN_POINT ( 'NONE',  ( 0.0000000000000000000, 0.0000000000000000000, 0.0000000000000000000 ) ) ;
#103 = AXIS2_PLACEMENT_3D ( 'NONE', #124, #176, #82 ) ;
#104 = ORIENTED_EDGE ( 'NONE', *, *, #26, .T. ) ;
#105 = DIRECTION ( 'NONE',  ( 0.7071067811865475727, 8.659560562354932858E-17, -0.7071067811865474617 ) ) ;
#106 = EDGE_CURVE ( 'NONE', #159, #290, #89, .T. ) ;
#107 = FILL_AREA_STYLE_COLOUR ( '', #28 ) ;
#108 = CARTESIAN_POINT ( 'NONE',  ( -0.1412499999999997646, 0.0000000000000000000, 2.000000000000000000 ) ) ;
#109 = CARTESIAN_POINT ( 'NONE',  ( -0.1562499999999999445, 0.0000000000000000000, 0.5008861377843155660 ) ) ;
#110 = CARTESIAN_POINT ( 'NONE',  ( 0.1560937500000000311, 0.0000000000000000000, 0.5000000000000000000 ) ) ;
#111 = DIRECTION ( 'NONE',  ( -1.224646799147353207E-16, -0.0000000000000000000, -1.000000000000000000 ) ) ;
#112 = CIRCLE ( 'NONE', #103, 0.1412499999999997646 ) ;
#113 =( LENGTH_UNIT ( ) NAMED_UNIT ( * ) SI_UNIT ( $, .METRE. ) );
#114 = EDGE_CURVE ( 'NONE', #57, #290, #229, .T. ) ;
#115 = CARTESIAN_POINT ( 'NONE',  ( 6.123233995736766036E-17, 0.0000000000000000000, 0.5000000000000000000 ) ) ;
#116 = SURFACE_STYLE_USAGE ( .BOTH. , #278 ) ;
#117 = AXIS2_PLACEMENT_3D ( 'NONE', #133, #244, #231 ) ;
#118 = FILL_AREA_STYLE ('',( #234 ) ) ;
#119 = CARTESIAN_POINT ( 'NONE',  ( 0.0000000000000000000, 0.0000000000000000000, 1.984999999999999654 ) ) ;
#120 = EDGE_CURVE ( 'NONE', #145, #159, #215, .T. ) ;
#121 = ORIENTED_EDGE ( 'NONE', *, *, #6, .F. ) ;
#122 = VECTOR ( 'NONE', #233, 39.37007874015748143 ) ;
#123 = CIRCLE ( 'NONE', #240, 0.1562500000000000000 ) ;
#124 = CARTESIAN_POINT ( 'NONE',  ( 0.0000000000000000000, 0.0000000000000000000, 2.000000000000000000 ) ) ;
#125 = DIRECTION ( 'NONE',  ( 1.000000000000000000, 0.0000000000000000000, 0.0000000000000000000 ) ) ;
#126 = EDGE_LOOP ( 'NONE', ( #256, #283, #292, #226 ) ) ;
#127 = DIRECTION ( 'NONE',  ( 0.0000000000000000000, 0.0000000000000000000, -1.000000000000000000 ) ) ;
#128 = DIRECTION ( 'NONE',  ( -1.000000000000000000, 0.0000000000000000000, 0.0000000000000000000 ) ) ;
#129 = EDGE_LOOP ( 'NONE', ( #144, #177, #182, #83 ) ) ;
#130 = CIRCLE ( 'NONE', #117, 0.1562500000000000000 ) ;
#131 = DIRECTION ( 'NONE',  ( 0.0000000000000000000, 0.0000000000000000000, 1.000000000000000000 ) ) ;
#132 = DIRECTION ( 'NONE',  ( -0.1736481776669312194, 2.126576849575783625E-17, 0.9848077530122077983 ) ) ;
#133 = CARTESIAN_POINT ( 'NONE',  ( 6.134086053748422198E-17, 0.0000000000000000000, 0.5008861377843155660 ) ) ;
#134 =( NAMED_UNIT ( * ) SI_UNIT ( $, .STERADIAN. ) SOLID_ANGLE_UNIT ( ) );
#135 = CARTESIAN_POINT ( 'NONE',  ( 6.123233995736766036E-17, 0.0000000000000000000, 0.5000000000000000000 ) ) ;
#136 =( GEOMETRIC_REPRESENTATION_CONTEXT ( 3 ) GLOBAL_UNCERTAINTY_ASSIGNED_CONTEXT ( ( #195 ) ) GLOBAL_UNIT_ASSIGNED_CONTEXT ( ( #162, #236, #134 ) ) REPRESENTATION_CONTEXT ( 'NONE', 'WORKASPACE' ) );
#137 = CARTESIAN_POINT ( 'NONE',  ( 6.134086053748422198E-17, 0.0000000000000000000, 0.5008861377843155660 ) ) ;
#138 = FACE_OUTER_BOUND ( 'NONE', #46, .T. ) ;
#139 = CARTESIAN_POINT ( 'NONE',  ( 0.0000000000000000000, 0.0000000000000000000, 0.0000000000000000000 ) ) ;
#140 = ADVANCED_FACE ( 'NONE', ( #27 ), #49, .T. ) ;
#141 = AXIS2_PLACEMENT_3D ( 'NONE', #137, #170, #125 ) ;
#142 = APPLICATION_CONTEXT ( 'automotive_design' ) ;
#143 = DIRECTION ( 'NONE',  ( -0.0000000000000000000, -0.0000000000000000000, -1.000000000000000000 ) ) ;
#144 = ORIENTED_EDGE ( 'NONE', *, *, #120, .F. ) ;
#145 = VERTEX_POINT ( 'NONE', #37 ) ;
#146 = AXIS2_PLACEMENT_3D ( 'NONE', #56, #19, #128 ) ;
#147 = ADVANCED_FACE ( 'NONE', ( #8 ), #44, .T. ) ;
#148 = DIRECTION ( 'NONE',  ( -1.000000000000000000, 0.0000000000000000000, 1.224646799147353207E-16 ) ) ;
#149 = FACE_OUTER_BOUND ( 'NONE', #204, .T. ) ;
#150 = CARTESIAN_POINT ( 'NONE',  ( 0.1562500000000000000, 1.913510623667739463E-17, 1.984999999999999654 ) ) ;
#151 = PRODUCT_RELATED_PRODUCT_CATEGORY ( 'part', '', ( #261 ) ) ;
#152 = ORIENTED_EDGE ( 'NONE', *, *, #79, .F. ) ;
#153 = CARTESIAN_POINT ( 'NONE',  ( 0.1560937499999999478, 1.911597113044071073E-17, -1.911597113044071073E-17 ) ) ;
#154 = ADVANCED_BREP_SHAPE_REPRESENTATION ( 'Micro_SEM-312-02X', ( #66, #97 ), #235 ) ;
#155 = FACE_OUTER_BOUND ( 'NONE', #241, .T. ) ;
#156 = EDGE_CURVE ( 'NONE', #250, #179, #201, .T. ) ;
#157 = CARTESIAN_POINT ( 'NONE',  ( 2.341031285748743514E-33, 0.0000000000000000000, 1.911597113044071690E-17 ) ) ;
#158 = DIRECTION ( 'NONE',  ( -1.224646799147353207E-16, -0.0000000000000000000, -1.000000000000000000 ) ) ;
#159 = VERTEX_POINT ( 'NONE', #150 ) ;
#160 = CARTESIAN_POINT ( 'NONE',  ( 0.0000000000000000000, 0.0000000000000000000, 1.984999999999999654 ) ) ;
#161 = ORIENTED_EDGE ( 'NONE', *, *, #197, .T. ) ;
#162 =( CONVERSION_BASED_UNIT ( 'INCH', #93 ) LENGTH_UNIT ( ) NAMED_UNIT ( #64 ) );
#163 = DIRECTION ( 'NONE',  ( 1.000000000000000000, 0.0000000000000000000, 0.0000000000000000000 ) ) ;
#164 =( NAMED_UNIT ( * ) SI_UNIT ( $, .STERADIAN. ) SOLID_ANGLE_UNIT ( ) );
#165 = AXIS2_PLACEMENT_3D ( 'NONE', #298, #111, #29 ) ;
#166 = PRESENTATION_LAYER_ASSIGNMENT (  '', '', ( #169 ) ) ;
#167 = AXIS2_PLACEMENT_3D ( 'NONE', #115, #214, #94 ) ;
#168 = ORIENTED_EDGE ( 'NONE', *, *, #79, .T. ) ;
#169 = STYLED_ITEM ( 'NONE', ( #258 ), #154 ) ;
#170 = DIRECTION ( 'NONE',  ( -1.224646799147353207E-16, -0.0000000000000000000, -1.000000000000000000 ) ) ;
#171 = ADVANCED_FACE ( 'NONE', ( #209 ), #217, .T. ) ;
#172 = ORIENTED_EDGE ( 'NONE', *, *, #239, .T. ) ;
#173 = FACE_OUTER_BOUND ( 'NONE', #47, .T. ) ;
#174 = ORIENTED_EDGE ( 'NONE', *, *, #293, .F. ) ;
#175 = CARTESIAN_POINT ( 'NONE',  ( 0.1560937499999999756, 1.911597113044071690E-17, 3.791200677927629740E-33 ) ) ;
#176 = DIRECTION ( 'NONE',  ( 0.0000000000000000000, 0.0000000000000000000, 1.000000000000000000 ) ) ;
#177 = ORIENTED_EDGE ( 'NONE', *, *, #26, .F. ) ;
#178 =( CONVERSION_BASED_UNIT ( 'INCH', #42 ) LENGTH_UNIT ( ) NAMED_UNIT ( #12 ) );
#179 = VERTEX_POINT ( 'NONE', #109 ) ;
#180 = DIRECTION ( 'NONE',  ( -1.000000000000000000, 0.0000000000000000000, 1.224646799147353454E-16 ) ) ;
#181 =( GEOMETRIC_REPRESENTATION_CONTEXT ( 3 ) GLOBAL_UNCERTAINTY_ASSIGNED_CONTEXT ( ( #220 ) ) GLOBAL_UNIT_ASSIGNED_CONTEXT ( ( #52, #190, #164 ) ) REPRESENTATION_CONTEXT ( 'NONE', 'WORKASPACE' ) );
#182 = ORIENTED_EDGE ( 'NONE', *, *, #293, .T. ) ;
#183 = PRODUCT_DEFINITION_CONTEXT ( 'detailed design', #53, 'design' ) ;
#184 = PRODUCT_DEFINITION ( 'UNKNOWN', '', #31, #183 ) ;
#185 = ADVANCED_FACE ( 'NONE', ( #294 ), #67, .T. ) ;
#186 = VECTOR ( 'NONE', #266, 39.37007874015748143 ) ;
#187 = MECHANICAL_DESIGN_GEOMETRIC_PRESENTATION_REPRESENTATION (  '', ( #194 ), #181 ) ;
#188 = PRESENTATION_STYLE_ASSIGNMENT (( #116 ) ) ;
#189 = PRODUCT_CONTEXT ( 'NONE', #142, 'mechanical' ) ;
#190 =( NAMED_UNIT ( * ) PLANE_ANGLE_UNIT ( ) SI_UNIT ( $, .RADIAN. ) );
#191 = AXIS2_PLACEMENT_3D ( 'NONE', #157, #238, #2 ) ;
#192 = EDGE_CURVE ( 'NONE', #290, #179, #251, .T. ) ;
#193 = CLOSED_SHELL ( 'NONE', ( #140, #73, #171, #299, #58, #5, #147, #185, #221, #263 ) ) ;
#194 = STYLED_ITEM ( 'NONE', ( #188 ), #66 ) ;
#195 = UNCERTAINTY_MEASURE_WITH_UNIT (LENGTH_MEASURE( 1.000000000000000082E-05 ), #162, 'distance_accuracy_value', 'NONE');
#196 = ORIENTED_EDGE ( 'NONE', *, *, #197, .F. ) ;
#197 = EDGE_CURVE ( 'NONE', #267, #34, #268, .T. ) ;
#198 = CARTESIAN_POINT ( 'NONE',  ( 0.1562500000000000833, 1.913510623667740080E-17, 0.5008861377843155660 ) ) ;
#199 = EDGE_LOOP ( 'NONE', ( #232, #32, #222, #265 ) ) ;
#200 = ORIENTED_EDGE ( 'NONE', *, *, #106, .T. ) ;
#201 = LINE ( 'NONE', #81, #15 ) ;
#202 = AXIS2_PLACEMENT_3D ( 'NONE', #135, #90, #163 ) ;
#203 = DIRECTION ( 'NONE',  ( -1.224646799147353207E-16, -0.0000000000000000000, -1.000000000000000000 ) ) ;
#204 = EDGE_LOOP ( 'NONE', ( #161, #43 ) ) ;
#205 = ORIENTED_EDGE ( 'NONE', *, *, #6, .T. ) ;
#206 = DIRECTION ( 'NONE',  ( -1.000000000000000000, 0.0000000000000000000, 1.224646799147353207E-16 ) ) ;
#207 = CYLINDRICAL_SURFACE ( 'NONE', #280, 0.1562500000000000000 ) ;
#208 = CIRCLE ( 'NONE', #146, 0.1560937499999999478 ) ;
#209 = FACE_OUTER_BOUND ( 'NONE', #65, .T. ) ;
#210 =( LENGTH_UNIT ( ) NAMED_UNIT ( * ) SI_UNIT ( $, .METRE. ) );
#211 = SURFACE_STYLE_FILL_AREA ( #118 ) ;
#212 = SURFACE_SIDE_STYLE ('',( #211 ) ) ;
#213 = EDGE_CURVE ( 'NONE', #250, #267, #13, .T. ) ;
#214 = DIRECTION ( 'NONE',  ( 1.224646799147353207E-16, 0.0000000000000000000, 1.000000000000000000 ) ) ;
#215 = LINE ( 'NONE', #96, #219 ) ;
#216 = SHAPE_DEFINITION_REPRESENTATION ( #91, #154 ) ;
#217 = CONICAL_SURFACE ( 'NONE', #74, 0.1412499999999997646, 0.7853981633974482790 ) ;
#218 = DIRECTION ( 'NONE',  ( 0.0000000000000000000, 0.0000000000000000000, -1.000000000000000000 ) ) ;
#219 = VECTOR ( 'NONE', #105, 39.37007874015748143 ) ;
#220 = UNCERTAINTY_MEASURE_WITH_UNIT (LENGTH_MEASURE( 1.000000000000000082E-05 ), #52, 'distance_accuracy_value', 'NONE');
#221 = ADVANCED_FACE ( 'NONE', ( #291 ), #289, .T. ) ;
#222 = ORIENTED_EDGE ( 'NONE', *, *, #213, .T. ) ;
#223 = CARTESIAN_POINT ( 'NONE',  ( 2.341031285748743514E-33, 0.0000000000000000000, 1.911597113044071690E-17 ) ) ;
#224 = DIRECTION ( 'NONE',  ( 0.0000000000000000000, 0.0000000000000000000, 1.000000000000000000 ) ) ;
#225 = ORIENTED_EDGE ( 'NONE', *, *, #281, .T. ) ;
#226 = ORIENTED_EDGE ( 'NONE', *, *, #192, .T. ) ;
#227 = VECTOR ( 'NONE', #77, 39.37007874015748143 ) ;
#228 = ORIENTED_EDGE ( 'NONE', *, *, #213, .F. ) ;
#229 = LINE ( 'NONE', #279, #122 ) ;
#230 = DIRECTION ( 'NONE',  ( 0.0000000000000000000, 0.0000000000000000000, -1.000000000000000000 ) ) ;
#231 = DIRECTION ( 'NONE',  ( 1.000000000000000000, 0.0000000000000000000, 0.0000000000000000000 ) ) ;
#232 = ORIENTED_EDGE ( 'NONE', *, *, #285, .F. ) ;
#233 = DIRECTION ( 'NONE',  ( 0.1736481776669314414, 0.0000000000000000000, 0.9848077530122077983 ) ) ;
#234 = FILL_AREA_STYLE_COLOUR ( '', #297 ) ;
#235 =( GEOMETRIC_REPRESENTATION_CONTEXT ( 3 ) GLOBAL_UNCERTAINTY_ASSIGNED_CONTEXT ( ( #35 ) ) GLOBAL_UNIT_ASSIGNED_CONTEXT ( ( #178, #17, #276 ) ) REPRESENTATION_CONTEXT ( 'NONE', 'WORKASPACE' ) );
#236 =( NAMED_UNIT ( * ) PLANE_ANGLE_UNIT ( ) SI_UNIT ( $, .RADIAN. ) );
#237 = CIRCLE ( 'NONE', #191, 0.1560937499999999756 ) ;
#238 = DIRECTION ( 'NONE',  ( -1.224646799147353207E-16, -0.0000000000000000000, -1.000000000000000000 ) ) ;
#239 = EDGE_CURVE ( 'NONE', #159, #269, #123, .T. ) ;
#240 = AXIS2_PLACEMENT_3D ( 'NONE', #160, #254, #98 ) ;
#241 = EDGE_LOOP ( 'NONE', ( #295, #172, #78, #287 ) ) ;
#242 = MECHANICAL_DESIGN_GEOMETRIC_PRESENTATION_REPRESENTATION (  '', ( #169 ), #136 ) ;
#243 = CARTESIAN_POINT ( 'NONE',  ( 0.0000000000000000000, 0.0000000000000000000, 2.000000000000000000 ) ) ;
#244 = DIRECTION ( 'NONE',  ( -1.224646799147353207E-16, -0.0000000000000000000, -1.000000000000000000 ) ) ;
#245 = EDGE_CURVE ( 'NONE', #145, #10, #112, .T. ) ;
#246 = CARTESIAN_POINT ( 'NONE',  ( -0.1562500000000000000, 0.0000000000000000000, 2.000000000000000000 ) ) ;
#247 = CARTESIAN_POINT ( 'NONE',  ( 0.0000000000000000000, 0.0000000000000000000, 2.000000000000000000 ) ) ;
#248 = DIRECTION ( 'NONE',  ( -1.224646799147353207E-16, -0.0000000000000000000, -1.000000000000000000 ) ) ;
#249 = CARTESIAN_POINT ( 'NONE',  ( -0.1560937499999999756, 0.0000000000000000000, 3.823194226088143379E-17 ) ) ;
#250 = VERTEX_POINT ( 'NONE', #270 ) ;
#251 = CIRCLE ( 'NONE', #141, 0.1562500000000000000 ) ;
#252 = CARTESIAN_POINT ( 'NONE',  ( 0.0000000000000000000, 0.0000000000000000000, 0.0000000000000000000 ) ) ;
#253 = CARTESIAN_POINT ( 'NONE',  ( 0.0000000000000000000, 0.0000000000000000000, 2.000000000000000000 ) ) ;
#254 = DIRECTION ( 'NONE',  ( 0.0000000000000000000, 0.0000000000000000000, -1.000000000000000000 ) ) ;
#255 = EDGE_CURVE ( 'NONE', #269, #179, #60, .T. ) ;
#256 = ORIENTED_EDGE ( 'NONE', *, *, #156, .F. ) ;
#257 = FILL_AREA_STYLE ('',( #107 ) ) ;
#258 = PRESENTATION_STYLE_ASSIGNMENT (( #92 ) ) ;
#259 = PRESENTATION_LAYER_ASSIGNMENT (  '', '', ( #194 ) ) ;
#260 = CARTESIAN_POINT ( 'NONE',  ( 0.0000000000000000000, 0.0000000000000000000, 0.0000000000000000000 ) ) ;
#261 = PRODUCT ( 'Micro_SEM-312-02X', 'Micro_SEM-312-02X', '', ( #189 ) ) ;
#262 = AXIS2_PLACEMENT_3D ( 'NONE', #102, #203, #206 ) ;
#263 = ADVANCED_FACE ( 'NONE', ( #149 ), #38, .F. ) ;
#264 = EDGE_LOOP ( 'NONE', ( #104, #272 ) ) ;
#265 = ORIENTED_EDGE ( 'NONE', *, *, #68, .F. ) ;
#266 = DIRECTION ( 'NONE',  ( -1.224646799147353207E-16, -0.0000000000000000000, -1.000000000000000000 ) ) ;
#267 = VERTEX_POINT ( 'NONE', #249 ) ;
#268 = CIRCLE ( 'NONE', #88, 0.1560937499999999756 ) ;
#269 = VERTEX_POINT ( 'NONE', #7 ) ;
#270 = CARTESIAN_POINT ( 'NONE',  ( -0.1560937499999998923, 1.912553868355905422E-17, 0.5000000000000000000 ) ) ;
#271 = ORIENTED_EDGE ( 'NONE', *, *, #285, .T. ) ;
#272 = ORIENTED_EDGE ( 'NONE', *, *, #245, .T. ) ;
#273 = VECTOR ( 'NONE', #143, 39.37007874015748143 ) ;
#274 = LENGTH_MEASURE_WITH_UNIT ( LENGTH_MEASURE( 0.02539999999999999897 ), #210 );
#275 = VECTOR ( 'NONE', #45, 39.37007874015748143 ) ;
#276 =( NAMED_UNIT ( * ) SI_UNIT ( $, .STERADIAN. ) SOLID_ANGLE_UNIT ( ) );
#277 = APPLICATION_PROTOCOL_DEFINITION ( 'draft international standard', 'automotive_design', 1998, #53 ) ;
#278 = SURFACE_SIDE_STYLE ('',( #69 ) ) ;
#279 = CARTESIAN_POINT ( 'NONE',  ( 0.1560937500000000311, 0.0000000000000000000, 0.5000000000000000000 ) ) ;
#280 = AXIS2_PLACEMENT_3D ( 'NONE', #247, #14, #41 ) ;
#281 = EDGE_CURVE ( 'NONE', #250, #57, #208, .T. ) ;
#282 = LINE ( 'NONE', #108, #227 ) ;
#283 = ORIENTED_EDGE ( 'NONE', *, *, #75, .F. ) ;
#284 = CARTESIAN_POINT ( 'NONE',  ( 0.0000000000000000000, 0.0000000000000000000, 2.000000000000000000 ) ) ;
#285 = EDGE_CURVE ( 'NONE', #57, #34, #86, .T. ) ;
#286 =( LENGTH_UNIT ( ) NAMED_UNIT ( * ) SI_UNIT ( $, .METRE. ) );
#287 = ORIENTED_EDGE ( 'NONE', *, *, #192, .F. ) ;
#288 = AXIS2_PLACEMENT_3D ( 'NONE', #260, #248, #148 ) ;
#289 = CYLINDRICAL_SURFACE ( 'NONE', #262, 0.1560937499999999478 ) ;
#290 = VERTEX_POINT ( 'NONE', #198 ) ;
#291 = FACE_OUTER_BOUND ( 'NONE', #199, .T. ) ;
#292 = ORIENTED_EDGE ( 'NONE', *, *, #114, .T. ) ;
#293 = EDGE_CURVE ( 'NONE', #10, #269, #282, .T. ) ;
#294 = FACE_OUTER_BOUND ( 'NONE', #126, .T. ) ;
#295 = ORIENTED_EDGE ( 'NONE', *, *, #106, .F. ) ;
#296 = AXIS2_PLACEMENT_3D ( 'NONE', #252, #224, #40 ) ;
#297 = COLOUR_RGB ( '',0.7921568627450980005, 0.8196078431372548767, 0.9333333333333333481 ) ;
#298 = CARTESIAN_POINT ( 'NONE',  ( 6.123233995736766036E-17, 0.0000000000000000000, 0.5000000000000000000 ) ) ;
#299 = ADVANCED_FACE ( 'NONE', ( #173 ), #54, .T. ) ;
ENDSEC;
END-ISO-10303-21;
