ISO-10303-21;
HEADER;
FILE_DESCRIPTION (( 'STEP AP214' ),
    '1' );
FILE_NAME ('82853.STEP',
    '2023-06-23T06:55:20',
    ( '' ),
    ( '' ),
    'SwSTEP 2.0',
    'SolidWorks 2023',
    '' );
FILE_SCHEMA (( 'AUTOMOTIVE_DESIGN' ));
ENDSEC;

DATA;
#1 = PRODUCT_DEFINITION_SHAPE ( 'NONE', 'NONE',  #153 ) ;
#2 = EDGE_LOOP ( 'NONE', ( #89, #277, #233, #170 ) ) ;
#3 = VECTOR ( 'NONE', #186, 39.37007874015748143 ) ;
#4 = FILL_AREA_STYLE_COLOUR ( '', #82 ) ;
#5 = ORIENTED_EDGE ( 'NONE', *, *, #264, .F. ) ;
#6 = CARTESIAN_POINT ( 'NONE',  ( -0.1250000000000000000, 2.000000000000000000, 0.000000000000000000 ) ) ;
#7 = CARTESIAN_POINT ( 'NONE',  ( 1.530808498934191509E-17, 2.000000000000000000, 0.1250000000000000000 ) ) ;
#8 = STYLED_ITEM ( 'NONE', ( #181 ), #162 ) ;
#9 = MECHANICAL_DESIGN_GEOMETRIC_PRESENTATION_REPRESENTATION (  '', ( #307 ), #46 ) ;
#10 =( NAMED_UNIT ( * ) SI_UNIT ( $, .STERADIAN. ) SOLID_ANGLE_UNIT ( ) );
#11 = CARTESIAN_POINT ( 'NONE',  ( 0.000000000000000000, 0.000000000000000000, 0.000000000000000000 ) ) ;
#12 = LINE ( 'NONE', #15, #33 ) ;
#13 = ORIENTED_EDGE ( 'NONE', *, *, #47, .T. ) ;
#14 = ORIENTED_EDGE ( 'NONE', *, *, #103, .F. ) ;
#15 = CARTESIAN_POINT ( 'NONE',  ( 0.000000000000000000, 0.000000000000000000, -0.1250000000000000000 ) ) ;
#16 = VERTEX_POINT ( 'NONE', #6 ) ;
#17 = LENGTH_MEASURE_WITH_UNIT ( LENGTH_MEASURE( 0.02539999999999999897 ), #197 );
#18 = AXIS2_PLACEMENT_3D ( 'NONE', #108, #125, #210 ) ;
#19 = EDGE_LOOP ( 'NONE', ( #175, #49 ) ) ;
#20 =( NAMED_UNIT ( * ) PLANE_ANGLE_UNIT ( ) SI_UNIT ( $, .RADIAN. ) );
#21 = CIRCLE ( 'NONE', #90, 0.1250000000000000000 ) ;
#22 = MECHANICAL_DESIGN_GEOMETRIC_PRESENTATION_REPRESENTATION (  '', ( #140 ), #257 ) ;
#23 = SURFACE_STYLE_FILL_AREA ( #230 ) ;
#24 = FILL_AREA_STYLE_COLOUR ( '', #174 ) ;
#25 = MANIFOLD_SOLID_BREP ( 'Revolve - Cutting Edge', #293 ) ;
#26 = LINE ( 'NONE', #73, #139 ) ;
#27 = FACE_OUTER_BOUND ( 'NONE', #93, .T. ) ;
#28 =( NAMED_UNIT ( * ) SI_UNIT ( $, .STERADIAN. ) SOLID_ANGLE_UNIT ( ) );
#29 = DIRECTION ( 'NONE',  ( -1.000000000000000000, 0.000000000000000000, 0.000000000000000000 ) ) ;
#30 = CARTESIAN_POINT ( 'NONE',  ( 0.000000000000000000, 0.000000000000000000, 0.000000000000000000 ) ) ;
#31 = EDGE_CURVE ( 'NONE', #136, #306, #12, .T. ) ;
#32 = DIRECTION ( 'NONE',  ( -0.000000000000000000, -1.000000000000000000, -0.000000000000000000 ) ) ;
#33 = VECTOR ( 'NONE', #32, 39.37007874015748143 ) ;
#34 = DIRECTION ( 'NONE',  ( -6.123233995736763571E-17, 1.000000000000000000, -0.000000000000000000 ) ) ;
#35 = ORIENTED_EDGE ( 'NONE', *, *, #165, .T. ) ;
#36 = FILL_AREA_STYLE_COLOUR ( '', #159 ) ;
#37 = ORIENTED_EDGE ( 'NONE', *, *, #60, .F. ) ;
#38 = DIRECTION ( 'NONE',  ( 0.000000000000000000, 0.000000000000000000, -1.000000000000000000 ) ) ;
#39 = CYLINDRICAL_SURFACE ( 'NONE', #261, 0.1250000000000000555 ) ;
#40 = APPLICATION_PROTOCOL_DEFINITION ( 'draft international standard', 'automotive_design', 1998, #122 ) ;
#41 = ADVANCED_FACE ( 'NONE', ( #110 ), #222, .T. ) ;
#42 = EDGE_LOOP ( 'NONE', ( #173, #37 ) ) ;
#43 = CARTESIAN_POINT ( 'NONE',  ( -1.224646799147352714E-16, 4.000000000000000000, 0.000000000000000000 ) ) ;
#44 = CARTESIAN_POINT ( 'NONE',  ( 1.516480271171051896E-32, 2.000000000000000000, 0.000000000000000000 ) ) ;
#45 = STYLED_ITEM ( 'NONE', ( #86 ), #41 ) ;
#46 =( GEOMETRIC_REPRESENTATION_CONTEXT ( 3 ) GLOBAL_UNCERTAINTY_ASSIGNED_CONTEXT ( ( #243 ) ) GLOBAL_UNIT_ASSIGNED_CONTEXT ( ( #52, #238, #28 ) ) REPRESENTATION_CONTEXT ( 'NONE', 'WORKASPACE' ) );
#47 = EDGE_CURVE ( 'NONE', #16, #226, #145, .T. ) ;
#48 = FACE_OUTER_BOUND ( 'NONE', #19, .T. ) ;
#49 = ORIENTED_EDGE ( 'NONE', *, *, #287, .T. ) ;
#50 =( LENGTH_UNIT ( ) NAMED_UNIT ( * ) SI_UNIT ( $, .METRE. ) );
#51 = CARTESIAN_POINT ( 'NONE',  ( 0.000000000000000000, 0.000000000000000000, 0.000000000000000000 ) ) ;
#52 =( CONVERSION_BASED_UNIT ( 'INCH', #157 ) LENGTH_UNIT ( ) NAMED_UNIT ( #212 ) );
#53 = CARTESIAN_POINT ( 'NONE',  ( 0.1250000000000000000, 2.000000000000000000, 1.530808498934192742E-17 ) ) ;
#54 = LENGTH_MEASURE_WITH_UNIT ( LENGTH_MEASURE( 0.02539999999999999897 ), #269 );
#55 = SURFACE_SIDE_STYLE ('',( #180 ) ) ;
#56 = DIRECTION ( 'NONE',  ( -0.000000000000000000, -1.000000000000000000, -0.000000000000000000 ) ) ;
#57 =( NAMED_UNIT ( * ) SI_UNIT ( $, .STERADIAN. ) SOLID_ANGLE_UNIT ( ) );
#58 =( NAMED_UNIT ( * ) PLANE_ANGLE_UNIT ( ) SI_UNIT ( $, .RADIAN. ) );
#59 =( NAMED_UNIT ( * ) SI_UNIT ( $, .STERADIAN. ) SOLID_ANGLE_UNIT ( ) );
#60 = EDGE_CURVE ( 'NONE', #109, #136, #209, .T. ) ;
#61 = STYLED_ITEM ( 'NONE', ( #193 ), #146 ) ;
#62 = COLOUR_RGB ( '',0.7921568627450980005, 0.8196078431372548767, 0.9333333333333333481 ) ;
#63 =( CONVERSION_BASED_UNIT ( 'INCH', #158 ) LENGTH_UNIT ( ) NAMED_UNIT ( #281 ) );
#64 =( CONVERSION_BASED_UNIT ( 'INCH', #189 ) LENGTH_UNIT ( ) NAMED_UNIT ( #218 ) );
#65 = DIRECTION ( 'NONE',  ( 0.000000000000000000, 1.000000000000000000, 0.000000000000000000 ) ) ;
#66 = DIRECTION ( 'NONE',  ( -6.123233995736763571E-17, 1.000000000000000000, -0.000000000000000000 ) ) ;
#67 =( LENGTH_UNIT ( ) NAMED_UNIT ( * ) SI_UNIT ( $, .METRE. ) );
#68 = CIRCLE ( 'NONE', #120, 0.1250000000000001110 ) ;
#69 = DIMENSIONAL_EXPONENTS ( 1.000000000000000000, 0.000000000000000000, 0.000000000000000000, 0.000000000000000000, 0.000000000000000000, 0.000000000000000000, 0.000000000000000000 ) ;
#70 = CARTESIAN_POINT ( 'NONE',  ( 0.000000000000000000, 2.000000000000000000, -0.1250000000000000000 ) ) ;
#71 = EDGE_LOOP ( 'NONE', ( #283, #117, #154, #156 ) ) ;
#72 = FILL_AREA_STYLE ('',( #229 ) ) ;
#73 = CARTESIAN_POINT ( 'NONE',  ( -0.1250000000000001943, 4.000000000000000000, 0.000000000000000000 ) ) ;
#74 = DIRECTION ( 'NONE',  ( -0.000000000000000000, -1.000000000000000000, -0.000000000000000000 ) ) ;
#75 =( GEOMETRIC_REPRESENTATION_CONTEXT ( 3 ) GLOBAL_UNCERTAINTY_ASSIGNED_CONTEXT ( ( #214 ) ) GLOBAL_UNIT_ASSIGNED_CONTEXT ( ( #112, #198, #59 ) ) REPRESENTATION_CONTEXT ( 'NONE', 'WORKASPACE' ) );
#76 = AXIS2_PLACEMENT_3D ( 'NONE', #228, #258, #248 ) ;
#77 =( GEOMETRIC_REPRESENTATION_CONTEXT ( 3 ) GLOBAL_UNCERTAINTY_ASSIGNED_CONTEXT ( ( #208 ) ) GLOBAL_UNIT_ASSIGNED_CONTEXT ( ( #105, #83, #192 ) ) REPRESENTATION_CONTEXT ( 'NONE', 'WORKASPACE' ) );
#78 = CARTESIAN_POINT ( 'NONE',  ( -1.224646799147352714E-16, 4.000000000000000000, 0.000000000000000000 ) ) ;
#79 = CARTESIAN_POINT ( 'NONE',  ( -1.224646799147352714E-16, 4.000000000000000000, 0.000000000000000000 ) ) ;
#80 = CYLINDRICAL_SURFACE ( 'NONE', #84, 0.1250000000000000555 ) ;
#81 = EDGE_CURVE ( 'NONE', #16, #177, #26, .T. ) ;
#82 = COLOUR_RGB ( '',1.000000000000000000, 0.000000000000000000, 0.000000000000000000 ) ;
#83 =( NAMED_UNIT ( * ) PLANE_ANGLE_UNIT ( ) SI_UNIT ( $, .RADIAN. ) );
#84 = AXIS2_PLACEMENT_3D ( 'NONE', #164, #266, #128 ) ;
#85 = PRESENTATION_LAYER_ASSIGNMENT (  '', '', ( #307 ) ) ;
#86 = PRESENTATION_STYLE_ASSIGNMENT (( #219 ) ) ;
#87 = DIMENSIONAL_EXPONENTS ( 1.000000000000000000, 0.000000000000000000, 0.000000000000000000, 0.000000000000000000, 0.000000000000000000, 0.000000000000000000, 0.000000000000000000 ) ;
#88 = VERTEX_POINT ( 'NONE', #91 ) ;
#89 = ORIENTED_EDGE ( 'NONE', *, *, #196, .T. ) ;
#90 = AXIS2_PLACEMENT_3D ( 'NONE', #268, #56, #211 ) ;
#91 = CARTESIAN_POINT ( 'NONE',  ( 1.530808498934191509E-17, 0.000000000000000000, 0.1250000000000000000 ) ) ;
#92 = CLOSED_SHELL ( 'NONE', ( #188, #132, #129, #282 ) ) ;
#93 = EDGE_LOOP ( 'NONE', ( #13, #151, #255, #101 ) ) ;
#94 = PRESENTATION_STYLE_ASSIGNMENT (( #98 ) ) ;
#95 = VECTOR ( 'NONE', #74, 39.37007874015748143 ) ;
#96 = APPLICATION_PROTOCOL_DEFINITION ( 'draft international standard', 'automotive_design', 1998, #309 ) ;
#97 = DIRECTION ( 'NONE',  ( -6.123233995736763571E-17, 1.000000000000000000, -0.000000000000000000 ) ) ;
#98 = SURFACE_STYLE_USAGE ( .BOTH. , #201 ) ;
#99 = PLANE ( 'NONE',  #102 ) ;
#100 = DIRECTION ( 'NONE',  ( 0.000000000000000000, -1.000000000000000000, -0.000000000000000000 ) ) ;
#101 = ORIENTED_EDGE ( 'NONE', *, *, #81, .F. ) ;
#102 = AXIS2_PLACEMENT_3D ( 'NONE', #251, #65, #179 ) ;
#103 = EDGE_CURVE ( 'NONE', #226, #16, #106, .T. ) ;
#104 = SURFACE_STYLE_USAGE ( .BOTH. , #291 ) ;
#105 =( CONVERSION_BASED_UNIT ( 'INCH', #54 ) LENGTH_UNIT ( ) NAMED_UNIT ( #87 ) );
#106 = CIRCLE ( 'NONE', #18, 0.1250000000000000000 ) ;
#107 = MECHANICAL_DESIGN_GEOMETRIC_PRESENTATION_REPRESENTATION (  '', ( #45 ), #75 ) ;
#108 = CARTESIAN_POINT ( 'NONE',  ( 1.516480271171051896E-32, 2.000000000000000000, 0.000000000000000000 ) ) ;
#109 = VERTEX_POINT ( 'NONE', #7 ) ;
#110 = FACE_OUTER_BOUND ( 'NONE', #2, .T. ) ;
#111 = LENGTH_MEASURE_WITH_UNIT ( LENGTH_MEASURE( 0.02539999999999999897 ), #50 );
#112 =( CONVERSION_BASED_UNIT ( 'INCH', #172 ) LENGTH_UNIT ( ) NAMED_UNIT ( #69 ) );
#113 = EDGE_LOOP ( 'NONE', ( #118, #35 ) ) ;
#114 = AXIS2_PLACEMENT_3D ( 'NONE', #11, #247, #38 ) ;
#115 = STYLED_ITEM ( 'NONE', ( #94 ), #223 ) ;
#116 = EDGE_CURVE ( 'NONE', #177, #263, #168, .T. ) ;
#117 = ORIENTED_EDGE ( 'NONE', *, *, #60, .T. ) ;
#118 = ORIENTED_EDGE ( 'NONE', *, *, #116, .T. ) ;
#119 = SURFACE_STYLE_FILL_AREA ( #138 ) ;
#120 = AXIS2_PLACEMENT_3D ( 'NONE', #78, #163, #239 ) ;
#121 = SURFACE_SIDE_STYLE ('',( #23 ) ) ;
#122 = APPLICATION_CONTEXT ( 'automotive_design' ) ;
#123 = CARTESIAN_POINT ( 'NONE',  ( 0.000000000000000000, 2.000000000000000000, 0.000000000000000000 ) ) ;
#124 = SURFACE_SIDE_STYLE ('',( #292 ) ) ;
#125 = DIRECTION ( 'NONE',  ( -6.123233995736763571E-17, 1.000000000000000000, -0.000000000000000000 ) ) ;
#126 = AXIS2_PLACEMENT_3D ( 'NONE', #30, #100, #142 ) ;
#127 = LINE ( 'NONE', #290, #95 ) ;
#128 = DIRECTION ( 'NONE',  ( -1.000000000000000000, 0.000000000000000000, 0.000000000000000000 ) ) ;
#129 = ADVANCED_FACE ( 'NONE', ( #194 ), #39, .T. ) ;
#130 = AXIS2_PLACEMENT_3D ( 'NONE', #167, #275, #148 ) ;
#131 = AXIS2_PLACEMENT_3D ( 'NONE', #123, #237, #285 ) ;
#132 = ADVANCED_FACE ( 'NONE', ( #144 ), #272, .F. ) ;
#133 =( GEOMETRIC_REPRESENTATION_CONTEXT ( 3 ) GLOBAL_UNCERTAINTY_ASSIGNED_CONTEXT ( ( #166 ) ) GLOBAL_UNIT_ASSIGNED_CONTEXT ( ( #63, #246, #57 ) ) REPRESENTATION_CONTEXT ( 'NONE', 'WORKASPACE' ) );
#134 = DIRECTION ( 'NONE',  ( -1.000000000000000000, 0.000000000000000000, 0.000000000000000000 ) ) ;
#135 = EDGE_LOOP ( 'NONE', ( #305, #14 ) ) ;
#136 = VERTEX_POINT ( 'NONE', #70 ) ;
#137 = AXIS2_PLACEMENT_3D ( 'NONE', #253, #297, #242 ) ;
#138 = FILL_AREA_STYLE ('',( #4 ) ) ;
#139 = VECTOR ( 'NONE', #66, 39.37007874015748143 ) ;
#140 = STYLED_ITEM ( 'NONE', ( #185 ), #25 ) ;
#141 = DIRECTION ( 'NONE',  ( -0.000000000000000000, -1.000000000000000000, -0.000000000000000000 ) ) ;
#142 = DIRECTION ( 'NONE',  ( 0.000000000000000000, 0.000000000000000000, -1.000000000000000000 ) ) ;
#143 = FILL_AREA_STYLE_COLOUR ( '', #203 ) ;
#144 = FACE_OUTER_BOUND ( 'NONE', #135, .T. ) ;
#145 = CIRCLE ( 'NONE', #232, 0.1250000000000000000 ) ;
#146 = ADVANCED_FACE ( 'NONE', ( #231 ), #99, .T. ) ;
#147 = SURFACE_SIDE_STYLE ('',( #244 ) ) ;
#148 = DIRECTION ( 'NONE',  ( 0.000000000000000000, 0.000000000000000000, -1.000000000000000000 ) ) ;
#149 = PRESENTATION_LAYER_ASSIGNMENT (  '', '', ( #115 ) ) ;
#150 = PRESENTATION_LAYER_ASSIGNMENT (  '', '', ( #45 ) ) ;
#151 = ORIENTED_EDGE ( 'NONE', *, *, #264, .T. ) ;
#152 = EDGE_LOOP ( 'NONE', ( #5, #225, #195, #207 ) ) ;
#153 = PRODUCT_DEFINITION ( 'UNKNOWN', '', #160, #220 ) ;
#154 = ORIENTED_EDGE ( 'NONE', *, *, #31, .T. ) ;
#155 = SHAPE_DEFINITION_REPRESENTATION ( #1, #171 ) ;
#156 = ORIENTED_EDGE ( 'NONE', *, *, #287, .F. ) ;
#157 = LENGTH_MEASURE_WITH_UNIT ( LENGTH_MEASURE( 0.02539999999999999897 ), #256 );
#158 = LENGTH_MEASURE_WITH_UNIT ( LENGTH_MEASURE( 0.02539999999999999897 ), #286 );
#159 = COLOUR_RGB ( '',1.000000000000000000, 0.000000000000000000, 0.000000000000000000 ) ;
#160 = PRODUCT_DEFINITION_FORMATION_WITH_SPECIFIED_SOURCE ( 'ANY', '', #279, .NOT_KNOWN. ) ;
#161 = CARTESIAN_POINT ( 'NONE',  ( 0.1250000000000000000, 4.000000000000000000, 0.000000000000000000 ) ) ;
#162 = ADVANCED_FACE ( 'NONE', ( #187 ), #265, .T. ) ;
#163 = DIRECTION ( 'NONE',  ( -6.123233995736763571E-17, 1.000000000000000000, -0.000000000000000000 ) ) ;
#164 = CARTESIAN_POINT ( 'NONE',  ( -1.224646799147352714E-16, 4.000000000000000000, 0.000000000000000000 ) ) ;
#165 = EDGE_CURVE ( 'NONE', #263, #177, #68, .T. ) ;
#166 = UNCERTAINTY_MEASURE_WITH_UNIT (LENGTH_MEASURE( 1.000000000000000082E-05 ), #63, 'distance_accuracy_value', 'NONE');
#167 = CARTESIAN_POINT ( 'NONE',  ( 0.000000000000000000, 2.000000000000000000, 0.000000000000000000 ) ) ;
#168 = CIRCLE ( 'NONE', #216, 0.1250000000000001110 ) ;
#169 =( NAMED_UNIT ( * ) PLANE_ANGLE_UNIT ( ) SI_UNIT ( $, .RADIAN. ) );
#170 = ORIENTED_EDGE ( 'NONE', *, *, #31, .F. ) ;
#171 = ADVANCED_BREP_SHAPE_REPRESENTATION ( '82853', ( #25, #215, #76 ), #259 ) ;
#172 = LENGTH_MEASURE_WITH_UNIT ( LENGTH_MEASURE( 0.02539999999999999897 ), #67 );
#173 = ORIENTED_EDGE ( 'NONE', *, *, #196, .F. ) ;
#174 = COLOUR_RGB ( '',1.000000000000000000, 0.000000000000000000, 0.000000000000000000 ) ;
#175 = ORIENTED_EDGE ( 'NONE', *, *, #241, .T. ) ;
#176 =( CONVERSION_BASED_UNIT ( 'INCH', #17 ) LENGTH_UNIT ( ) NAMED_UNIT ( #278 ) );
#177 = VERTEX_POINT ( 'NONE', #296 ) ;
#178 = PRODUCT_CONTEXT ( 'NONE', #309, 'mechanical' ) ;
#179 = DIRECTION ( 'NONE',  ( 0.000000000000000000, -0.000000000000000000, 1.000000000000000000 ) ) ;
#180 = SURFACE_STYLE_FILL_AREA ( #72 ) ;
#181 = PRESENTATION_STYLE_ASSIGNMENT (( #204 ) ) ;
#182 = SURFACE_STYLE_FILL_AREA ( #205 ) ;
#183 = FILL_AREA_STYLE ('',( #236 ) ) ;
#184 =( NAMED_UNIT ( * ) SI_UNIT ( $, .STERADIAN. ) SOLID_ANGLE_UNIT ( ) );
#185 = PRESENTATION_STYLE_ASSIGNMENT (( #202 ) ) ;
#186 = DIRECTION ( 'NONE',  ( -6.123233995736763571E-17, 1.000000000000000000, -0.000000000000000000 ) ) ;
#187 = FACE_OUTER_BOUND ( 'NONE', #71, .T. ) ;
#188 = ADVANCED_FACE ( 'NONE', ( #27 ), #80, .T. ) ;
#189 = LENGTH_MEASURE_WITH_UNIT ( LENGTH_MEASURE( 0.02539999999999999897 ), #260 );
#190 =( GEOMETRIC_REPRESENTATION_CONTEXT ( 3 ) GLOBAL_UNCERTAINTY_ASSIGNED_CONTEXT ( ( #273 ) ) GLOBAL_UNIT_ASSIGNED_CONTEXT ( ( #64, #58, #227 ) ) REPRESENTATION_CONTEXT ( 'NONE', 'WORKASPACE' ) );
#191 = DIRECTION ( 'NONE',  ( 0.000000000000000000, 0.000000000000000000, -1.000000000000000000 ) ) ;
#192 =( NAMED_UNIT ( * ) SI_UNIT ( $, .STERADIAN. ) SOLID_ANGLE_UNIT ( ) );
#193 = PRESENTATION_STYLE_ASSIGNMENT (( #104 ) ) ;
#194 = FACE_OUTER_BOUND ( 'NONE', #152, .T. ) ;
#195 = ORIENTED_EDGE ( 'NONE', *, *, #81, .T. ) ;
#196 = EDGE_CURVE ( 'NONE', #136, #109, #299, .T. ) ;
#197 =( LENGTH_UNIT ( ) NAMED_UNIT ( * ) SI_UNIT ( $, .METRE. ) );
#198 =( NAMED_UNIT ( * ) PLANE_ANGLE_UNIT ( ) SI_UNIT ( $, .RADIAN. ) );
#199 = PRESENTATION_LAYER_ASSIGNMENT (  '', '', ( #140 ) ) ;
#200 = LINE ( 'NONE', #254, #3 ) ;
#201 = SURFACE_SIDE_STYLE ('',( #119 ) ) ;
#202 = SURFACE_STYLE_USAGE ( .BOTH. , #124 ) ;
#203 = COLOUR_RGB ( '',1.000000000000000000, 0.000000000000000000, 0.000000000000000000 ) ;
#204 = SURFACE_STYLE_USAGE ( .BOTH. , #121 ) ;
#205 = FILL_AREA_STYLE ('',( #24 ) ) ;
#206 = DIRECTION ( 'NONE',  ( -6.123233995736763571E-17, 1.000000000000000000, -0.000000000000000000 ) ) ;
#207 = ORIENTED_EDGE ( 'NONE', *, *, #165, .F. ) ;
#208 = UNCERTAINTY_MEASURE_WITH_UNIT (LENGTH_MEASURE( 1.000000000000000082E-05 ), #105, 'distance_accuracy_value', 'NONE');
#209 = CIRCLE ( 'NONE', #131, 0.1250000000000000000 ) ;
#210 = DIRECTION ( 'NONE',  ( -1.000000000000000000, 0.000000000000000000, 0.000000000000000000 ) ) ;
#211 = DIRECTION ( 'NONE',  ( 0.000000000000000000, 0.000000000000000000, -1.000000000000000000 ) ) ;
#212 = DIMENSIONAL_EXPONENTS ( 1.000000000000000000, 0.000000000000000000, 0.000000000000000000, 0.000000000000000000, 0.000000000000000000, 0.000000000000000000, 0.000000000000000000 ) ;
#213 = COLOUR_RGB ( '',0.7921568627450980005, 0.8196078431372548767, 0.9333333333333333481 ) ;
#214 = UNCERTAINTY_MEASURE_WITH_UNIT (LENGTH_MEASURE( 1.000000000000000082E-05 ), #112, 'distance_accuracy_value', 'NONE');
#215 = MANIFOLD_SOLID_BREP ( 'Revolve - Tool Body (Straight Shanked)', #92 ) ;
#216 = AXIS2_PLACEMENT_3D ( 'NONE', #79, #34, #134 ) ;
#217 = EDGE_CURVE ( 'NONE', #109, #88, #127, .T. ) ;
#218 = DIMENSIONAL_EXPONENTS ( 1.000000000000000000, 0.000000000000000000, 0.000000000000000000, 0.000000000000000000, 0.000000000000000000, 0.000000000000000000, 0.000000000000000000 ) ;
#219 = SURFACE_STYLE_USAGE ( .BOTH. , #147 ) ;
#220 = PRODUCT_DEFINITION_CONTEXT ( 'detailed design', #122, 'design' ) ;
#221 = DIMENSIONAL_EXPONENTS ( 1.000000000000000000, 0.000000000000000000, 0.000000000000000000, 0.000000000000000000, 0.000000000000000000, 0.000000000000000000, 0.000000000000000000 ) ;
#222 = CYLINDRICAL_SURFACE ( 'NONE', #114, 0.1250000000000000000 ) ;
#223 = ADVANCED_FACE ( 'NONE', ( #48 ), #250, .T. ) ;
#224 =( CONVERSION_BASED_UNIT ( 'INCH', #111 ) LENGTH_UNIT ( ) NAMED_UNIT ( #221 ) );
#225 = ORIENTED_EDGE ( 'NONE', *, *, #103, .T. ) ;
#226 = VERTEX_POINT ( 'NONE', #53 ) ;
#227 =( NAMED_UNIT ( * ) SI_UNIT ( $, .STERADIAN. ) SOLID_ANGLE_UNIT ( ) );
#228 = CARTESIAN_POINT ( 'NONE',  ( 0.000000000000000000, 0.000000000000000000, 0.000000000000000000 ) ) ;
#229 = FILL_AREA_STYLE_COLOUR ( '', #62 ) ;
#230 = FILL_AREA_STYLE ('',( #143 ) ) ;
#231 = FACE_OUTER_BOUND ( 'NONE', #42, .T. ) ;
#232 = AXIS2_PLACEMENT_3D ( 'NONE', #44, #206, #235 ) ;
#233 = ORIENTED_EDGE ( 'NONE', *, *, #241, .F. ) ;
#234 = DIRECTION ( 'NONE',  ( 6.123233995736763571E-17, -1.000000000000000000, 0.000000000000000000 ) ) ;
#235 = DIRECTION ( 'NONE',  ( -1.000000000000000000, 0.000000000000000000, 0.000000000000000000 ) ) ;
#236 = FILL_AREA_STYLE_COLOUR ( '', #213 ) ;
#237 = DIRECTION ( 'NONE',  ( -0.000000000000000000, -1.000000000000000000, -0.000000000000000000 ) ) ;
#238 =( NAMED_UNIT ( * ) PLANE_ANGLE_UNIT ( ) SI_UNIT ( $, .RADIAN. ) );
#239 = DIRECTION ( 'NONE',  ( -1.000000000000000000, 0.000000000000000000, 0.000000000000000000 ) ) ;
#240 = CARTESIAN_POINT ( 'NONE',  ( 0.000000000000000000, 0.000000000000000000, 0.000000000000000000 ) ) ;
#241 = EDGE_CURVE ( 'NONE', #306, #88, #284, .T. ) ;
#242 = DIRECTION ( 'NONE',  ( -1.000000000000000000, -6.123233995736763571E-17, 0.000000000000000000 ) ) ;
#243 = UNCERTAINTY_MEASURE_WITH_UNIT (LENGTH_MEASURE( 1.000000000000000082E-05 ), #52, 'distance_accuracy_value', 'NONE');
#244 = SURFACE_STYLE_FILL_AREA ( #303 ) ;
#245 = PRESENTATION_LAYER_ASSIGNMENT (  '', '', ( #8 ) ) ;
#246 =( NAMED_UNIT ( * ) PLANE_ANGLE_UNIT ( ) SI_UNIT ( $, .RADIAN. ) );
#247 = DIRECTION ( 'NONE',  ( -0.000000000000000000, -1.000000000000000000, -0.000000000000000000 ) ) ;
#248 = DIRECTION ( 'NONE',  ( 1.000000000000000000, 0.000000000000000000, 0.000000000000000000 ) ) ;
#249 = MECHANICAL_DESIGN_GEOMETRIC_PRESENTATION_REPRESENTATION (  '', ( #8 ), #190 ) ;
#250 = PLANE ( 'NONE',  #126 ) ;
#251 = CARTESIAN_POINT ( 'NONE',  ( 0.000000000000000000, 2.000000000000000000, 0.000000000000000000 ) ) ;
#252 = AXIS2_PLACEMENT_3D ( 'NONE', #161, #234, #298 ) ;
#253 = CARTESIAN_POINT ( 'NONE',  ( 2.343374660409150802E-34, 2.000000000000000000, 0.000000000000000000 ) ) ;
#254 = CARTESIAN_POINT ( 'NONE',  ( 0.1249999999999999445, 4.000000000000000000, 1.530808498934192125E-17 ) ) ;
#255 = ORIENTED_EDGE ( 'NONE', *, *, #116, .F. ) ;
#256 =( LENGTH_UNIT ( ) NAMED_UNIT ( * ) SI_UNIT ( $, .METRE. ) );
#257 =( GEOMETRIC_REPRESENTATION_CONTEXT ( 3 ) GLOBAL_UNCERTAINTY_ASSIGNED_CONTEXT ( ( #288 ) ) GLOBAL_UNIT_ASSIGNED_CONTEXT ( ( #224, #169, #10 ) ) REPRESENTATION_CONTEXT ( 'NONE', 'WORKASPACE' ) );
#258 = DIRECTION ( 'NONE',  ( 0.000000000000000000, 0.000000000000000000, 1.000000000000000000 ) ) ;
#259 =( GEOMETRIC_REPRESENTATION_CONTEXT ( 3 ) GLOBAL_UNCERTAINTY_ASSIGNED_CONTEXT ( ( #270 ) ) GLOBAL_UNIT_ASSIGNED_CONTEXT ( ( #176, #20, #184 ) ) REPRESENTATION_CONTEXT ( 'NONE', 'WORKASPACE' ) );
#260 =( LENGTH_UNIT ( ) NAMED_UNIT ( * ) SI_UNIT ( $, .METRE. ) );
#261 = AXIS2_PLACEMENT_3D ( 'NONE', #43, #97, #29 ) ;
#262 = DIRECTION ( 'NONE',  ( 0.000000000000000000, 0.000000000000000000, -1.000000000000000000 ) ) ;
#263 = VERTEX_POINT ( 'NONE', #300 ) ;
#264 = EDGE_CURVE ( 'NONE', #226, #263, #200, .T. ) ;
#265 = CYLINDRICAL_SURFACE ( 'NONE', #301, 0.1250000000000000000 ) ;
#266 = DIRECTION ( 'NONE',  ( -6.123233995736763571E-17, 1.000000000000000000, -0.000000000000000000 ) ) ;
#267 = MECHANICAL_DESIGN_GEOMETRIC_PRESENTATION_REPRESENTATION (  '', ( #115 ), #133 ) ;
#268 = CARTESIAN_POINT ( 'NONE',  ( 0.000000000000000000, 0.000000000000000000, 0.000000000000000000 ) ) ;
#269 =( LENGTH_UNIT ( ) NAMED_UNIT ( * ) SI_UNIT ( $, .METRE. ) );
#270 = UNCERTAINTY_MEASURE_WITH_UNIT (LENGTH_MEASURE( 1.000000000000000082E-05 ), #176, 'distance_accuracy_value', 'NONE');
#271 = PRODUCT_RELATED_PRODUCT_CATEGORY ( 'part', '', ( #279 ) ) ;
#272 = PLANE ( 'NONE',  #137 ) ;
#273 = UNCERTAINTY_MEASURE_WITH_UNIT (LENGTH_MEASURE( 1.000000000000000082E-05 ), #64, 'distance_accuracy_value', 'NONE');
#274 = AXIS2_PLACEMENT_3D ( 'NONE', #240, #295, #262 ) ;
#275 = DIRECTION ( 'NONE',  ( -0.000000000000000000, -1.000000000000000000, -0.000000000000000000 ) ) ;
#276 = CARTESIAN_POINT ( 'NONE',  ( 0.000000000000000000, 0.000000000000000000, -0.1250000000000000000 ) ) ;
#277 = ORIENTED_EDGE ( 'NONE', *, *, #217, .T. ) ;
#278 = DIMENSIONAL_EXPONENTS ( 1.000000000000000000, 0.000000000000000000, 0.000000000000000000, 0.000000000000000000, 0.000000000000000000, 0.000000000000000000, 0.000000000000000000 ) ;
#279 = PRODUCT ( '82853', '82853', '', ( #178 ) ) ;
#280 = MECHANICAL_DESIGN_GEOMETRIC_PRESENTATION_REPRESENTATION (  '', ( #61 ), #77 ) ;
#281 = DIMENSIONAL_EXPONENTS ( 1.000000000000000000, 0.000000000000000000, 0.000000000000000000, 0.000000000000000000, 0.000000000000000000, 0.000000000000000000, 0.000000000000000000 ) ;
#282 = ADVANCED_FACE ( 'NONE', ( #302 ), #289, .F. ) ;
#283 = ORIENTED_EDGE ( 'NONE', *, *, #217, .F. ) ;
#284 = CIRCLE ( 'NONE', #274, 0.1250000000000000000 ) ;
#285 = DIRECTION ( 'NONE',  ( 0.000000000000000000, 0.000000000000000000, -1.000000000000000000 ) ) ;
#286 =( LENGTH_UNIT ( ) NAMED_UNIT ( * ) SI_UNIT ( $, .METRE. ) );
#287 = EDGE_CURVE ( 'NONE', #88, #306, #21, .T. ) ;
#288 = UNCERTAINTY_MEASURE_WITH_UNIT (LENGTH_MEASURE( 1.000000000000000082E-05 ), #224, 'distance_accuracy_value', 'NONE');
#289 = PLANE ( 'NONE',  #252 ) ;
#290 = CARTESIAN_POINT ( 'NONE',  ( 1.530808498934191509E-17, 0.000000000000000000, 0.1250000000000000000 ) ) ;
#291 = SURFACE_SIDE_STYLE ('',( #182 ) ) ;
#292 = SURFACE_STYLE_FILL_AREA ( #183 ) ;
#293 = CLOSED_SHELL ( 'NONE', ( #41, #146, #162, #223 ) ) ;
#294 = PRESENTATION_STYLE_ASSIGNMENT (( #304 ) ) ;
#295 = DIRECTION ( 'NONE',  ( -0.000000000000000000, -1.000000000000000000, -0.000000000000000000 ) ) ;
#296 = CARTESIAN_POINT ( 'NONE',  ( -0.1250000000000002498, 4.000000000000000000, 0.000000000000000000 ) ) ;
#297 = DIRECTION ( 'NONE',  ( -6.123233995736763571E-17, 1.000000000000000000, 0.000000000000000000 ) ) ;
#298 = DIRECTION ( 'NONE',  ( 1.000000000000000000, 6.123233995736763571E-17, 0.000000000000000000 ) ) ;
#299 = CIRCLE ( 'NONE', #130, 0.1250000000000000000 ) ;
#300 = CARTESIAN_POINT ( 'NONE',  ( 0.1250000000000000000, 4.000000000000000000, 1.530808498934192742E-17 ) ) ;
#301 = AXIS2_PLACEMENT_3D ( 'NONE', #51, #141, #191 ) ;
#302 = FACE_OUTER_BOUND ( 'NONE', #113, .T. ) ;
#303 = FILL_AREA_STYLE ('',( #36 ) ) ;
#304 = SURFACE_STYLE_USAGE ( .BOTH. , #55 ) ;
#305 = ORIENTED_EDGE ( 'NONE', *, *, #47, .F. ) ;
#306 = VERTEX_POINT ( 'NONE', #276 ) ;
#307 = STYLED_ITEM ( 'NONE', ( #294 ), #215 ) ;
#308 = PRESENTATION_LAYER_ASSIGNMENT (  '', '', ( #61 ) ) ;
#309 = APPLICATION_CONTEXT ( 'automotive_design' ) ;
ENDSEC;
END-ISO-10303-21;
