ISO-10303-21;
HEADER;
FILE_DESCRIPTION (( 'STEP AP214' ),
    '1' );
FILE_NAME ('59853.STEP',
    '2023-06-22T23:39:56',
    ( '' ),
    ( '' ),
    'SwSTEP 2.0',
    'SolidWorks 2023',
    '' );
FILE_SCHEMA (( 'AUTOMOTIVE_DESIGN' ));
ENDSEC;

DATA;
#1 = EDGE_CURVE ( 'NONE', #238, #75, #261, .T. ) ;
#2 = CARTESIAN_POINT ( 'NONE',  ( 0.000000000000000000, 0.000000000000000000, 0.000000000000000000 ) ) ;
#3 =( GEOMETRIC_REPRESENTATION_CONTEXT ( 3 ) GLOBAL_UNCERTAINTY_ASSIGNED_CONTEXT ( ( #52 ) ) GLOBAL_UNIT_ASSIGNED_CONTEXT ( ( #237, #214, #227 ) ) REPRESENTATION_CONTEXT ( 'NONE', 'WORKASPACE' ) );
#4 = PLANE ( 'NONE',  #284 ) ;
#5 = ADVANCED_FACE ( 'NONE', ( #40 ), #43, .F. ) ;
#6 = DIMENSIONAL_EXPONENTS ( 1.000000000000000000, 0.000000000000000000, 0.000000000000000000, 0.000000000000000000, 0.000000000000000000, 0.000000000000000000, 0.000000000000000000 ) ;
#7 = SURFACE_STYLE_USAGE ( .BOTH. , #32 ) ;
#8 = DIRECTION ( 'NONE',  ( -1.000000000000000000, 0.000000000000000000, 0.000000000000000000 ) ) ;
#9 = DIRECTION ( 'NONE',  ( -1.000000000000000000, 0.000000000000000000, 0.000000000000000000 ) ) ;
#10 = CIRCLE ( 'NONE', #168, 0.3750000000000001665 ) ;
#11 = FACE_OUTER_BOUND ( 'NONE', #15, .T. ) ;
#12 = CARTESIAN_POINT ( 'NONE',  ( 4.592425496802575451E-17, 1.625000000000000000, 0.3750000000000000555 ) ) ;
#13 = DIRECTION ( 'NONE',  ( 0.000000000000000000, 0.000000000000000000, -1.000000000000000000 ) ) ;
#14 = COLOUR_RGB ( '',1.000000000000000000, 0.000000000000000000, 0.000000000000000000 ) ;
#15 = EDGE_LOOP ( 'NONE', ( #167, #21, #142, #235 ) ) ;
#16 = ORIENTED_EDGE ( 'NONE', *, *, #263, .F. ) ;
#17 =( LENGTH_UNIT ( ) NAMED_UNIT ( * ) SI_UNIT ( $, .METRE. ) );
#18 = SURFACE_STYLE_USAGE ( .BOTH. , #194 ) ;
#19 = ORIENTED_EDGE ( 'NONE', *, *, #233, .F. ) ;
#20 = AXIS2_PLACEMENT_3D ( 'NONE', #295, #224, #59 ) ;
#21 = ORIENTED_EDGE ( 'NONE', *, *, #160, .T. ) ;
#22 = AXIS2_PLACEMENT_3D ( 'NONE', #307, #256, #157 ) ;
#23 = AXIS2_PLACEMENT_3D ( 'NONE', #209, #138, #298 ) ;
#24 = SURFACE_SIDE_STYLE ('',( #189 ) ) ;
#25 = ADVANCED_FACE ( 'NONE', ( #11 ), #223, .T. ) ;
#26 =( NAMED_UNIT ( * ) PLANE_ANGLE_UNIT ( ) SI_UNIT ( $, .RADIAN. ) );
#27 = CARTESIAN_POINT ( 'NONE',  ( 0.000000000000000000, 0.000000000000000000, 0.000000000000000000 ) ) ;
#28 = DIMENSIONAL_EXPONENTS ( 1.000000000000000000, 0.000000000000000000, 0.000000000000000000, 0.000000000000000000, 0.000000000000000000, 0.000000000000000000, 0.000000000000000000 ) ;
#29 = UNCERTAINTY_MEASURE_WITH_UNIT (LENGTH_MEASURE( 1.000000000000000082E-05 ), #58, 'distance_accuracy_value', 'NONE');
#30 = COLOUR_RGB ( '',1.000000000000000000, 0.000000000000000000, 0.000000000000000000 ) ;
#31 =( LENGTH_UNIT ( ) NAMED_UNIT ( * ) SI_UNIT ( $, .METRE. ) );
#32 = SURFACE_SIDE_STYLE ('',( #297 ) ) ;
#33 = SURFACE_STYLE_FILL_AREA ( #205 ) ;
#34 = EDGE_LOOP ( 'NONE', ( #231, #98, #19, #196 ) ) ;
#35 = CARTESIAN_POINT ( 'NONE',  ( 0.000000000000000000, 1.625000000000000000, 0.000000000000000000 ) ) ;
#36 = STYLED_ITEM ( 'NONE', ( #225 ), #259 ) ;
#37 = MECHANICAL_DESIGN_GEOMETRIC_PRESENTATION_REPRESENTATION (  '', ( #44 ), #126 ) ;
#38 = FILL_AREA_STYLE_COLOUR ( '', #14 ) ;
#39 = PRESENTATION_STYLE_ASSIGNMENT (( #252 ) ) ;
#40 = FACE_OUTER_BOUND ( 'NONE', #212, .T. ) ;
#41 = VERTEX_POINT ( 'NONE', #79 ) ;
#42 = UNCERTAINTY_MEASURE_WITH_UNIT (LENGTH_MEASURE( 1.000000000000000082E-05 ), #216, 'distance_accuracy_value', 'NONE');
#43 = PLANE ( 'NONE',  #22 ) ;
#44 = STYLED_ITEM ( 'NONE', ( #241 ), #304 ) ;
#45 = FILL_AREA_STYLE ('',( #38 ) ) ;
#46 =( LENGTH_UNIT ( ) NAMED_UNIT ( * ) SI_UNIT ( $, .METRE. ) );
#47 = DIRECTION ( 'NONE',  ( 0.000000000000000000, 0.000000000000000000, -1.000000000000000000 ) ) ;
#48 = CARTESIAN_POINT ( 'NONE',  ( 0.000000000000000000, 0.000000000000000000, -0.3750000000000000555 ) ) ;
#49 =( NAMED_UNIT ( * ) PLANE_ANGLE_UNIT ( ) SI_UNIT ( $, .RADIAN. ) );
#50 =( NAMED_UNIT ( * ) PLANE_ANGLE_UNIT ( ) SI_UNIT ( $, .RADIAN. ) );
#51 = PRESENTATION_LAYER_ASSIGNMENT (  '', '', ( #36 ) ) ;
#52 = UNCERTAINTY_MEASURE_WITH_UNIT (LENGTH_MEASURE( 1.000000000000000082E-05 ), #237, 'distance_accuracy_value', 'NONE');
#53 = LENGTH_MEASURE_WITH_UNIT ( LENGTH_MEASURE( 0.02539999999999999897 ), #191 );
#54 = ORIENTED_EDGE ( 'NONE', *, *, #176, .T. ) ;
#55 = COLOUR_RGB ( '',1.000000000000000000, 0.000000000000000000, 0.000000000000000000 ) ;
#56 = STYLED_ITEM ( 'NONE', ( #163 ), #125 ) ;
#57 = EDGE_CURVE ( 'NONE', #238, #137, #217, .T. ) ;
#58 =( CONVERSION_BASED_UNIT ( 'INCH', #258 ) LENGTH_UNIT ( ) NAMED_UNIT ( #28 ) );
#59 = DIRECTION ( 'NONE',  ( 0.000000000000000000, 0.000000000000000000, -1.000000000000000000 ) ) ;
#60 = ORIENTED_EDGE ( 'NONE', *, *, #215, .T. ) ;
#61 = SURFACE_SIDE_STYLE ('',( #220 ) ) ;
#62 = PRESENTATION_STYLE_ASSIGNMENT (( #7 ) ) ;
#63 = SURFACE_SIDE_STYLE ('',( #269 ) ) ;
#64 = CIRCLE ( 'NONE', #96, 0.3750000000000000555 ) ;
#65 = FACE_OUTER_BOUND ( 'NONE', #34, .T. ) ;
#66 = FILL_AREA_STYLE ('',( #208 ) ) ;
#67 =( CONVERSION_BASED_UNIT ( 'INCH', #306 ) LENGTH_UNIT ( ) NAMED_UNIT ( #187 ) );
#68 = CARTESIAN_POINT ( 'NONE',  ( -1.224646799147352714E-16, 4.000000000000000000, 0.000000000000000000 ) ) ;
#69 = SURFACE_STYLE_USAGE ( .BOTH. , #63 ) ;
#70 = DIRECTION ( 'NONE',  ( -5.156407575357275299E-17, 1.000000000000000000, -0.000000000000000000 ) ) ;
#71 = EDGE_CURVE ( 'NONE', #41, #267, #211, .T. ) ;
#72 = CARTESIAN_POINT ( 'NONE',  ( 4.592425496802575451E-17, 0.000000000000000000, 0.3750000000000000555 ) ) ;
#73 = ORIENTED_EDGE ( 'NONE', *, *, #176, .F. ) ;
#74 = AXIS2_PLACEMENT_3D ( 'NONE', #2, #105, #202 ) ;
#75 = VERTEX_POINT ( 'NONE', #93 ) ;
#76 = AXIS2_PLACEMENT_3D ( 'NONE', #35, #81, #185 ) ;
#77 = EDGE_CURVE ( 'NONE', #91, #267, #239, .T. ) ;
#78 =( GEOMETRIC_REPRESENTATION_CONTEXT ( 3 ) GLOBAL_UNCERTAINTY_ASSIGNED_CONTEXT ( ( #102 ) ) GLOBAL_UNIT_ASSIGNED_CONTEXT ( ( #198, #50, #119 ) ) REPRESENTATION_CONTEXT ( 'NONE', 'WORKASPACE' ) );
#79 = CARTESIAN_POINT ( 'NONE',  ( 0.000000000000000000, 1.625000000000000000, -0.3750000000000000555 ) ) ;
#80 = PRODUCT_CONTEXT ( 'NONE', #179, 'mechanical' ) ;
#81 = DIRECTION ( 'NONE',  ( -0.000000000000000000, -1.000000000000000000, -0.000000000000000000 ) ) ;
#82 = CLOSED_SHELL ( 'NONE', ( #210, #293, #115, #5 ) ) ;
#83 = AXIS2_PLACEMENT_3D ( 'NONE', #139, #228, #9 ) ;
#84 = PRODUCT ( '59853', '59853', '', ( #80 ) ) ;
#85 = DIRECTION ( 'NONE',  ( -0.000000000000000000, -1.000000000000000000, -0.000000000000000000 ) ) ;
#86 = CYLINDRICAL_SURFACE ( 'NONE', #172, 0.3750000000000001110 ) ;
#87 = SHAPE_DEFINITION_REPRESENTATION ( #89, #128 ) ;
#88 = EDGE_CURVE ( 'NONE', #300, #75, #10, .T. ) ;
#89 = PRODUCT_DEFINITION_SHAPE ( 'NONE', 'NONE',  #287 ) ;
#90 = PLANE ( 'NONE',  #173 ) ;
#91 = VERTEX_POINT ( 'NONE', #262 ) ;
#92 = PRESENTATION_STYLE_ASSIGNMENT (( #18 ) ) ;
#93 = CARTESIAN_POINT ( 'NONE',  ( -0.3750000000000002776, 4.000000000000000000, 0.000000000000000000 ) ) ;
#94 = SURFACE_SIDE_STYLE ('',( #118 ) ) ;
#95 =( NAMED_UNIT ( * ) PLANE_ANGLE_UNIT ( ) SI_UNIT ( $, .RADIAN. ) );
#96 = AXIS2_PLACEMENT_3D ( 'NONE', #111, #164, #181 ) ;
#97 = ORIENTED_EDGE ( 'NONE', *, *, #215, .F. ) ;
#98 = ORIENTED_EDGE ( 'NONE', *, *, #281, .T. ) ;
#99 = ORIENTED_EDGE ( 'NONE', *, *, #1, .T. ) ;
#100 = FACE_OUTER_BOUND ( 'NONE', #177, .T. ) ;
#101 = PRESENTATION_LAYER_ASSIGNMENT (  '', '', ( #285 ) ) ;
#102 = UNCERTAINTY_MEASURE_WITH_UNIT (LENGTH_MEASURE( 1.000000000000000082E-05 ), #198, 'distance_accuracy_value', 'NONE');
#103 = ADVANCED_FACE ( 'NONE', ( #100 ), #206, .T. ) ;
#104 = CIRCLE ( 'NONE', #280, 0.3750000000000000555 ) ;
#105 = DIRECTION ( 'NONE',  ( -0.000000000000000000, -1.000000000000000000, -0.000000000000000000 ) ) ;
#106 = DIMENSIONAL_EXPONENTS ( 1.000000000000000000, 0.000000000000000000, 0.000000000000000000, 0.000000000000000000, 0.000000000000000000, 0.000000000000000000, 0.000000000000000000 ) ;
#107 =( NAMED_UNIT ( * ) SI_UNIT ( $, .STERADIAN. ) SOLID_ANGLE_UNIT ( ) );
#108 = DIMENSIONAL_EXPONENTS ( 1.000000000000000000, 0.000000000000000000, 0.000000000000000000, 0.000000000000000000, 0.000000000000000000, 0.000000000000000000, 0.000000000000000000 ) ;
#109 = LINE ( 'NONE', #274, #260 ) ;
#110 = DIRECTION ( 'NONE',  ( -5.156407575357275299E-17, 1.000000000000000000, -0.000000000000000000 ) ) ;
#111 = CARTESIAN_POINT ( 'NONE',  ( 0.000000000000000000, 0.000000000000000000, 0.000000000000000000 ) ) ;
#112 = DIRECTION ( 'NONE',  ( -1.000000000000000000, -5.156407575357275916E-17, 0.000000000000000000 ) ) ;
#113 = STYLED_ITEM ( 'NONE', ( #62 ), #25 ) ;
#114 = DIRECTION ( 'NONE',  ( -5.156407575357275299E-17, 1.000000000000000000, -0.000000000000000000 ) ) ;
#115 = ADVANCED_FACE ( 'NONE', ( #230 ), #86, .T. ) ;
#116 = LENGTH_MEASURE_WITH_UNIT ( LENGTH_MEASURE( 0.02539999999999999897 ), #31 );
#117 = CARTESIAN_POINT ( 'NONE',  ( 0.000000000000000000, 0.000000000000000000, 0.000000000000000000 ) ) ;
#118 = SURFACE_STYLE_FILL_AREA ( #45 ) ;
#119 =( NAMED_UNIT ( * ) SI_UNIT ( $, .STERADIAN. ) SOLID_ANGLE_UNIT ( ) );
#120 = EDGE_LOOP ( 'NONE', ( #16, #219 ) ) ;
#121 = CIRCLE ( 'NONE', #158, 0.3750000000000000555 ) ;
#122 = CARTESIAN_POINT ( 'NONE',  ( 0.000000000000000000, 0.000000000000000000, 0.000000000000000000 ) ) ;
#123 = ORIENTED_EDGE ( 'NONE', *, *, #77, .T. ) ;
#124 = LENGTH_MEASURE_WITH_UNIT ( LENGTH_MEASURE( 0.02539999999999999897 ), #46 );
#125 = ADVANCED_FACE ( 'NONE', ( #136 ), #180, .T. ) ;
#126 =( GEOMETRIC_REPRESENTATION_CONTEXT ( 3 ) GLOBAL_UNCERTAINTY_ASSIGNED_CONTEXT ( ( #29 ) ) GLOBAL_UNIT_ASSIGNED_CONTEXT ( ( #58, #26, #222 ) ) REPRESENTATION_CONTEXT ( 'NONE', 'WORKASPACE' ) );
#127 = ORIENTED_EDGE ( 'NONE', *, *, #88, .F. ) ;
#128 = ADVANCED_BREP_SHAPE_REPRESENTATION ( '59853', ( #304, #301, #294 ), #78 ) ;
#129 = CLOSED_SHELL ( 'NONE', ( #103, #259, #25, #125 ) ) ;
#130 = VECTOR ( 'NONE', #271, 39.37007874015748143 ) ;
#131 = SURFACE_STYLE_USAGE ( .BOTH. , #24 ) ;
#132 = COLOUR_RGB ( '',0.7921568627450980005, 0.8196078431372548767, 0.9333333333333333481 ) ;
#133 = ORIENTED_EDGE ( 'NONE', *, *, #233, .T. ) ;
#134 =( LENGTH_UNIT ( ) NAMED_UNIT ( * ) SI_UNIT ( $, .METRE. ) );
#135 = FACE_OUTER_BOUND ( 'NONE', #244, .T. ) ;
#136 = FACE_OUTER_BOUND ( 'NONE', #146, .T. ) ;
#137 = VERTEX_POINT ( 'NONE', #203 ) ;
#138 = DIRECTION ( 'NONE',  ( -5.156407575357275299E-17, 1.000000000000000000, -0.000000000000000000 ) ) ;
#139 = CARTESIAN_POINT ( 'NONE',  ( 3.032960542342103792E-32, 1.625000000000000000, 0.000000000000000000 ) ) ;
#140 = MECHANICAL_DESIGN_GEOMETRIC_PRESENTATION_REPRESENTATION (  '', ( #36 ), #236 ) ;
#141 = DIRECTION ( 'NONE',  ( -0.000000000000000000, -1.000000000000000000, -0.000000000000000000 ) ) ;
#142 = ORIENTED_EDGE ( 'NONE', *, *, #71, .T. ) ;
#143 =( NAMED_UNIT ( * ) PLANE_ANGLE_UNIT ( ) SI_UNIT ( $, .RADIAN. ) );
#144 = LENGTH_MEASURE_WITH_UNIT ( LENGTH_MEASURE( 0.02539999999999999897 ), #193 );
#145 = COLOUR_RGB ( '',0.7921568627450980005, 0.8196078431372548767, 0.9333333333333333481 ) ;
#146 = EDGE_LOOP ( 'NONE', ( #54, #123 ) ) ;
#147 = UNCERTAINTY_MEASURE_WITH_UNIT (LENGTH_MEASURE( 1.000000000000000082E-05 ), #67, 'distance_accuracy_value', 'NONE');
#148 = EDGE_CURVE ( 'NONE', #197, #91, #289, .T. ) ;
#149 = ORIENTED_EDGE ( 'NONE', *, *, #148, .T. ) ;
#150 = MECHANICAL_DESIGN_GEOMETRIC_PRESENTATION_REPRESENTATION (  '', ( #251 ), #3 ) ;
#151 = CARTESIAN_POINT ( 'NONE',  ( -0.3750000000000002220, 4.000000000000000000, 0.000000000000000000 ) ) ;
#152 = VECTOR ( 'NONE', #141, 39.37007874015748143 ) ;
#153 =( NAMED_UNIT ( * ) SI_UNIT ( $, .STERADIAN. ) SOLID_ANGLE_UNIT ( ) );
#154 =( CONVERSION_BASED_UNIT ( 'INCH', #116 ) LENGTH_UNIT ( ) NAMED_UNIT ( #162 ) );
#155 =( NAMED_UNIT ( * ) SI_UNIT ( $, .STERADIAN. ) SOLID_ANGLE_UNIT ( ) );
#156 = PRODUCT_RELATED_PRODUCT_CATEGORY ( 'part', '', ( #84 ) ) ;
#157 = DIRECTION ( 'NONE',  ( 1.000000000000000000, 5.156407575357275916E-17, 0.000000000000000000 ) ) ;
#158 = AXIS2_PLACEMENT_3D ( 'NONE', #275, #114, #232 ) ;
#159 = DIRECTION ( 'NONE',  ( 0.000000000000000000, 0.000000000000000000, -1.000000000000000000 ) ) ;
#160 = EDGE_CURVE ( 'NONE', #197, #41, #165, .T. ) ;
#161 = FACE_OUTER_BOUND ( 'NONE', #120, .T. ) ;
#162 = DIMENSIONAL_EXPONENTS ( 1.000000000000000000, 0.000000000000000000, 0.000000000000000000, 0.000000000000000000, 0.000000000000000000, 0.000000000000000000, 0.000000000000000000 ) ;
#163 = PRESENTATION_STYLE_ASSIGNMENT (( #69 ) ) ;
#164 = DIRECTION ( 'NONE',  ( -0.000000000000000000, -1.000000000000000000, -0.000000000000000000 ) ) ;
#165 = CIRCLE ( 'NONE', #76, 0.3750000000000000555 ) ;
#166 =( LENGTH_UNIT ( ) NAMED_UNIT ( * ) SI_UNIT ( $, .METRE. ) );
#167 = ORIENTED_EDGE ( 'NONE', *, *, #148, .F. ) ;
#168 = AXIS2_PLACEMENT_3D ( 'NONE', #174, #110, #302 ) ;
#169 = UNCERTAINTY_MEASURE_WITH_UNIT (LENGTH_MEASURE( 1.000000000000000082E-05 ), #154, 'distance_accuracy_value', 'NONE');
#170 = ORIENTED_EDGE ( 'NONE', *, *, #281, .F. ) ;
#171 =( NAMED_UNIT ( * ) SI_UNIT ( $, .STERADIAN. ) SOLID_ANGLE_UNIT ( ) );
#172 = AXIS2_PLACEMENT_3D ( 'NONE', #175, #188, #277 ) ;
#173 = AXIS2_PLACEMENT_3D ( 'NONE', #221, #178, #299 ) ;
#174 = CARTESIAN_POINT ( 'NONE',  ( -1.224646799147352714E-16, 4.000000000000000000, 0.000000000000000000 ) ) ;
#175 = CARTESIAN_POINT ( 'NONE',  ( -1.224646799147352714E-16, 4.000000000000000000, 0.000000000000000000 ) ) ;
#176 = EDGE_CURVE ( 'NONE', #267, #91, #64, .T. ) ;
#177 = EDGE_LOOP ( 'NONE', ( #242, #149, #73, #253 ) ) ;
#178 = DIRECTION ( 'NONE',  ( 0.000000000000000000, 1.000000000000000000, 0.000000000000000000 ) ) ;
#179 = APPLICATION_CONTEXT ( 'automotive_design' ) ;
#180 = PLANE ( 'NONE',  #246 ) ;
#181 = DIRECTION ( 'NONE',  ( 0.000000000000000000, 0.000000000000000000, -1.000000000000000000 ) ) ;
#182 = CARTESIAN_POINT ( 'NONE',  ( 4.985351078100356093E-34, 1.625000000000000000, 0.000000000000000000 ) ) ;
#183 = FILL_AREA_STYLE ('',( #226 ) ) ;
#184 =( GEOMETRIC_REPRESENTATION_CONTEXT ( 3 ) GLOBAL_UNCERTAINTY_ASSIGNED_CONTEXT ( ( #147 ) ) GLOBAL_UNIT_ASSIGNED_CONTEXT ( ( #67, #49, #107 ) ) REPRESENTATION_CONTEXT ( 'NONE', 'WORKASPACE' ) );
#185 = DIRECTION ( 'NONE',  ( 0.000000000000000000, 0.000000000000000000, -1.000000000000000000 ) ) ;
#186 = FILL_AREA_STYLE_COLOUR ( '', #132 ) ;
#187 = DIMENSIONAL_EXPONENTS ( 1.000000000000000000, 0.000000000000000000, 0.000000000000000000, 0.000000000000000000, 0.000000000000000000, 0.000000000000000000, 0.000000000000000000 ) ;
#188 = DIRECTION ( 'NONE',  ( -5.156407575357275299E-17, 1.000000000000000000, -0.000000000000000000 ) ) ;
#189 = SURFACE_STYLE_FILL_AREA ( #296 ) ;
#190 = CARTESIAN_POINT ( 'NONE',  ( 0.000000000000000000, 1.625000000000000000, 0.000000000000000000 ) ) ;
#191 =( LENGTH_UNIT ( ) NAMED_UNIT ( * ) SI_UNIT ( $, .METRE. ) );
#192 = CIRCLE ( 'NONE', #23, 0.3750000000000001665 ) ;
#193 =( LENGTH_UNIT ( ) NAMED_UNIT ( * ) SI_UNIT ( $, .METRE. ) );
#194 = SURFACE_SIDE_STYLE ('',( #33 ) ) ;
#195 = APPLICATION_CONTEXT ( 'automotive_design' ) ;
#196 = ORIENTED_EDGE ( 'NONE', *, *, #1, .F. ) ;
#197 = VERTEX_POINT ( 'NONE', #12 ) ;
#198 =( CONVERSION_BASED_UNIT ( 'INCH', #240 ) LENGTH_UNIT ( ) NAMED_UNIT ( #6 ) );
#199 = PRODUCT_DEFINITION_FORMATION_WITH_SPECIFIED_SOURCE ( 'ANY', '', #84, .NOT_KNOWN. ) ;
#200 = DIMENSIONAL_EXPONENTS ( 1.000000000000000000, 0.000000000000000000, 0.000000000000000000, 0.000000000000000000, 0.000000000000000000, 0.000000000000000000, 0.000000000000000000 ) ;
#201 = DIRECTION ( 'NONE',  ( 0.000000000000000000, 0.000000000000000000, 1.000000000000000000 ) ) ;
#202 = DIRECTION ( 'NONE',  ( 0.000000000000000000, 0.000000000000000000, -1.000000000000000000 ) ) ;
#203 = CARTESIAN_POINT ( 'NONE',  ( 0.3750000000000000555, 1.625000000000000000, 4.592425496802576684E-17 ) ) ;
#204 = CARTESIAN_POINT ( 'NONE',  ( -0.3750000000000000555, 1.625000000000000000, 0.000000000000000000 ) ) ;
#205 = FILL_AREA_STYLE ('',( #186 ) ) ;
#206 = CYLINDRICAL_SURFACE ( 'NONE', #20, 0.3750000000000000555 ) ;
#207 = FILL_AREA_STYLE_COLOUR ( '', #266 ) ;
#208 = FILL_AREA_STYLE_COLOUR ( '', #30 ) ;
#209 = CARTESIAN_POINT ( 'NONE',  ( -1.224646799147352714E-16, 4.000000000000000000, 0.000000000000000000 ) ) ;
#210 = ADVANCED_FACE ( 'NONE', ( #65 ), #248, .T. ) ;
#211 = LINE ( 'NONE', #48, #152 ) ;
#212 = EDGE_LOOP ( 'NONE', ( #133, #282 ) ) ;
#213 = MECHANICAL_DESIGN_GEOMETRIC_PRESENTATION_REPRESENTATION (  '', ( #56 ), #309 ) ;
#214 =( NAMED_UNIT ( * ) PLANE_ANGLE_UNIT ( ) SI_UNIT ( $, .RADIAN. ) );
#215 = EDGE_CURVE ( 'NONE', #137, #238, #121, .T. ) ;
#216 =( CONVERSION_BASED_UNIT ( 'INCH', #53 ) LENGTH_UNIT ( ) NAMED_UNIT ( #200 ) );
#217 = CIRCLE ( 'NONE', #83, 0.3750000000000000555 ) ;
#218 = MECHANICAL_DESIGN_GEOMETRIC_PRESENTATION_REPRESENTATION (  '', ( #285 ), #184 ) ;
#219 = ORIENTED_EDGE ( 'NONE', *, *, #160, .F. ) ;
#220 = SURFACE_STYLE_FILL_AREA ( #183 ) ;
#221 = CARTESIAN_POINT ( 'NONE',  ( 0.000000000000000000, 1.625000000000000000, 0.000000000000000000 ) ) ;
#222 =( NAMED_UNIT ( * ) SI_UNIT ( $, .STERADIAN. ) SOLID_ANGLE_UNIT ( ) );
#223 = CYLINDRICAL_SURFACE ( 'NONE', #74, 0.3750000000000000555 ) ;
#224 = DIRECTION ( 'NONE',  ( -0.000000000000000000, -1.000000000000000000, -0.000000000000000000 ) ) ;
#225 = PRESENTATION_STYLE_ASSIGNMENT (( #131 ) ) ;
#226 = FILL_AREA_STYLE_COLOUR ( '', #145 ) ;
#227 =( NAMED_UNIT ( * ) SI_UNIT ( $, .STERADIAN. ) SOLID_ANGLE_UNIT ( ) );
#228 = DIRECTION ( 'NONE',  ( -5.156407575357275299E-17, 1.000000000000000000, -0.000000000000000000 ) ) ;
#229 = PRESENTATION_LAYER_ASSIGNMENT (  '', '', ( #56 ) ) ;
#230 = FACE_OUTER_BOUND ( 'NONE', #254, .T. ) ;
#231 = ORIENTED_EDGE ( 'NONE', *, *, #57, .T. ) ;
#232 = DIRECTION ( 'NONE',  ( -1.000000000000000000, 0.000000000000000000, 0.000000000000000000 ) ) ;
#233 = EDGE_CURVE ( 'NONE', #75, #300, #192, .T. ) ;
#234 = DIRECTION ( 'NONE',  ( 0.000000000000000000, -1.000000000000000000, -0.000000000000000000 ) ) ;
#235 = ORIENTED_EDGE ( 'NONE', *, *, #77, .F. ) ;
#236 =( GEOMETRIC_REPRESENTATION_CONTEXT ( 3 ) GLOBAL_UNCERTAINTY_ASSIGNED_CONTEXT ( ( #42 ) ) GLOBAL_UNIT_ASSIGNED_CONTEXT ( ( #216, #95, #153 ) ) REPRESENTATION_CONTEXT ( 'NONE', 'WORKASPACE' ) );
#237 =( CONVERSION_BASED_UNIT ( 'INCH', #144 ) LENGTH_UNIT ( ) NAMED_UNIT ( #106 ) );
#238 = VERTEX_POINT ( 'NONE', #204 ) ;
#239 = CIRCLE ( 'NONE', #272, 0.3750000000000000555 ) ;
#240 = LENGTH_MEASURE_WITH_UNIT ( LENGTH_MEASURE( 0.02539999999999999897 ), #134 );
#241 = PRESENTATION_STYLE_ASSIGNMENT (( #245 ) ) ;
#242 = ORIENTED_EDGE ( 'NONE', *, *, #263, .T. ) ;
#243 = AXIS2_PLACEMENT_3D ( 'NONE', #68, #70, #8 ) ;
#244 = EDGE_LOOP ( 'NONE', ( #308, #97 ) ) ;
#245 = SURFACE_STYLE_USAGE ( .BOTH. , #61 ) ;
#246 = AXIS2_PLACEMENT_3D ( 'NONE', #117, #234, #13 ) ;
#247 = FILL_AREA_STYLE_COLOUR ( '', #55 ) ;
#248 = CYLINDRICAL_SURFACE ( 'NONE', #243, 0.3750000000000001110 ) ;
#249 = CARTESIAN_POINT ( 'NONE',  ( 0.3750000000000000555, 4.000000000000000000, 4.592425496802576684E-17 ) ) ;
#250 = DIRECTION ( 'NONE',  ( -5.156407575357275916E-17, 1.000000000000000000, -0.000000000000000000 ) ) ;
#251 = STYLED_ITEM ( 'NONE', ( #39 ), #103 ) ;
#252 = SURFACE_STYLE_USAGE ( .BOTH. , #94 ) ;
#253 = ORIENTED_EDGE ( 'NONE', *, *, #71, .F. ) ;
#254 = EDGE_LOOP ( 'NONE', ( #170, #60, #99, #127 ) ) ;
#255 = PRESENTATION_LAYER_ASSIGNMENT (  '', '', ( #251 ) ) ;
#256 = DIRECTION ( 'NONE',  ( 5.156407575357275916E-17, -1.000000000000000000, 0.000000000000000000 ) ) ;
#257 = DIRECTION ( 'NONE',  ( -0.000000000000000000, -1.000000000000000000, -0.000000000000000000 ) ) ;
#258 = LENGTH_MEASURE_WITH_UNIT ( LENGTH_MEASURE( 0.02539999999999999897 ), #17 );
#259 = ADVANCED_FACE ( 'NONE', ( #161 ), #90, .T. ) ;
#260 = VECTOR ( 'NONE', #250, 39.37007874015748143 ) ;
#261 = LINE ( 'NONE', #151, #291 ) ;
#262 = CARTESIAN_POINT ( 'NONE',  ( 4.592425496802575451E-17, 0.000000000000000000, 0.3750000000000000555 ) ) ;
#263 = EDGE_CURVE ( 'NONE', #41, #197, #104, .T. ) ;
#264 =( NAMED_UNIT ( * ) PLANE_ANGLE_UNIT ( ) SI_UNIT ( $, .RADIAN. ) );
#265 = UNCERTAINTY_MEASURE_WITH_UNIT (LENGTH_MEASURE( 1.000000000000000082E-05 ), #283, 'distance_accuracy_value', 'NONE');
#266 = COLOUR_RGB ( '',1.000000000000000000, 0.000000000000000000, 0.000000000000000000 ) ;
#267 = VERTEX_POINT ( 'NONE', #278 ) ;
#268 = PRODUCT_DEFINITION_CONTEXT ( 'detailed design', #195, 'design' ) ;
#269 = SURFACE_STYLE_FILL_AREA ( #66 ) ;
#270 = APPLICATION_PROTOCOL_DEFINITION ( 'draft international standard', 'automotive_design', 1998, #195 ) ;
#271 = DIRECTION ( 'NONE',  ( -0.000000000000000000, -1.000000000000000000, -0.000000000000000000 ) ) ;
#272 = AXIS2_PLACEMENT_3D ( 'NONE', #122, #257, #47 ) ;
#273 = PRESENTATION_LAYER_ASSIGNMENT (  '', '', ( #44 ) ) ;
#274 = CARTESIAN_POINT ( 'NONE',  ( 0.3749999999999999445, 4.000000000000000000, 4.592425496802576068E-17 ) ) ;
#275 = CARTESIAN_POINT ( 'NONE',  ( 3.032960542342103792E-32, 1.625000000000000000, 0.000000000000000000 ) ) ;
#276 = DIRECTION ( 'NONE',  ( -5.156407575357275916E-17, 1.000000000000000000, 0.000000000000000000 ) ) ;
#277 = DIRECTION ( 'NONE',  ( -1.000000000000000000, 0.000000000000000000, 0.000000000000000000 ) ) ;
#278 = CARTESIAN_POINT ( 'NONE',  ( 0.000000000000000000, 0.000000000000000000, -0.3750000000000000555 ) ) ;
#279 = PRESENTATION_LAYER_ASSIGNMENT (  '', '', ( #113 ) ) ;
#280 = AXIS2_PLACEMENT_3D ( 'NONE', #190, #85, #159 ) ;
#281 = EDGE_CURVE ( 'NONE', #137, #300, #109, .T. ) ;
#282 = ORIENTED_EDGE ( 'NONE', *, *, #88, .T. ) ;
#283 =( CONVERSION_BASED_UNIT ( 'INCH', #124 ) LENGTH_UNIT ( ) NAMED_UNIT ( #108 ) );
#284 = AXIS2_PLACEMENT_3D ( 'NONE', #182, #276, #112 ) ;
#285 = STYLED_ITEM ( 'NONE', ( #92 ), #301 ) ;
#286 = DIRECTION ( 'NONE',  ( 1.000000000000000000, 0.000000000000000000, 0.000000000000000000 ) ) ;
#287 = PRODUCT_DEFINITION ( 'UNKNOWN', '', #199, #268 ) ;
#288 = APPLICATION_PROTOCOL_DEFINITION ( 'draft international standard', 'automotive_design', 1998, #179 ) ;
#289 = LINE ( 'NONE', #72, #130 ) ;
#290 = FILL_AREA_STYLE ('',( #247 ) ) ;
#291 = VECTOR ( 'NONE', #303, 39.37007874015748143 ) ;
#292 = MECHANICAL_DESIGN_GEOMETRIC_PRESENTATION_REPRESENTATION (  '', ( #113 ), #305 ) ;
#293 = ADVANCED_FACE ( 'NONE', ( #135 ), #4, .F. ) ;
#294 = AXIS2_PLACEMENT_3D ( 'NONE', #27, #201, #286 ) ;
#295 = CARTESIAN_POINT ( 'NONE',  ( 0.000000000000000000, 0.000000000000000000, 0.000000000000000000 ) ) ;
#296 = FILL_AREA_STYLE ('',( #207 ) ) ;
#297 = SURFACE_STYLE_FILL_AREA ( #290 ) ;
#298 = DIRECTION ( 'NONE',  ( -1.000000000000000000, 0.000000000000000000, 0.000000000000000000 ) ) ;
#299 = DIRECTION ( 'NONE',  ( 0.000000000000000000, -0.000000000000000000, 1.000000000000000000 ) ) ;
#300 = VERTEX_POINT ( 'NONE', #249 ) ;
#301 = MANIFOLD_SOLID_BREP ( 'Revolve - Tool Body (Straight Shanked)', #82 ) ;
#302 = DIRECTION ( 'NONE',  ( -1.000000000000000000, 0.000000000000000000, 0.000000000000000000 ) ) ;
#303 = DIRECTION ( 'NONE',  ( -5.156407575357275916E-17, 1.000000000000000000, -0.000000000000000000 ) ) ;
#304 = MANIFOLD_SOLID_BREP ( 'Revolve - Cutting Edge', #129 ) ;
#305 =( GEOMETRIC_REPRESENTATION_CONTEXT ( 3 ) GLOBAL_UNCERTAINTY_ASSIGNED_CONTEXT ( ( #265 ) ) GLOBAL_UNIT_ASSIGNED_CONTEXT ( ( #283, #264, #155 ) ) REPRESENTATION_CONTEXT ( 'NONE', 'WORKASPACE' ) );
#306 = LENGTH_MEASURE_WITH_UNIT ( LENGTH_MEASURE( 0.02539999999999999897 ), #166 );
#307 = CARTESIAN_POINT ( 'NONE',  ( 0.3750000000000000555, 4.000000000000000000, 0.000000000000000000 ) ) ;
#308 = ORIENTED_EDGE ( 'NONE', *, *, #57, .F. ) ;
#309 =( GEOMETRIC_REPRESENTATION_CONTEXT ( 3 ) GLOBAL_UNCERTAINTY_ASSIGNED_CONTEXT ( ( #169 ) ) GLOBAL_UNIT_ASSIGNED_CONTEXT ( ( #154, #143, #171 ) ) REPRESENTATION_CONTEXT ( 'NONE', 'WORKASPACE' ) );
ENDSEC;
END-ISO-10303-21;
