ISO-10303-21;
HEADER;
FILE_DESCRIPTION (( 'STEP AP214' ),
    '1' );
FILE_NAME ('Micro_BMSM-010-2.STEP',
    '2021-09-03T15:39:22',
    ( '' ),
    ( '' ),
    'SwSTEP 2.0',
    'SolidWorks 2020',
    '' );
FILE_SCHEMA (( 'AUTOMOTIVE_DESIGN' ));
ENDSEC;

DATA;
#1 = PRODUCT_CONTEXT ( 'NONE', #32, 'mechanical' ) ;
#2 = DIRECTION ( 'NONE',  ( -1.000000000000000000, 0.0000000000000000000, 0.0000000000000000000 ) ) ;
#3 = ORIENTED_EDGE ( 'NONE', *, *, #110, .F. ) ;
#4 = SURFACE_STYLE_USAGE ( .BOTH. , #71 ) ;
#5 = ADVANCED_BREP_SHAPE_REPRESENTATION ( 'Micro_BMSM-010-2', ( #125, #37 ), #124 ) ;
#6 = EDGE_CURVE ( 'NONE', #324, #155, #277, .T. ) ;
#7 = AXIS2_PLACEMENT_3D ( 'NONE', #121, #274, #148 ) ;
#8 = CIRCLE ( 'NONE', #317, 0.04405499999999973326 ) ;
#9 = ADVANCED_FACE ( 'NONE', ( #135 ), #66, .T. ) ;
#10 = CIRCLE ( 'NONE', #129, 0.01966531499999999225 ) ;
#11 = FACE_OUTER_BOUND ( 'NONE', #59, .T. ) ;
#12 = COLOUR_RGB ( '',0.7921568627450980005, 0.8196078431372548767, 0.9333333333333333481 ) ;
#13 = ADVANCED_FACE ( 'NONE', ( #315 ), #172, .T. ) ;
#14 = VERTEX_POINT ( 'NONE', #16 ) ;
#15 = DIRECTION ( 'NONE',  ( -1.000000000000000000, 0.0000000000000000000, 0.0000000000000000000 ) ) ;
#16 = CARTESIAN_POINT ( 'NONE',  ( -0.04405499999999973326, 0.0000000000000000000, 1.496062999999999921 ) ) ;
#17 = LINE ( 'NONE', #40, #161 ) ;
#18 = DIRECTION ( 'NONE',  ( 1.000000000000000000, 0.0000000000000000000, -0.0000000000000000000 ) ) ;
#19 = AXIS2_PLACEMENT_3D ( 'NONE', #215, #242, #69 ) ;
#20 = ORIENTED_EDGE ( 'NONE', *, *, #291, .F. ) ;
#21 = CARTESIAN_POINT ( 'NONE',  ( 0.04405499999999973326, 6.313666573004162521E-18, 1.496062999999999921 ) ) ;
#22 = DIRECTION ( 'NONE',  ( -1.000000000000000000, 1.224646799147352961E-16, 0.0000000000000000000 ) ) ;
#23 = DIRECTION ( 'NONE',  ( -1.000000000000000000, 0.0000000000000000000, 0.0000000000000000000 ) ) ;
#24 = CARTESIAN_POINT ( 'NONE',  ( 0.01966531499999999225, 2.408306506897442331E-18, -2.408306506897442331E-18 ) ) ;
#25 = PRODUCT ( 'Micro_BMSM-010-2', 'Micro_BMSM-010-2', '', ( #1 ) ) ;
#26 = DIRECTION ( 'NONE',  ( 0.0000000000000000000, 0.0000000000000000000, 1.000000000000000000 ) ) ;
#27 = EDGE_CURVE ( 'NONE', #174, #283, #234, .T. ) ;
#28 = CARTESIAN_POINT ( 'NONE',  ( 2.408306506897442716E-18, 0.0000000000000000000, 0.01966531499999999918 ) ) ;
#29 = PRODUCT_RELATED_PRODUCT_CATEGORY ( 'part', '', ( #25 ) ) ;
#30 = CARTESIAN_POINT ( 'NONE',  ( 0.0000000000000000000, 0.0000000000000000000, 1.496062999999999921 ) ) ;
#31 = VECTOR ( 'NONE', #320, 39.37007874015748143 ) ;
#32 = APPLICATION_CONTEXT ( 'automotive_design' ) ;
#33 = COLOUR_RGB ( '',0.7921568627450980005, 0.8196078431372548767, 0.9333333333333333481 ) ;
#34 = ORIENTED_EDGE ( 'NONE', *, *, #193, .T. ) ;
#35 = CIRCLE ( 'NONE', #142, 0.01966531499999999918 ) ;
#36 = DIRECTION ( 'NONE',  ( 1.000000000000000000, 0.0000000000000000000, 0.0000000000000000000 ) ) ;
#37 = AXIS2_PLACEMENT_3D ( 'NONE', #223, #201, #227 ) ;
#38 =( LENGTH_UNIT ( ) NAMED_UNIT ( * ) SI_UNIT ( $, .METRE. ) );
#39 = VERTEX_POINT ( 'NONE', #168 ) ;
#40 = CARTESIAN_POINT ( 'NONE',  ( 0.05905500000000000332, 7.232151672364695422E-18, 1.496062999999999921 ) ) ;
#41 = ORIENTED_EDGE ( 'NONE', *, *, #284, .T. ) ;
#42 = DIRECTION ( 'NONE',  ( -1.000000000000000000, 0.0000000000000000000, 1.224646799147353207E-16 ) ) ;
#43 = DIRECTION ( 'NONE',  ( -1.000000000000000000, 0.0000000000000000000, 1.224646799147353207E-16 ) ) ;
#44 = VECTOR ( 'NONE', #49, 39.37007874015748143 ) ;
#45 = DIRECTION ( 'NONE',  ( -1.224646799147353207E-16, -0.0000000000000000000, -1.000000000000000000 ) ) ;
#46 = LINE ( 'NONE', #146, #31 ) ;
#47 = CARTESIAN_POINT ( 'NONE',  ( 0.05905500000000004496, 7.232151672364700045E-18, 0.2824450044209672606 ) ) ;
#48 = ADVANCED_FACE ( 'NONE', ( #11 ), #87, .T. ) ;
#49 = DIRECTION ( 'NONE',  ( -1.224646799147353207E-16, -0.0000000000000000000, -1.000000000000000000 ) ) ;
#50 = FILL_AREA_STYLE ('',( #55 ) ) ;
#51 = SURFACE_SIDE_STYLE ('',( #270 ) ) ;
#52 = SHAPE_DEFINITION_REPRESENTATION ( #299, #5 ) ;
#53 = ORIENTED_EDGE ( 'NONE', *, *, #275, .F. ) ;
#54 = ADVANCED_FACE ( 'NONE', ( #137 ), #152, .T. ) ;
#55 = FILL_AREA_STYLE_COLOUR ( '', #12 ) ;
#56 = VECTOR ( 'NONE', #219, 39.37007874015748143 ) ;
#57 = EDGE_CURVE ( 'NONE', #290, #39, #278, .T. ) ;
#58 = PRODUCT_DEFINITION_CONTEXT ( 'detailed design', #80, 'design' ) ;
#59 = EDGE_LOOP ( 'NONE', ( #99, #308, #192 ) ) ;
#60 = DIRECTION ( 'NONE',  ( 1.000000000000000000, 0.0000000000000000000, 0.0000000000000000000 ) ) ;
#61 = DIRECTION ( 'NONE',  ( -0.1736481776669311916, 2.126576849575783316E-17, 0.9848077530122080203 ) ) ;
#62 = ORIENTED_EDGE ( 'NONE', *, *, #258, .T. ) ;
#63 = DIRECTION ( 'NONE',  ( 1.000000000000000000, 0.0000000000000000000, 0.0000000000000000000 ) ) ;
#64 = CARTESIAN_POINT ( 'NONE',  ( 3.458953705992975487E-17, 0.0000000000000000000, 0.2824450044209672606 ) ) ;
#65 = LINE ( 'NONE', #194, #114 ) ;
#66 = PLANE ( 'NONE',  #248 ) ;
#67 = CARTESIAN_POINT ( 'NONE',  ( 0.0000000000000000000, 0.0000000000000000000, 0.0000000000000000000 ) ) ;
#68 = AXIS2_PLACEMENT_3D ( 'NONE', #218, #119, #22 ) ;
#69 = DIRECTION ( 'NONE',  ( 1.000000000000000000, 0.0000000000000000000, 0.0000000000000000000 ) ) ;
#70 = CARTESIAN_POINT ( 'NONE',  ( -0.01966531499999999225, 0.0000000000000000000, 2.408306506897442331E-18 ) ) ;
#71 = SURFACE_SIDE_STYLE ('',( #156 ) ) ;
#72 = CARTESIAN_POINT ( 'NONE',  ( -0.05905499999999996863, 0.0000000000000000000, 0.2824450044209672606 ) ) ;
#73 = ORIENTED_EDGE ( 'NONE', *, *, #154, .F. ) ;
#74 =( CONVERSION_BASED_UNIT ( 'INCH', #298 ) LENGTH_UNIT ( ) NAMED_UNIT ( #160 ) );
#75 = MECHANICAL_DESIGN_GEOMETRIC_PRESENTATION_REPRESENTATION (  '', ( #212 ), #182 ) ;
#76 = CONICAL_SURFACE ( 'NONE', #272, 0.04405499999999973326, 0.7853981633974491672 ) ;
#77 = APPLICATION_PROTOCOL_DEFINITION ( 'draft international standard', 'automotive_design', 1998, #80 ) ;
#78 =( LENGTH_UNIT ( ) NAMED_UNIT ( * ) SI_UNIT ( $, .METRE. ) );
#79 = UNCERTAINTY_MEASURE_WITH_UNIT (LENGTH_MEASURE( 1.000000000000000082E-05 ), #74, 'distance_accuracy_value', 'NONE');
#80 = APPLICATION_CONTEXT ( 'automotive_design' ) ;
#81 = ORIENTED_EDGE ( 'NONE', *, *, #254, .F. ) ;
#82 = ORIENTED_EDGE ( 'NONE', *, *, #291, .T. ) ;
#83 = CARTESIAN_POINT ( 'NONE',  ( 0.0000000000000000000, 0.0000000000000000000, 1.496062999999999921 ) ) ;
#84 = DIRECTION ( 'NONE',  ( 0.0000000000000000000, 0.0000000000000000000, 1.000000000000000000 ) ) ;
#85 = ADVANCED_FACE ( 'NONE', ( #321 ), #282, .T. ) ;
#86 = CARTESIAN_POINT ( 'NONE',  ( 2.408306506897442716E-18, 0.0000000000000000000, 0.01966531499999999918 ) ) ;
#87 = SPHERICAL_SURFACE ( 'NONE', #104, 0.01966531499999999918 ) ;
#88 = CIRCLE ( 'NONE', #204, 0.04405499999999973326 ) ;
#89 = DIRECTION ( 'NONE',  ( -1.000000000000000000, 0.0000000000000000000, 2.170579261049422841E-16 ) ) ;
#90 = ORIENTED_EDGE ( 'NONE', *, *, #57, .T. ) ;
#91 = CARTESIAN_POINT ( 'NONE',  ( 0.0000000000000000000, 0.0000000000000000000, 1.496062999999999921 ) ) ;
#92 = CARTESIAN_POINT ( 'NONE',  ( 0.04405499999999973326, 5.395181473643630390E-18, 1.496062999999999921 ) ) ;
#93 = CARTESIAN_POINT ( 'NONE',  ( -0.05905500000000000332, 0.0000000000000000000, 1.481062999999999574 ) ) ;
#94 = FACE_OUTER_BOUND ( 'NONE', #253, .T. ) ;
#95 = LINE ( 'NONE', #70, #44 ) ;
#96 = ORIENTED_EDGE ( 'NONE', *, *, #275, .T. ) ;
#97 = CIRCLE ( 'NONE', #107, 0.05905500000000000332 ) ;
#98 = DIRECTION ( 'NONE',  ( 1.000000000000000000, 0.0000000000000000000, 0.0000000000000000000 ) ) ;
#99 = ORIENTED_EDGE ( 'NONE', *, *, #57, .F. ) ;
#100 = DIRECTION ( 'NONE',  ( 0.0000000000000000000, -1.000000000000000000, 0.0000000000000000000 ) ) ;
#101 = ORIENTED_EDGE ( 'NONE', *, *, #301, .T. ) ;
#102 = ORIENTED_EDGE ( 'NONE', *, *, #163, .F. ) ;
#103 =( NAMED_UNIT ( * ) SI_UNIT ( $, .STERADIAN. ) SOLID_ANGLE_UNIT ( ) );
#104 = AXIS2_PLACEMENT_3D ( 'NONE', #211, #115, #36 ) ;
#105 = AXIS2_PLACEMENT_3D ( 'NONE', #67, #45, #42 ) ;
#106 = ADVANCED_FACE ( 'NONE', ( #112 ), #170, .T. ) ;
#107 = AXIS2_PLACEMENT_3D ( 'NONE', #210, #189, #113 ) ;
#108 = CARTESIAN_POINT ( 'NONE',  ( 0.0000000000000000000, 0.0000000000000000000, 1.496062999999999921 ) ) ;
#109 = CARTESIAN_POINT ( 'NONE',  ( 0.0000000000000000000, 0.0000000000000000000, 1.496062999999999921 ) ) ;
#110 = EDGE_CURVE ( 'NONE', #116, #243, #316, .T. ) ;
#111 = LENGTH_MEASURE_WITH_UNIT ( LENGTH_MEASURE( 0.02539999999999999897 ), #38 );
#112 = FACE_OUTER_BOUND ( 'NONE', #259, .T. ) ;
#113 = DIRECTION ( 'NONE',  ( 1.000000000000000000, 0.0000000000000000000, 0.0000000000000000000 ) ) ;
#114 = VECTOR ( 'NONE', #61, 39.37007874015747433 ) ;
#115 = DIRECTION ( 'NONE',  ( 0.0000000000000000000, 1.000000000000000000, 0.0000000000000000000 ) ) ;
#116 = VERTEX_POINT ( 'NONE', #72 ) ;
#117 = LINE ( 'NONE', #92, #153 ) ;
#118 = EDGE_CURVE ( 'NONE', #290, #216, #35, .T. ) ;
#119 = DIRECTION ( 'NONE',  ( 1.224646799147353207E-16, 1.000000000000000000, -0.0000000000000000000 ) ) ;
#120 = DIRECTION ( 'NONE',  ( -1.000000000000000000, 0.0000000000000000000, 0.0000000000000000000 ) ) ;
#121 = CARTESIAN_POINT ( 'NONE',  ( 2.408306506897442716E-18, 0.0000000000000000000, 0.01966531499999999918 ) ) ;
#122 = DIRECTION ( 'NONE',  ( 0.0000000000000000000, 0.0000000000000000000, 1.000000000000000000 ) ) ;
#123 = FACE_OUTER_BOUND ( 'NONE', #158, .T. ) ;
#124 =( GEOMETRIC_REPRESENTATION_CONTEXT ( 3 ) GLOBAL_UNCERTAINTY_ASSIGNED_CONTEXT ( ( #256 ) ) GLOBAL_UNIT_ASSIGNED_CONTEXT ( ( #239, #181, #178 ) ) REPRESENTATION_CONTEXT ( 'NONE', 'WORKASPACE' ) );
#125 = MANIFOLD_SOLID_BREP ( 'Fillet1', #149 ) ;
#126 =( NAMED_UNIT ( * ) PLANE_ANGLE_UNIT ( ) SI_UNIT ( $, .RADIAN. ) );
#127 =( NAMED_UNIT ( * ) SI_UNIT ( $, .STERADIAN. ) SOLID_ANGLE_UNIT ( ) );
#128 = ORIENTED_EDGE ( 'NONE', *, *, #110, .T. ) ;
#129 = AXIS2_PLACEMENT_3D ( 'NONE', #157, #180, #176 ) ;
#130 = MECHANICAL_DESIGN_GEOMETRIC_PRESENTATION_REPRESENTATION (  '', ( #134 ), #303 ) ;
#131 = DIMENSIONAL_EXPONENTS ( 1.000000000000000000, 0.0000000000000000000, 0.0000000000000000000, 0.0000000000000000000, 0.0000000000000000000, 0.0000000000000000000, 0.0000000000000000000 ) ;
#132 = UNCERTAINTY_MEASURE_WITH_UNIT (LENGTH_MEASURE( 1.000000000000000082E-05 ), #150, 'distance_accuracy_value', 'NONE');
#133 = AXIS2_PLACEMENT_3D ( 'NONE', #319, #237, #183 ) ;
#134 = STYLED_ITEM ( 'NONE', ( #251 ), #5 ) ;
#135 = FACE_OUTER_BOUND ( 'NONE', #187, .T. ) ;
#136 = AXIS2_PLACEMENT_3D ( 'NONE', #108, #260, #15 ) ;
#137 = FACE_OUTER_BOUND ( 'NONE', #310, .T. ) ;
#138 = DIRECTION ( 'NONE',  ( -1.224646799147353207E-16, -0.0000000000000000000, -1.000000000000000000 ) ) ;
#139 = ORIENTED_EDGE ( 'NONE', *, *, #6, .F. ) ;
#140 = DIRECTION ( 'NONE',  ( -0.0000000000000000000, -0.0000000000000000000, -1.000000000000000000 ) ) ;
#141 = EDGE_LOOP ( 'NONE', ( #221, #164, #34, #53 ) ) ;
#142 = AXIS2_PLACEMENT_3D ( 'NONE', #28, #100, #224 ) ;
#143 = FACE_OUTER_BOUND ( 'NONE', #281, .T. ) ;
#144 = CARTESIAN_POINT ( 'NONE',  ( 0.0000000000000000000, 0.0000000000000000000, 1.481062999999999574 ) ) ;
#145 = DIRECTION ( 'NONE',  ( 0.7071067811865482389, 8.659560562354941486E-17, -0.7071067811865469066 ) ) ;
#146 = CARTESIAN_POINT ( 'NONE',  ( -0.05905500000000000332, 0.0000000000000000000, 1.496062999999999921 ) ) ;
#147 = CARTESIAN_POINT ( 'NONE',  ( 0.0000000000000000000, 0.0000000000000000000, 1.496062999999999921 ) ) ;
#148 = DIRECTION ( 'NONE',  ( 1.000000000000000000, 0.0000000000000000000, 0.0000000000000000000 ) ) ;
#149 = CLOSED_SHELL ( 'NONE', ( #106, #199, #222, #54, #173, #85, #9, #280, #313, #13, #48 ) ) ;
#150 =( CONVERSION_BASED_UNIT ( 'INCH', #229 ) LENGTH_UNIT ( ) NAMED_UNIT ( #305 ) );
#151 = DIRECTION ( 'NONE',  ( -1.224646799147353207E-16, -0.0000000000000000000, -1.000000000000000000 ) ) ;
#152 = CONICAL_SURFACE ( 'NONE', #136, 0.04405499999999973326, 0.7853981633974491672 ) ;
#153 = VECTOR ( 'NONE', #145, 39.37007874015748143 ) ;
#154 = EDGE_CURVE ( 'NONE', #324, #39, #95, .T. ) ;
#155 = VERTEX_POINT ( 'NONE', #196 ) ;
#156 = SURFACE_STYLE_FILL_AREA ( #50 ) ;
#157 = CARTESIAN_POINT ( 'NONE',  ( 2.408306506897442716E-18, 0.0000000000000000000, 0.01966531499999999918 ) ) ;
#158 = EDGE_LOOP ( 'NONE', ( #266, #236, #3, #312 ) ) ;
#159 = AXIS2_PLACEMENT_3D ( 'NONE', #64, #151, #98 ) ;
#160 = DIMENSIONAL_EXPONENTS ( 1.000000000000000000, 0.0000000000000000000, 0.0000000000000000000, 0.0000000000000000000, 0.0000000000000000000, 0.0000000000000000000, 0.0000000000000000000 ) ;
#161 = VECTOR ( 'NONE', #140, 39.37007874015748143 ) ;
#162 = DIRECTION ( 'NONE',  ( -0.0000000000000000000, -0.0000000000000000000, -1.000000000000000000 ) ) ;
#163 = EDGE_CURVE ( 'NONE', #216, #39, #10, .T. ) ;
#164 = ORIENTED_EDGE ( 'NONE', *, *, #262, .T. ) ;
#165 = CONICAL_SURFACE ( 'NONE', #19, 0.01966531499999999225, 0.1745329251994338915 ) ;
#166 = CARTESIAN_POINT ( 'NONE',  ( 0.01966531499999999918, 2.408306506897442331E-18, 0.01966531499999999225 ) ) ;
#167 = EDGE_CURVE ( 'NONE', #155, #216, #252, .T. ) ;
#168 = CARTESIAN_POINT ( 'NONE',  ( -0.01966531499999998878, 0.0000000000000000000, 0.01966531500000000265 ) ) ;
#169 = CARTESIAN_POINT ( 'NONE',  ( -0.04405499999999973326, 0.0000000000000000000, 1.496062999999999921 ) ) ;
#170 = SPHERICAL_SURFACE ( 'NONE', #7, 0.01966531499999999918 ) ;
#171 = DIRECTION ( 'NONE',  ( 1.000000000000000000, 0.0000000000000000000, 0.0000000000000000000 ) ) ;
#172 = CYLINDRICAL_SURFACE ( 'NONE', #207, 0.01966531499999999225 ) ;
#173 = ADVANCED_FACE ( 'NONE', ( #123 ), #228, .T. ) ;
#174 = VERTEX_POINT ( 'NONE', #93 ) ;
#175 = FACE_OUTER_BOUND ( 'NONE', #304, .T. ) ;
#176 = DIRECTION ( 'NONE',  ( -1.000000000000000000, 0.0000000000000000000, 2.170579261049422841E-16 ) ) ;
#177 = DIRECTION ( 'NONE',  ( 1.000000000000000000, 0.0000000000000000000, 0.0000000000000000000 ) ) ;
#178 =( NAMED_UNIT ( * ) SI_UNIT ( $, .STERADIAN. ) SOLID_ANGLE_UNIT ( ) );
#179 = ORIENTED_EDGE ( 'NONE', *, *, #167, .T. ) ;
#180 = DIRECTION ( 'NONE',  ( 1.224646799147353207E-16, 0.0000000000000000000, 1.000000000000000000 ) ) ;
#181 =( NAMED_UNIT ( * ) PLANE_ANGLE_UNIT ( ) SI_UNIT ( $, .RADIAN. ) );
#182 =( GEOMETRIC_REPRESENTATION_CONTEXT ( 3 ) GLOBAL_UNCERTAINTY_ASSIGNED_CONTEXT ( ( #79 ) ) GLOBAL_UNIT_ASSIGNED_CONTEXT ( ( #74, #268, #127 ) ) REPRESENTATION_CONTEXT ( 'NONE', 'WORKASPACE' ) );
#183 = DIRECTION ( 'NONE',  ( -1.000000000000000000, 0.0000000000000000000, 0.0000000000000000000 ) ) ;
#184 = ORIENTED_EDGE ( 'NONE', *, *, #27, .F. ) ;
#185 = ORIENTED_EDGE ( 'NONE', *, *, #118, .F. ) ;
#186 = CYLINDRICAL_SURFACE ( 'NONE', #105, 0.01966531499999999225 ) ;
#187 = EDGE_LOOP ( 'NONE', ( #264, #240 ) ) ;
#188 = AXIS2_PLACEMENT_3D ( 'NONE', #109, #162, #261 ) ;
#189 = DIRECTION ( 'NONE',  ( 0.0000000000000000000, 0.0000000000000000000, -1.000000000000000000 ) ) ;
#190 = ORIENTED_EDGE ( 'NONE', *, *, #322, .F. ) ;
#191 = CARTESIAN_POINT ( 'NONE',  ( 7.232151672364695422E-18, 0.0000000000000000000, 0.05905500000000000332 ) ) ;
#192 = ORIENTED_EDGE ( 'NONE', *, *, #306, .F. ) ;
#193 = EDGE_CURVE ( 'NONE', #174, #116, #46, .T. ) ;
#194 = CARTESIAN_POINT ( 'NONE',  ( -0.01966531499999998531, 2.408306506897442331E-18, 0.05905500000000000332 ) ) ;
#195 = ORIENTED_EDGE ( 'NONE', *, *, #154, .T. ) ;
#196 = CARTESIAN_POINT ( 'NONE',  ( 0.01966531500000000265, 0.0000000000000000000, 0.05905500000000000332 ) ) ;
#197 = CARTESIAN_POINT ( 'NONE',  ( 3.612459760346164074E-18, 0.0000000000000000000, 0.0000000000000000000 ) ) ;
#198 = AXIS2_PLACEMENT_3D ( 'NONE', #318, #293, #177 ) ;
#199 = ADVANCED_FACE ( 'NONE', ( #143 ), #186, .T. ) ;
#200 = PRESENTATION_STYLE_ASSIGNMENT (( #294 ) ) ;
#201 = DIRECTION ( 'NONE',  ( 0.0000000000000000000, 0.0000000000000000000, 1.000000000000000000 ) ) ;
#202 = ORIENTED_EDGE ( 'NONE', *, *, #306, .T. ) ;
#203 = FILL_AREA_STYLE_COLOUR ( '', #33 ) ;
#204 = AXIS2_PLACEMENT_3D ( 'NONE', #289, #26, #311 ) ;
#205 = APPLICATION_PROTOCOL_DEFINITION ( 'draft international standard', 'automotive_design', 1998, #32 ) ;
#206 = PRODUCT_DEFINITION_FORMATION_WITH_SPECIFIED_SOURCE ( 'ANY', '', #25, .NOT_KNOWN. ) ;
#207 = AXIS2_PLACEMENT_3D ( 'NONE', #265, #286, #43 ) ;
#208 = EDGE_LOOP ( 'NONE', ( #139, #62, #128, #292 ) ) ;
#209 = ORIENTED_EDGE ( 'NONE', *, *, #262, .F. ) ;
#210 = CARTESIAN_POINT ( 'NONE',  ( 0.0000000000000000000, 0.0000000000000000000, 1.481062999999999574 ) ) ;
#211 = CARTESIAN_POINT ( 'NONE',  ( 2.408306506897442716E-18, 0.0000000000000000000, 0.01966531499999999918 ) ) ;
#212 = STYLED_ITEM ( 'NONE', ( #200 ), #125 ) ;
#213 = VECTOR ( 'NONE', #323, 39.37007874015748143 ) ;
#214 = EDGE_CURVE ( 'NONE', #283, #243, #17, .T. ) ;
#215 = CARTESIAN_POINT ( 'NONE',  ( 7.232151672364695422E-18, 0.0000000000000000000, 0.05905500000000000332 ) ) ;
#216 = VERTEX_POINT ( 'NONE', #166 ) ;
#217 = FACE_OUTER_BOUND ( 'NONE', #208, .T. ) ;
#218 = CARTESIAN_POINT ( 'NONE',  ( 2.408306506897442716E-18, 0.0000000000000000000, 0.01966531499999999918 ) ) ;
#219 = DIRECTION ( 'NONE',  ( 0.1736481776669313859, 0.0000000000000000000, 0.9848077530122077983 ) ) ;
#220 = FILL_AREA_STYLE ('',( #203 ) ) ;
#221 = ORIENTED_EDGE ( 'NONE', *, *, #214, .F. ) ;
#222 = ADVANCED_FACE ( 'NONE', ( #217 ), #165, .T. ) ;
#223 = CARTESIAN_POINT ( 'NONE',  ( 0.0000000000000000000, 0.0000000000000000000, 0.0000000000000000000 ) ) ;
#224 = DIRECTION ( 'NONE',  ( 0.0000000000000000000, 0.0000000000000000000, -1.000000000000000000 ) ) ;
#225 = ORIENTED_EDGE ( 'NONE', *, *, #254, .T. ) ;
#226 = PRODUCT_DEFINITION ( 'UNKNOWN', '', #206, #58 ) ;
#227 = DIRECTION ( 'NONE',  ( 1.000000000000000000, 0.0000000000000000000, 0.0000000000000000000 ) ) ;
#228 = CYLINDRICAL_SURFACE ( 'NONE', #249, 0.05905500000000000332 ) ;
#229 = LENGTH_MEASURE_WITH_UNIT ( LENGTH_MEASURE( 0.02539999999999999897 ), #78 );
#230 = EDGE_LOOP ( 'NONE', ( #309, #82, #195, #202 ) ) ;
#231 = EDGE_CURVE ( 'NONE', #235, #14, #88, .T. ) ;
#232 = ORIENTED_EDGE ( 'NONE', *, *, #6, .T. ) ;
#233 = DIRECTION ( 'NONE',  ( 0.0000000000000000000, 0.0000000000000000000, -1.000000000000000000 ) ) ;
#234 = CIRCLE ( 'NONE', #241, 0.05905500000000000332 ) ;
#235 = VERTEX_POINT ( 'NONE', #21 ) ;
#236 = ORIENTED_EDGE ( 'NONE', *, *, #214, .T. ) ;
#237 = DIRECTION ( 'NONE',  ( -1.224646799147353207E-16, -0.0000000000000000000, -1.000000000000000000 ) ) ;
#238 = ORIENTED_EDGE ( 'NONE', *, *, #231, .F. ) ;
#239 =( CONVERSION_BASED_UNIT ( 'INCH', #111 ) LENGTH_UNIT ( ) NAMED_UNIT ( #131 ) );
#240 = ORIENTED_EDGE ( 'NONE', *, *, #231, .T. ) ;
#241 = AXIS2_PLACEMENT_3D ( 'NONE', #144, #233, #60 ) ;
#242 = DIRECTION ( 'NONE',  ( 1.224646799147353207E-16, 0.0000000000000000000, 1.000000000000000000 ) ) ;
#243 = VERTEX_POINT ( 'NONE', #47 ) ;
#244 = LINE ( 'NONE', #263, #56 ) ;
#245 = DIRECTION ( 'NONE',  ( -0.0000000000000000000, -0.0000000000000000000, -1.000000000000000000 ) ) ;
#246 = CARTESIAN_POINT ( 'NONE',  ( 0.05905500000000000332, 7.232151672364695422E-18, 1.481062999999999574 ) ) ;
#247 = DIRECTION ( 'NONE',  ( -1.224646799147353207E-16, -0.0000000000000000000, -1.000000000000000000 ) ) ;
#248 = AXIS2_PLACEMENT_3D ( 'NONE', #91, #84, #18 ) ;
#249 = AXIS2_PLACEMENT_3D ( 'NONE', #30, #245, #2 ) ;
#250 = ORIENTED_EDGE ( 'NONE', *, *, #258, .F. ) ;
#251 = PRESENTATION_STYLE_ASSIGNMENT (( #4 ) ) ;
#252 = LINE ( 'NONE', #24, #307 ) ;
#253 = EDGE_LOOP ( 'NONE', ( #250, #20, #41, #96 ) ) ;
#254 = EDGE_CURVE ( 'NONE', #235, #283, #117, .T. ) ;
#255 = CIRCLE ( 'NONE', #279, 0.01966531499999999225 ) ;
#256 = UNCERTAINTY_MEASURE_WITH_UNIT (LENGTH_MEASURE( 1.000000000000000082E-05 ), #239, 'distance_accuracy_value', 'NONE');
#257 = AXIS2_PLACEMENT_3D ( 'NONE', #191, #297, #63 ) ;
#258 = EDGE_CURVE ( 'NONE', #324, #116, #65, .T. ) ;
#259 = EDGE_LOOP ( 'NONE', ( #185, #90, #102 ) ) ;
#260 = DIRECTION ( 'NONE',  ( 0.0000000000000000000, 0.0000000000000000000, -1.000000000000000000 ) ) ;
#261 = DIRECTION ( 'NONE',  ( -1.000000000000000000, 0.0000000000000000000, 0.0000000000000000000 ) ) ;
#262 = EDGE_CURVE ( 'NONE', #283, #174, #97, .T. ) ;
#263 = CARTESIAN_POINT ( 'NONE',  ( 0.01966531500000000265, 0.0000000000000000000, 0.05905500000000000332 ) ) ;
#264 = ORIENTED_EDGE ( 'NONE', *, *, #322, .T. ) ;
#265 = CARTESIAN_POINT ( 'NONE',  ( 0.0000000000000000000, 0.0000000000000000000, 0.0000000000000000000 ) ) ;
#266 = ORIENTED_EDGE ( 'NONE', *, *, #27, .T. ) ;
#267 = DIRECTION ( 'NONE',  ( 0.0000000000000000000, 0.0000000000000000000, -1.000000000000000000 ) ) ;
#268 =( NAMED_UNIT ( * ) PLANE_ANGLE_UNIT ( ) SI_UNIT ( $, .RADIAN. ) );
#269 = CARTESIAN_POINT ( 'NONE',  ( 7.232151672364695422E-18, 0.0000000000000000000, 0.05905500000000000332 ) ) ;
#270 = SURFACE_STYLE_FILL_AREA ( #220 ) ;
#271 = ORIENTED_EDGE ( 'NONE', *, *, #163, .T. ) ;
#272 = AXIS2_PLACEMENT_3D ( 'NONE', #83, #267, #120 ) ;
#273 = CONICAL_SURFACE ( 'NONE', #257, 0.01966531499999999225, 0.1745329251994338915 ) ;
#274 = DIRECTION ( 'NONE',  ( 0.0000000000000000000, 1.000000000000000000, 0.0000000000000000000 ) ) ;
#275 = EDGE_CURVE ( 'NONE', #243, #116, #287, .T. ) ;
#276 = CIRCLE ( 'NONE', #296, 0.01966531499999999225 ) ;
#277 = CIRCLE ( 'NONE', #133, 0.01966531499999999225 ) ;
#278 = CIRCLE ( 'NONE', #68, 0.01966531499999999918 ) ;
#279 = AXIS2_PLACEMENT_3D ( 'NONE', #269, #138, #23 ) ;
#280 = ADVANCED_FACE ( 'NONE', ( #175 ), #76, .T. ) ;
#281 = EDGE_LOOP ( 'NONE', ( #232, #179, #271, #73 ) ) ;
#282 = CYLINDRICAL_SURFACE ( 'NONE', #188, 0.05905500000000000332 ) ;
#283 = VERTEX_POINT ( 'NONE', #246 ) ;
#284 = EDGE_CURVE ( 'NONE', #155, #243, #244, .T. ) ;
#285 = CARTESIAN_POINT ( 'NONE',  ( -0.01966531499999998531, 4.820229089631068299E-18, 0.05905500000000000332 ) ) ;
#286 = DIRECTION ( 'NONE',  ( -1.224646799147353207E-16, -0.0000000000000000000, -1.000000000000000000 ) ) ;
#287 = CIRCLE ( 'NONE', #198, 0.05905500000000000332 ) ;
#288 = DIRECTION ( 'NONE',  ( 1.224646799147353207E-16, 0.0000000000000000000, 1.000000000000000000 ) ) ;
#289 = CARTESIAN_POINT ( 'NONE',  ( 0.0000000000000000000, 0.0000000000000000000, 1.496062999999999921 ) ) ;
#290 = VERTEX_POINT ( 'NONE', #197 ) ;
#291 = EDGE_CURVE ( 'NONE', #155, #324, #255, .T. ) ;
#292 = ORIENTED_EDGE ( 'NONE', *, *, #284, .F. ) ;
#293 = DIRECTION ( 'NONE',  ( -1.224646799147353207E-16, -0.0000000000000000000, -1.000000000000000000 ) ) ;
#294 = SURFACE_STYLE_USAGE ( .BOTH. , #51 ) ;
#295 = PRESENTATION_LAYER_ASSIGNMENT (  '', '', ( #212 ) ) ;
#296 = AXIS2_PLACEMENT_3D ( 'NONE', #86, #288, #89 ) ;
#297 = DIRECTION ( 'NONE',  ( 1.224646799147353207E-16, 0.0000000000000000000, 1.000000000000000000 ) ) ;
#298 = LENGTH_MEASURE_WITH_UNIT ( LENGTH_MEASURE( 0.02539999999999999897 ), #300 );
#299 = PRODUCT_DEFINITION_SHAPE ( 'NONE', 'NONE',  #226 ) ;
#300 =( LENGTH_UNIT ( ) NAMED_UNIT ( * ) SI_UNIT ( $, .METRE. ) );
#301 = EDGE_CURVE ( 'NONE', #14, #174, #314, .T. ) ;
#302 = ORIENTED_EDGE ( 'NONE', *, *, #301, .F. ) ;
#303 =( GEOMETRIC_REPRESENTATION_CONTEXT ( 3 ) GLOBAL_UNCERTAINTY_ASSIGNED_CONTEXT ( ( #132 ) ) GLOBAL_UNIT_ASSIGNED_CONTEXT ( ( #150, #126, #103 ) ) REPRESENTATION_CONTEXT ( 'NONE', 'WORKASPACE' ) );
#304 = EDGE_LOOP ( 'NONE', ( #81, #190, #101, #209 ) ) ;
#305 = DIMENSIONAL_EXPONENTS ( 1.000000000000000000, 0.0000000000000000000, 0.0000000000000000000, 0.0000000000000000000, 0.0000000000000000000, 0.0000000000000000000, 0.0000000000000000000 ) ;
#306 = EDGE_CURVE ( 'NONE', #39, #216, #276, .T. ) ;
#307 = VECTOR ( 'NONE', #247, 39.37007874015748143 ) ;
#308 = ORIENTED_EDGE ( 'NONE', *, *, #118, .T. ) ;
#309 = ORIENTED_EDGE ( 'NONE', *, *, #167, .F. ) ;
#310 = EDGE_LOOP ( 'NONE', ( #238, #225, #184, #302 ) ) ;
#311 = DIRECTION ( 'NONE',  ( 1.000000000000000000, 0.0000000000000000000, 0.0000000000000000000 ) ) ;
#312 = ORIENTED_EDGE ( 'NONE', *, *, #193, .F. ) ;
#313 = ADVANCED_FACE ( 'NONE', ( #94 ), #273, .T. ) ;
#314 = LINE ( 'NONE', #169, #213 ) ;
#315 = FACE_OUTER_BOUND ( 'NONE', #230, .T. ) ;
#316 = CIRCLE ( 'NONE', #159, 0.05905500000000000332 ) ;
#317 = AXIS2_PLACEMENT_3D ( 'NONE', #147, #122, #171 ) ;
#318 = CARTESIAN_POINT ( 'NONE',  ( 3.458953705992975487E-17, 0.0000000000000000000, 0.2824450044209672606 ) ) ;
#319 = CARTESIAN_POINT ( 'NONE',  ( 7.232151672364695422E-18, 0.0000000000000000000, 0.05905500000000000332 ) ) ;
#320 = DIRECTION ( 'NONE',  ( -0.0000000000000000000, -0.0000000000000000000, -1.000000000000000000 ) ) ;
#321 = FACE_OUTER_BOUND ( 'NONE', #141, .T. ) ;
#322 = EDGE_CURVE ( 'NONE', #14, #235, #8, .T. ) ;
#323 = DIRECTION ( 'NONE',  ( -0.7071067811865482389, 0.0000000000000000000, -0.7071067811865469066 ) ) ;
#324 = VERTEX_POINT ( 'NONE', #285 ) ;
#325 = PRESENTATION_LAYER_ASSIGNMENT (  '', '', ( #134 ) ) ;
ENDSEC;
END-ISO-10303-21;
