ISO-10303-21;
HEADER;
FILE_DESCRIPTION (( 'STEP AP214' ),
    '1' );
FILE_NAME ('83882.STEP',
    '2023-07-12T13:08:04',
    ( '' ),
    ( '' ),
    'SwSTEP 2.0',
    'SolidWorks 2023',
    '' );
FILE_SCHEMA (( 'AUTOMOTIVE_DESIGN' ));
ENDSEC;

DATA;
#1 = DIRECTION ( 'NONE',  ( 1.000000000000000000, 1.243246835274232520E-16, 0.000000000000000000 ) ) ;
#2 =( NAMED_UNIT ( * ) PLANE_ANGLE_UNIT ( ) SI_UNIT ( $, .RADIAN. ) );
#3 = ORIENTED_EDGE ( 'NONE', *, *, #204, .F. ) ;
#4 = LINE ( 'NONE', #125, #27 ) ;
#5 = CIRCLE ( 'NONE', #289, 0.02500000000000000139 ) ;
#6 = PRODUCT_DEFINITION_FORMATION_WITH_SPECIFIED_SOURCE ( 'ANY', '', #223, .NOT_KNOWN. ) ;
#7 = PRESENTATION_STYLE_ASSIGNMENT (( #290 ) ) ;
#8 = PRESENTATION_LAYER_ASSIGNMENT (  '', '', ( #132 ) ) ;
#9 = CARTESIAN_POINT ( 'NONE',  ( 6.067566532177194360E-36, -3.894729301304904063E-19, 0.000000000000000000 ) ) ;
#10 = EDGE_CURVE ( 'NONE', #228, #166, #250, .T. ) ;
#11 = DIMENSIONAL_EXPONENTS ( 1.000000000000000000, 0.000000000000000000, 0.000000000000000000, 0.000000000000000000, 0.000000000000000000, 0.000000000000000000, 0.000000000000000000 ) ;
#12 = DIRECTION ( 'NONE',  ( -1.000000000000000000, -1.557891720521961509E-17, 0.000000000000000000 ) ) ;
#13 = SURFACE_SIDE_STYLE ('',( #106 ) ) ;
#14 = FACE_OUTER_BOUND ( 'NONE', #95, .T. ) ;
#15 = PRESENTATION_STYLE_ASSIGNMENT (( #167 ) ) ;
#16 = CARTESIAN_POINT ( 'NONE',  ( 3.033783266088597180E-36, -1.947364650652452031E-19, 0.000000000000000000 ) ) ;
#17 = LENGTH_MEASURE_WITH_UNIT ( LENGTH_MEASURE( 0.02539999999999999897 ), #241 );
#18 = ADVANCED_FACE ( 'NONE', ( #266 ), #66, .T. ) ;
#19 = ADVANCED_BREP_SHAPE_REPRESENTATION ( '83882', ( #134, #124, #177 ), #148 ) ;
#20 = VERTEX_POINT ( 'NONE', #222 ) ;
#21 = CIRCLE ( 'NONE', #44, 0.09374999999999981959 ) ;
#22 = ORIENTED_EDGE ( 'NONE', *, *, #247, .F. ) ;
#23 = AXIS2_PLACEMENT_3D ( 'NONE', #24, #128, #292 ) ;
#24 = CARTESIAN_POINT ( 'NONE',  ( -6.123233995736763571E-17, 2.000000000000000000, 0.000000000000000000 ) ) ;
#25 = CARTESIAN_POINT ( 'NONE',  ( 0.09374999999999998612, 2.000000000000000000, 1.148106374200643555E-17 ) ) ;
#26 = DIRECTION ( 'NONE',  ( -1.243246835274232520E-16, 1.000000000000000000, -0.000000000000000000 ) ) ;
#27 = VECTOR ( 'NONE', #72, 39.37007874015748143 ) ;
#28 = LINE ( 'NONE', #100, #122 ) ;
#29 = DIMENSIONAL_EXPONENTS ( 1.000000000000000000, 0.000000000000000000, 0.000000000000000000, 0.000000000000000000, 0.000000000000000000, 0.000000000000000000, 0.000000000000000000 ) ;
#30 = VECTOR ( 'NONE', #213, 39.37007874015748143 ) ;
#31 = SURFACE_STYLE_FILL_AREA ( #84 ) ;
#32 = UNCERTAINTY_MEASURE_WITH_UNIT (LENGTH_MEASURE( 1.000000000000000082E-05 ), #68, 'distance_accuracy_value', 'NONE');
#33 =( LENGTH_UNIT ( ) NAMED_UNIT ( * ) SI_UNIT ( $, .METRE. ) );
#34 = PRESENTATION_LAYER_ASSIGNMENT (  '', '', ( #249 ) ) ;
#35 = VECTOR ( 'NONE', #188, 39.37007874015748143 ) ;
#36 = UNCERTAINTY_MEASURE_WITH_UNIT (LENGTH_MEASURE( 1.000000000000000082E-05 ), #184, 'distance_accuracy_value', 'NONE');
#37 = DIRECTION ( 'NONE',  ( 1.557891720521961509E-17, -1.000000000000000000, -0.000000000000000000 ) ) ;
#38 = ORIENTED_EDGE ( 'NONE', *, *, #10, .F. ) ;
#39 = ORIENTED_EDGE ( 'NONE', *, *, #43, .F. ) ;
#40 = ORIENTED_EDGE ( 'NONE', *, *, #237, .T. ) ;
#41 = CIRCLE ( 'NONE', #23, 0.09375000000000005551 ) ;
#42 = STYLED_ITEM ( 'NONE', ( #160 ), #49 ) ;
#43 = EDGE_CURVE ( 'NONE', #176, #286, #270, .T. ) ;
#44 = AXIS2_PLACEMENT_3D ( 'NONE', #154, #26, #230 ) ;
#45 = DIRECTION ( 'NONE',  ( 1.243246835274232520E-16, -1.000000000000000000, 0.000000000000000000 ) ) ;
#46 = DIRECTION ( 'NONE',  ( 1.557891720521961509E-17, -1.000000000000000000, -0.000000000000000000 ) ) ;
#47 = CARTESIAN_POINT ( 'NONE',  ( 1.726126311378001685E-16, 0.1190784930203599296, 0.000000000000000000 ) ) ;
#48 = UNCERTAINTY_MEASURE_WITH_UNIT (LENGTH_MEASURE( 1.000000000000000082E-05 ), #280, 'distance_accuracy_value', 'NONE');
#49 = ADVANCED_FACE ( 'NONE', ( #137 ), #65, .T. ) ;
#50 = DIMENSIONAL_EXPONENTS ( 1.000000000000000000, 0.000000000000000000, 0.000000000000000000, 0.000000000000000000, 0.000000000000000000, 0.000000000000000000, 0.000000000000000000 ) ;
#51 =( GEOMETRIC_REPRESENTATION_CONTEXT ( 3 ) GLOBAL_UNCERTAINTY_ASSIGNED_CONTEXT ( ( #48 ) ) GLOBAL_UNIT_ASSIGNED_CONTEXT ( ( #280, #57, #185 ) ) REPRESENTATION_CONTEXT ( 'NONE', 'WORKASPACE' ) );
#52 =( NAMED_UNIT ( * ) SI_UNIT ( $, .STERADIAN. ) SOLID_ANGLE_UNIT ( ) );
#53 = DIRECTION ( 'NONE',  ( -1.557891720521961509E-17, 1.000000000000000000, 0.000000000000000000 ) ) ;
#54 = LENGTH_MEASURE_WITH_UNIT ( LENGTH_MEASURE( 0.02539999999999999897 ), #278 );
#55 = AXIS2_PLACEMENT_3D ( 'NONE', #236, #285, #87 ) ;
#56 = PRESENTATION_LAYER_ASSIGNMENT (  '', '', ( #117 ) ) ;
#57 =( NAMED_UNIT ( * ) PLANE_ANGLE_UNIT ( ) SI_UNIT ( $, .RADIAN. ) );
#58 = CARTESIAN_POINT ( 'NONE',  ( 6.067566532177194360E-36, -3.894729301304904063E-19, 0.000000000000000000 ) ) ;
#59 = CARTESIAN_POINT ( 'NONE',  ( -0.09375000000000001388, 2.000000000000000000, 0.000000000000000000 ) ) ;
#60 = EDGE_LOOP ( 'NONE', ( #143, #147 ) ) ;
#61 =( NAMED_UNIT ( * ) SI_UNIT ( $, .STERADIAN. ) SOLID_ANGLE_UNIT ( ) );
#62 = EDGE_CURVE ( 'NONE', #192, #20, #199, .T. ) ;
#63 = CYLINDRICAL_SURFACE ( 'NONE', #78, 0.09374999999999994449 ) ;
#64 = CARTESIAN_POINT ( 'NONE',  ( -1.855113983686509741E-18, 0.1190784930203599573, 0.000000000000000000 ) ) ;
#65 = PLANE ( 'NONE',  #99 ) ;
#66 = PLANE ( 'NONE',  #190 ) ;
#67 = SURFACE_STYLE_USAGE ( .BOTH. , #288 ) ;
#68 =( CONVERSION_BASED_UNIT ( 'INCH', #302 ) LENGTH_UNIT ( ) NAMED_UNIT ( #233 ) );
#69 =( GEOMETRIC_REPRESENTATION_CONTEXT ( 3 ) GLOBAL_UNCERTAINTY_ASSIGNED_CONTEXT ( ( #36 ) ) GLOBAL_UNIT_ASSIGNED_CONTEXT ( ( #184, #235, #52 ) ) REPRESENTATION_CONTEXT ( 'NONE', 'WORKASPACE' ) );
#70 =( NAMED_UNIT ( * ) SI_UNIT ( $, .STERADIAN. ) SOLID_ANGLE_UNIT ( ) );
#71 = CIRCLE ( 'NONE', #55, 0.09374999999999998612 ) ;
#72 = DIRECTION ( 'NONE',  ( -1.243246835274232520E-16, 1.000000000000000000, -0.000000000000000000 ) ) ;
#73 = EDGE_CURVE ( 'NONE', #286, #228, #299, .T. ) ;
#74 = FACE_OUTER_BOUND ( 'NONE', #246, .T. ) ;
#75 = PRODUCT_DEFINITION_SHAPE ( 'NONE', 'NONE',  #82 ) ;
#76 = ORIENTED_EDGE ( 'NONE', *, *, #43, .T. ) ;
#77 = SURFACE_STYLE_USAGE ( .BOTH. , #156 ) ;
#78 = AXIS2_PLACEMENT_3D ( 'NONE', #283, #142, #242 ) ;
#79 = DIRECTION ( 'NONE',  ( -1.243246835274232520E-16, 1.000000000000000000, -0.000000000000000000 ) ) ;
#80 = DIRECTION ( 'NONE',  ( -1.557891720521961509E-17, 1.000000000000000000, 0.000000000000000000 ) ) ;
#81 = DIMENSIONAL_EXPONENTS ( 1.000000000000000000, 0.000000000000000000, 0.000000000000000000, 0.000000000000000000, 0.000000000000000000, 0.000000000000000000, 0.000000000000000000 ) ;
#82 = PRODUCT_DEFINITION ( 'UNKNOWN', '', #6, #181 ) ;
#83 =( NAMED_UNIT ( * ) SI_UNIT ( $, .STERADIAN. ) SOLID_ANGLE_UNIT ( ) );
#84 = FILL_AREA_STYLE ('',( #170 ) ) ;
#85 = COLOUR_RGB ( '',1.000000000000000000, 0.000000000000000000, 0.000000000000000000 ) ;
#86 = DIRECTION ( 'NONE',  ( -1.243246835274232520E-16, 1.000000000000000000, 0.000000000000000000 ) ) ;
#87 = DIRECTION ( 'NONE',  ( 1.000000000000000000, 0.000000000000000000, 0.000000000000000000 ) ) ;
#88 = EDGE_CURVE ( 'NONE', #239, #139, #71, .T. ) ;
#89 = EDGE_LOOP ( 'NONE', ( #248, #261 ) ) ;
#90 = ORIENTED_EDGE ( 'NONE', *, *, #98, .T. ) ;
#91 = CARTESIAN_POINT ( 'NONE',  ( -0.02500000000000000139, -7.789458602609808125E-19, 0.000000000000000000 ) ) ;
#92 = ORIENTED_EDGE ( 'NONE', *, *, #204, .T. ) ;
#93 =( CONVERSION_BASED_UNIT ( 'INCH', #17 ) LENGTH_UNIT ( ) NAMED_UNIT ( #50 ) );
#94 = AXIS2_PLACEMENT_3D ( 'NONE', #200, #45, #1 ) ;
#95 = EDGE_LOOP ( 'NONE', ( #268, #113, #211, #178 ) ) ;
#96 = FILL_AREA_STYLE ('',( #119 ) ) ;
#97 =( LENGTH_UNIT ( ) NAMED_UNIT ( * ) SI_UNIT ( $, .METRE. ) );
#98 = EDGE_CURVE ( 'NONE', #20, #239, #144, .T. ) ;
#99 = AXIS2_PLACEMENT_3D ( 'NONE', #16, #307, #260 ) ;
#100 = CARTESIAN_POINT ( 'NONE',  ( 0.02500000000000000139, 0.000000000000000000, 3.061616997868383172E-18 ) ) ;
#101 = CONICAL_SURFACE ( 'NONE', #262, 0.02500000000000000139, 0.5235987755983000369 ) ;
#102 = DIRECTION ( 'NONE',  ( -1.000000000000000000, -1.557891720521961509E-17, 0.000000000000000000 ) ) ;
#103 = DIMENSIONAL_EXPONENTS ( 1.000000000000000000, 0.000000000000000000, 0.000000000000000000, 0.000000000000000000, 0.000000000000000000, 0.000000000000000000, 0.000000000000000000 ) ;
#104 = SURFACE_STYLE_USAGE ( .BOTH. , #267 ) ;
#105 =( NAMED_UNIT ( * ) PLANE_ANGLE_UNIT ( ) SI_UNIT ( $, .RADIAN. ) );
#106 = SURFACE_STYLE_FILL_AREA ( #138 ) ;
#107 = PRESENTATION_LAYER_ASSIGNMENT (  '', '', ( #254 ) ) ;
#108 = SURFACE_STYLE_FILL_AREA ( #96 ) ;
#109 = CARTESIAN_POINT ( 'NONE',  ( 0.000000000000000000, 0.000000000000000000, 0.000000000000000000 ) ) ;
#110 = DIRECTION ( 'NONE',  ( 1.000000000000000000, 1.557891720521961509E-17, 0.000000000000000000 ) ) ;
#111 = LENGTH_MEASURE_WITH_UNIT ( LENGTH_MEASURE( 0.02539999999999999897 ), #303 );
#112 =( NAMED_UNIT ( * ) PLANE_ANGLE_UNIT ( ) SI_UNIT ( $, .RADIAN. ) );
#113 = ORIENTED_EDGE ( 'NONE', *, *, #247, .T. ) ;
#114 = APPLICATION_PROTOCOL_DEFINITION ( 'draft international standard', 'automotive_design', 1998, #169 ) ;
#115 = CLOSED_SHELL ( 'NONE', ( #296, #18, #274, #49 ) ) ;
#116 = AXIS2_PLACEMENT_3D ( 'NONE', #153, #46, #251 ) ;
#117 = STYLED_ITEM ( 'NONE', ( #240 ), #124 ) ;
#118 = CARTESIAN_POINT ( 'NONE',  ( 0.09374999999999998612, 0.1190784930203599573, 1.148106374200643401E-17 ) ) ;
#119 = FILL_AREA_STYLE_COLOUR ( '', #227 ) ;
#120 = DIRECTION ( 'NONE',  ( -1.000000000000000000, -1.557891720521961509E-17, 0.000000000000000000 ) ) ;
#121 = ADVANCED_FACE ( 'NONE', ( #263 ), #63, .T. ) ;
#122 = VECTOR ( 'NONE', #293, 39.37007874015748143 ) ;
#123 = MECHANICAL_DESIGN_GEOMETRIC_PRESENTATION_REPRESENTATION (  '', ( #42 ), #140 ) ;
#124 = MANIFOLD_SOLID_BREP ( 'Revolve - Tool Body (Tipped Off)', #168 ) ;
#125 = CARTESIAN_POINT ( 'NONE',  ( 0.09374999999999987510, 2.000000000000000000, 1.148106374200642938E-17 ) ) ;
#126 = DIRECTION ( 'NONE',  ( 1.557891720521961509E-17, -1.000000000000000000, -0.000000000000000000 ) ) ;
#127 = DIRECTION ( 'NONE',  ( -1.243246835274232520E-16, 1.000000000000000000, -0.000000000000000000 ) ) ;
#128 = DIRECTION ( 'NONE',  ( -1.243246835274232520E-16, 1.000000000000000000, -0.000000000000000000 ) ) ;
#129 = AXIS2_PLACEMENT_3D ( 'NONE', #298, #86, #157 ) ;
#130 = CARTESIAN_POINT ( 'NONE',  ( 0.02500000000000000139, 0.000000000000000000, 7.271340369937407434E-18 ) ) ;
#131 =( LENGTH_UNIT ( ) NAMED_UNIT ( * ) SI_UNIT ( $, .METRE. ) );
#132 = STYLED_ITEM ( 'NONE', ( #15 ), #18 ) ;
#133 = AXIS2_PLACEMENT_3D ( 'NONE', #58, #80, #12 ) ;
#134 = MANIFOLD_SOLID_BREP ( 'Revolve - Cutting Edge', #115 ) ;
#135 = AXIS2_PLACEMENT_3D ( 'NONE', #279, #37, #110 ) ;
#136 = FILL_AREA_STYLE_COLOUR ( '', #265 ) ;
#137 = FACE_OUTER_BOUND ( 'NONE', #89, .T. ) ;
#138 = FILL_AREA_STYLE ('',( #136 ) ) ;
#139 = VERTEX_POINT ( 'NONE', #118 ) ;
#140 =( GEOMETRIC_REPRESENTATION_CONTEXT ( 3 ) GLOBAL_UNCERTAINTY_ASSIGNED_CONTEXT ( ( #165 ) ) GLOBAL_UNIT_ASSIGNED_CONTEXT ( ( #217, #112, #258 ) ) REPRESENTATION_CONTEXT ( 'NONE', 'WORKASPACE' ) );
#141 = DIRECTION ( 'NONE',  ( -1.000000000000000000, -1.821231995776178930E-16, 0.000000000000000000 ) ) ;
#142 = DIRECTION ( 'NONE',  ( -1.243246835274232520E-16, 1.000000000000000000, -0.000000000000000000 ) ) ;
#143 = ORIENTED_EDGE ( 'NONE', *, *, #88, .F. ) ;
#144 = LINE ( 'NONE', #91, #35 ) ;
#145 = ORIENTED_EDGE ( 'NONE', *, *, #237, .F. ) ;
#146 = CARTESIAN_POINT ( 'NONE',  ( 6.067566532177194360E-36, -3.894729301304904063E-19, 0.000000000000000000 ) ) ;
#147 = ORIENTED_EDGE ( 'NONE', *, *, #162, .F. ) ;
#148 =( GEOMETRIC_REPRESENTATION_CONTEXT ( 3 ) GLOBAL_UNCERTAINTY_ASSIGNED_CONTEXT ( ( #32 ) ) GLOBAL_UNIT_ASSIGNED_CONTEXT ( ( #68, #173, #61 ) ) REPRESENTATION_CONTEXT ( 'NONE', 'WORKASPACE' ) );
#149 = PRODUCT_RELATED_PRODUCT_CATEGORY ( 'part', '', ( #223 ) ) ;
#150 = ADVANCED_FACE ( 'NONE', ( #231 ), #151, .F. ) ;
#151 = PLANE ( 'NONE',  #94 ) ;
#152 = MECHANICAL_DESIGN_GEOMETRIC_PRESENTATION_REPRESENTATION (  '', ( #254 ), #300 ) ;
#153 = CARTESIAN_POINT ( 'NONE',  ( -1.855113983686509741E-18, 0.1190784930203599573, 0.000000000000000000 ) ) ;
#154 = CARTESIAN_POINT ( 'NONE',  ( 1.726126311378001685E-16, 0.1190784930203599296, 0.000000000000000000 ) ) ;
#155 = CIRCLE ( 'NONE', #116, 0.09374999999999998612 ) ;
#156 = SURFACE_SIDE_STYLE ('',( #259 ) ) ;
#157 = DIRECTION ( 'NONE',  ( -1.000000000000000000, -1.243246835274232520E-16, 0.000000000000000000 ) ) ;
#158 = FILL_AREA_STYLE_COLOUR ( '', #287 ) ;
#159 =( GEOMETRIC_REPRESENTATION_CONTEXT ( 3 ) GLOBAL_UNCERTAINTY_ASSIGNED_CONTEXT ( ( #253 ) ) GLOBAL_UNIT_ASSIGNED_CONTEXT ( ( #93, #172, #301 ) ) REPRESENTATION_CONTEXT ( 'NONE', 'WORKASPACE' ) );
#160 = PRESENTATION_STYLE_ASSIGNMENT (( #104 ) ) ;
#161 =( GEOMETRIC_REPRESENTATION_CONTEXT ( 3 ) GLOBAL_UNCERTAINTY_ASSIGNED_CONTEXT ( ( #182 ) ) GLOBAL_UNIT_ASSIGNED_CONTEXT ( ( #273, #2, #70 ) ) REPRESENTATION_CONTEXT ( 'NONE', 'WORKASPACE' ) );
#162 = EDGE_CURVE ( 'NONE', #139, #239, #155, .T. ) ;
#163 = DIRECTION ( 'NONE',  ( -1.000000000000000000, 0.000000000000000000, 0.000000000000000000 ) ) ;
#164 = LENGTH_MEASURE_WITH_UNIT ( LENGTH_MEASURE( 0.02539999999999999897 ), #210 );
#165 = UNCERTAINTY_MEASURE_WITH_UNIT (LENGTH_MEASURE( 1.000000000000000082E-05 ), #217, 'distance_accuracy_value', 'NONE');
#166 = VERTEX_POINT ( 'NONE', #25 ) ;
#167 = SURFACE_STYLE_USAGE ( .BOTH. , #304 ) ;
#168 = CLOSED_SHELL ( 'NONE', ( #305, #277, #121, #150 ) ) ;
#169 = APPLICATION_CONTEXT ( 'automotive_design' ) ;
#170 = FILL_AREA_STYLE_COLOUR ( '', #234 ) ;
#171 = EDGE_LOOP ( 'NONE', ( #145, #76, #187, #3 ) ) ;
#172 =( NAMED_UNIT ( * ) PLANE_ANGLE_UNIT ( ) SI_UNIT ( $, .RADIAN. ) );
#173 =( NAMED_UNIT ( * ) PLANE_ANGLE_UNIT ( ) SI_UNIT ( $, .RADIAN. ) );
#174 = PRESENTATION_STYLE_ASSIGNMENT (( #67 ) ) ;
#175 = EDGE_LOOP ( 'NONE', ( #203, #39 ) ) ;
#176 = VERTEX_POINT ( 'NONE', #271 ) ;
#177 = AXIS2_PLACEMENT_3D ( 'NONE', #109, #214, #189 ) ;
#178 = ORIENTED_EDGE ( 'NONE', *, *, #98, .F. ) ;
#179 = FILL_AREA_STYLE_COLOUR ( '', #85 ) ;
#180 = CARTESIAN_POINT ( 'NONE',  ( -6.123233995736763571E-17, 2.000000000000000000, 0.000000000000000000 ) ) ;
#181 = PRODUCT_DEFINITION_CONTEXT ( 'detailed design', #224, 'design' ) ;
#182 = UNCERTAINTY_MEASURE_WITH_UNIT (LENGTH_MEASURE( 1.000000000000000082E-05 ), #273, 'distance_accuracy_value', 'NONE');
#183 =( CONVERSION_BASED_UNIT ( 'INCH', #54 ) LENGTH_UNIT ( ) NAMED_UNIT ( #11 ) );
#184 =( CONVERSION_BASED_UNIT ( 'INCH', #205 ) LENGTH_UNIT ( ) NAMED_UNIT ( #81 ) );
#185 =( NAMED_UNIT ( * ) SI_UNIT ( $, .STERADIAN. ) SOLID_ANGLE_UNIT ( ) );
#186 = EDGE_LOOP ( 'NONE', ( #216, #92 ) ) ;
#187 = ORIENTED_EDGE ( 'NONE', *, *, #73, .T. ) ;
#188 = DIRECTION ( 'NONE',  ( -0.5000000000000009992, 0.8660254037844380415, 0.000000000000000000 ) ) ;
#189 = DIRECTION ( 'NONE',  ( 1.000000000000000000, 0.000000000000000000, 0.000000000000000000 ) ) ;
#190 = AXIS2_PLACEMENT_3D ( 'NONE', #64, #198, #120 ) ;
#191 = SURFACE_STYLE_FILL_AREA ( #275 ) ;
#192 = VERTEX_POINT ( 'NONE', #130 ) ;
#193 = DIRECTION ( 'NONE',  ( -1.243246835274232520E-16, 1.000000000000000000, -0.000000000000000000 ) ) ;
#194 = PRODUCT_CONTEXT ( 'NONE', #169, 'mechanical' ) ;
#195 = PRESENTATION_LAYER_ASSIGNMENT (  '', '', ( #225 ) ) ;
#196 = FILL_AREA_STYLE_COLOUR ( '', #206 ) ;
#197 = LENGTH_MEASURE_WITH_UNIT ( LENGTH_MEASURE( 0.02539999999999999897 ), #97 );
#198 = DIRECTION ( 'NONE',  ( -1.557891720521961509E-17, 1.000000000000000000, 0.000000000000000000 ) ) ;
#199 = CIRCLE ( 'NONE', #135, 0.02500000000000000139 ) ;
#200 = CARTESIAN_POINT ( 'NONE',  ( 0.09374999999999998612, 2.000000000000000000, 0.000000000000000000 ) ) ;
#201 = DIMENSIONAL_EXPONENTS ( 1.000000000000000000, 0.000000000000000000, 0.000000000000000000, 0.000000000000000000, 0.000000000000000000, 0.000000000000000000, 0.000000000000000000 ) ;
#202 = CARTESIAN_POINT ( 'NONE',  ( -0.09374999999999998612, 0.1190784930203599573, 0.000000000000000000 ) ) ;
#203 = ORIENTED_EDGE ( 'NONE', *, *, #238, .F. ) ;
#204 = EDGE_CURVE ( 'NONE', #166, #228, #41, .T. ) ;
#205 = LENGTH_MEASURE_WITH_UNIT ( LENGTH_MEASURE( 0.02539999999999999897 ), #131 );
#206 = COLOUR_RGB ( '',0.7921568627450980005, 0.8196078431372548767, 0.9333333333333333481 ) ;
#207 = CARTESIAN_POINT ( 'NONE',  ( -0.09374999999999965306, 0.1190784930203599157, 0.000000000000000000 ) ) ;
#208 = CYLINDRICAL_SURFACE ( 'NONE', #306, 0.09374999999999994449 ) ;
#209 = MECHANICAL_DESIGN_GEOMETRIC_PRESENTATION_REPRESENTATION (  '', ( #249 ), #161 ) ;
#210 =( LENGTH_UNIT ( ) NAMED_UNIT ( * ) SI_UNIT ( $, .METRE. ) );
#211 = ORIENTED_EDGE ( 'NONE', *, *, #162, .T. ) ;
#212 = APPLICATION_PROTOCOL_DEFINITION ( 'draft international standard', 'automotive_design', 1998, #224 ) ;
#213 = DIRECTION ( 'NONE',  ( -1.243246835274232520E-16, 1.000000000000000000, -0.000000000000000000 ) ) ;
#214 = DIRECTION ( 'NONE',  ( 0.000000000000000000, 0.000000000000000000, 1.000000000000000000 ) ) ;
#215 = SURFACE_STYLE_USAGE ( .BOTH. , #13 ) ;
#216 = ORIENTED_EDGE ( 'NONE', *, *, #10, .T. ) ;
#217 =( CONVERSION_BASED_UNIT ( 'INCH', #164 ) LENGTH_UNIT ( ) NAMED_UNIT ( #201 ) );
#218 = PRESENTATION_LAYER_ASSIGNMENT (  '', '', ( #42 ) ) ;
#219 = ORIENTED_EDGE ( 'NONE', *, *, #221, .F. ) ;
#220 = CONICAL_SURFACE ( 'NONE', #133, 0.02500000000000000139, 0.5235987755983000369 ) ;
#221 = EDGE_CURVE ( 'NONE', #20, #192, #5, .T. ) ;
#222 = CARTESIAN_POINT ( 'NONE',  ( -0.02500000000000000139, -7.789458602609808125E-19, 0.000000000000000000 ) ) ;
#223 = PRODUCT ( '83882', '83882', '', ( #194 ) ) ;
#224 = APPLICATION_CONTEXT ( 'automotive_design' ) ;
#225 = STYLED_ITEM ( 'NONE', ( #174 ), #274 ) ;
#226 = SURFACE_SIDE_STYLE ('',( #245 ) ) ;
#227 = COLOUR_RGB ( '',1.000000000000000000, 0.000000000000000000, 0.000000000000000000 ) ;
#228 = VERTEX_POINT ( 'NONE', #252 ) ;
#229 = FILL_AREA_STYLE ('',( #196 ) ) ;
#230 = DIRECTION ( 'NONE',  ( -1.000000000000000000, -1.821231995776178930E-16, 0.000000000000000000 ) ) ;
#231 = FACE_OUTER_BOUND ( 'NONE', #186, .T. ) ;
#232 = FACE_OUTER_BOUND ( 'NONE', #269, .T. ) ;
#233 = DIMENSIONAL_EXPONENTS ( 1.000000000000000000, 0.000000000000000000, 0.000000000000000000, 0.000000000000000000, 0.000000000000000000, 0.000000000000000000, 0.000000000000000000 ) ;
#234 = COLOUR_RGB ( '',1.000000000000000000, 0.000000000000000000, 0.000000000000000000 ) ;
#235 =( NAMED_UNIT ( * ) PLANE_ANGLE_UNIT ( ) SI_UNIT ( $, .RADIAN. ) );
#236 = CARTESIAN_POINT ( 'NONE',  ( -1.855113983686509741E-18, 0.1190784930203599573, 0.000000000000000000 ) ) ;
#237 = EDGE_CURVE ( 'NONE', #176, #166, #4, .T. ) ;
#238 = EDGE_CURVE ( 'NONE', #286, #176, #21, .T. ) ;
#239 = VERTEX_POINT ( 'NONE', #202 ) ;
#240 = PRESENTATION_STYLE_ASSIGNMENT (( #215 ) ) ;
#241 =( LENGTH_UNIT ( ) NAMED_UNIT ( * ) SI_UNIT ( $, .METRE. ) );
#242 = DIRECTION ( 'NONE',  ( -1.000000000000000000, 0.000000000000000000, 0.000000000000000000 ) ) ;
#243 = ORIENTED_EDGE ( 'NONE', *, *, #73, .F. ) ;
#244 = DIRECTION ( 'NONE',  ( -1.000000000000000000, 0.000000000000000000, 0.000000000000000000 ) ) ;
#245 = SURFACE_STYLE_FILL_AREA ( #229 ) ;
#246 = EDGE_LOOP ( 'NONE', ( #22, #219, #90, #264 ) ) ;
#247 = EDGE_CURVE ( 'NONE', #192, #139, #28, .T. ) ;
#248 = ORIENTED_EDGE ( 'NONE', *, *, #221, .T. ) ;
#249 = STYLED_ITEM ( 'NONE', ( #7 ), #134 ) ;
#250 = CIRCLE ( 'NONE', #281, 0.09375000000000005551 ) ;
#251 = DIRECTION ( 'NONE',  ( 1.000000000000000000, 0.000000000000000000, 0.000000000000000000 ) ) ;
#252 = CARTESIAN_POINT ( 'NONE',  ( -0.09375000000000012490, 2.000000000000000000, 0.000000000000000000 ) ) ;
#253 = UNCERTAINTY_MEASURE_WITH_UNIT (LENGTH_MEASURE( 1.000000000000000082E-05 ), #93, 'distance_accuracy_value', 'NONE');
#254 = STYLED_ITEM ( 'NONE', ( #256 ), #296 ) ;
#255 = DIRECTION ( 'NONE',  ( 1.000000000000000000, 1.557891720521961509E-17, 0.000000000000000000 ) ) ;
#256 = PRESENTATION_STYLE_ASSIGNMENT (( #77 ) ) ;
#257 = FILL_AREA_STYLE ('',( #158 ) ) ;
#258 =( NAMED_UNIT ( * ) SI_UNIT ( $, .STERADIAN. ) SOLID_ANGLE_UNIT ( ) );
#259 = SURFACE_STYLE_FILL_AREA ( #257 ) ;
#260 = DIRECTION ( 'NONE',  ( 1.000000000000000000, 1.557891720521961509E-17, 0.000000000000000000 ) ) ;
#261 = ORIENTED_EDGE ( 'NONE', *, *, #62, .T. ) ;
#262 = AXIS2_PLACEMENT_3D ( 'NONE', #9, #53, #102 ) ;
#263 = FACE_OUTER_BOUND ( 'NONE', #171, .T. ) ;
#264 = ORIENTED_EDGE ( 'NONE', *, *, #88, .T. ) ;
#265 = COLOUR_RGB ( '',0.7921568627450980005, 0.8196078431372548767, 0.9333333333333333481 ) ;
#266 = FACE_OUTER_BOUND ( 'NONE', #60, .T. ) ;
#267 = SURFACE_SIDE_STYLE ('',( #31 ) ) ;
#268 = ORIENTED_EDGE ( 'NONE', *, *, #62, .F. ) ;
#269 = EDGE_LOOP ( 'NONE', ( #308, #40, #38, #243 ) ) ;
#270 = CIRCLE ( 'NONE', #291, 0.09374999999999981959 ) ;
#271 = CARTESIAN_POINT ( 'NONE',  ( 0.09374999999999998612, 0.1190784930203599434, 1.148106374200643555E-17 ) ) ;
#272 = MECHANICAL_DESIGN_GEOMETRIC_PRESENTATION_REPRESENTATION (  '', ( #225 ), #69 ) ;
#273 =( CONVERSION_BASED_UNIT ( 'INCH', #197 ) LENGTH_UNIT ( ) NAMED_UNIT ( #29 ) );
#274 = ADVANCED_FACE ( 'NONE', ( #74 ), #101, .T. ) ;
#275 = FILL_AREA_STYLE ('',( #179 ) ) ;
#276 = MECHANICAL_DESIGN_GEOMETRIC_PRESENTATION_REPRESENTATION (  '', ( #132 ), #159 ) ;
#277 = ADVANCED_FACE ( 'NONE', ( #282 ), #294, .F. ) ;
#278 =( LENGTH_UNIT ( ) NAMED_UNIT ( * ) SI_UNIT ( $, .METRE. ) );
#279 = CARTESIAN_POINT ( 'NONE',  ( 6.067566532177194360E-36, -3.894729301304904063E-19, 0.000000000000000000 ) ) ;
#280 =( CONVERSION_BASED_UNIT ( 'INCH', #111 ) LENGTH_UNIT ( ) NAMED_UNIT ( #103 ) );
#281 = AXIS2_PLACEMENT_3D ( 'NONE', #309, #193, #244 ) ;
#282 = FACE_OUTER_BOUND ( 'NONE', #175, .T. ) ;
#283 = CARTESIAN_POINT ( 'NONE',  ( -6.123233995736763571E-17, 2.000000000000000000, 0.000000000000000000 ) ) ;
#284 = SHAPE_DEFINITION_REPRESENTATION ( #75, #19 ) ;
#285 = DIRECTION ( 'NONE',  ( 1.557891720521961509E-17, -1.000000000000000000, -0.000000000000000000 ) ) ;
#286 = VERTEX_POINT ( 'NONE', #207 ) ;
#287 = COLOUR_RGB ( '',1.000000000000000000, 0.000000000000000000, 0.000000000000000000 ) ;
#288 = SURFACE_SIDE_STYLE ('',( #191 ) ) ;
#289 = AXIS2_PLACEMENT_3D ( 'NONE', #146, #126, #255 ) ;
#290 = SURFACE_STYLE_USAGE ( .BOTH. , #226 ) ;
#291 = AXIS2_PLACEMENT_3D ( 'NONE', #47, #127, #141 ) ;
#292 = DIRECTION ( 'NONE',  ( -1.000000000000000000, 0.000000000000000000, 0.000000000000000000 ) ) ;
#293 = DIRECTION ( 'NONE',  ( 0.5000000000000009992, 0.8660254037844380415, 6.123233995736778362E-17 ) ) ;
#294 = PLANE ( 'NONE',  #129 ) ;
#295 = UNCERTAINTY_MEASURE_WITH_UNIT (LENGTH_MEASURE( 1.000000000000000082E-05 ), #183, 'distance_accuracy_value', 'NONE');
#296 = ADVANCED_FACE ( 'NONE', ( #14 ), #220, .T. ) ;
#297 = MECHANICAL_DESIGN_GEOMETRIC_PRESENTATION_REPRESENTATION (  '', ( #117 ), #51 ) ;
#298 = CARTESIAN_POINT ( 'NONE',  ( 1.726126311378001192E-16, 0.1190784930203599573, 0.000000000000000000 ) ) ;
#299 = LINE ( 'NONE', #59, #30 ) ;
#300 =( GEOMETRIC_REPRESENTATION_CONTEXT ( 3 ) GLOBAL_UNCERTAINTY_ASSIGNED_CONTEXT ( ( #295 ) ) GLOBAL_UNIT_ASSIGNED_CONTEXT ( ( #183, #105, #83 ) ) REPRESENTATION_CONTEXT ( 'NONE', 'WORKASPACE' ) );
#301 =( NAMED_UNIT ( * ) SI_UNIT ( $, .STERADIAN. ) SOLID_ANGLE_UNIT ( ) );
#302 = LENGTH_MEASURE_WITH_UNIT ( LENGTH_MEASURE( 0.02539999999999999897 ), #33 );
#303 =( LENGTH_UNIT ( ) NAMED_UNIT ( * ) SI_UNIT ( $, .METRE. ) );
#304 = SURFACE_SIDE_STYLE ('',( #108 ) ) ;
#305 = ADVANCED_FACE ( 'NONE', ( #232 ), #208, .T. ) ;
#306 = AXIS2_PLACEMENT_3D ( 'NONE', #180, #79, #163 ) ;
#307 = DIRECTION ( 'NONE',  ( 1.557891720521961509E-17, -1.000000000000000000, -0.000000000000000000 ) ) ;
#308 = ORIENTED_EDGE ( 'NONE', *, *, #238, .T. ) ;
#309 = CARTESIAN_POINT ( 'NONE',  ( -6.123233995736763571E-17, 2.000000000000000000, 0.000000000000000000 ) ) ;
ENDSEC;
END-ISO-10303-21;
