ISO-10303-21;
HEADER;
FILE_DESCRIPTION (( 'STEP AP214' ),
    '1' );
FILE_NAME ('Micro_AECM-1015-4.STEP',
    '2021-09-03T16:59:03',
    ( '' ),
    ( '' ),
    'SwSTEP 2.0',
    'SolidWorks 2020',
    '' );
FILE_SCHEMA (( 'AUTOMOTIVE_DESIGN' ));
ENDSEC;

DATA;
#1 = FACE_OUTER_BOUND ( 'NONE', #251, .T. ) ;
#2 = CYLINDRICAL_SURFACE ( 'NONE', #168, 0.1966536495000000273 ) ;
#3 = AXIS2_PLACEMENT_3D ( 'NONE', #181, #19, #212 ) ;
#4 = LINE ( 'NONE', #9, #148 ) ;
#5 = CARTESIAN_POINT ( 'NONE',  ( 7.232151672364695422E-18, 0.0000000000000000000, 0.0000000000000000000 ) ) ;
#6 = AXIS2_PLACEMENT_3D ( 'NONE', #126, #96, #233 ) ;
#7 = EDGE_CURVE ( 'NONE', #274, #119, #306, .T. ) ;
#8 = ORIENTED_EDGE ( 'NONE', *, *, #37, .F. ) ;
#9 = CARTESIAN_POINT ( 'NONE',  ( 0.1966536495000001661, 0.0000000000000000000, 0.9842519999999999047 ) ) ;
#10 = VERTEX_POINT ( 'NONE', #333 ) ;
#11 = FACE_OUTER_BOUND ( 'NONE', #247, .T. ) ;
#12 = AXIS2_PLACEMENT_3D ( 'NONE', #293, #241, #80 ) ;
#13 = EDGE_LOOP ( 'NONE', ( #311, #38, #256, #286 ) ) ;
#14 = DIRECTION ( 'NONE',  ( 1.000000000000000000, 0.0000000000000000000, 0.0000000000000000000 ) ) ;
#15 = DIMENSIONAL_EXPONENTS ( 1.000000000000000000, 0.0000000000000000000, 0.0000000000000000000, 0.0000000000000000000, 0.0000000000000000000, 0.0000000000000000000, 0.0000000000000000000 ) ;
#16 = ORIENTED_EDGE ( 'NONE', *, *, #50, .T. ) ;
#17 = DIRECTION ( 'NONE',  ( -0.7071067811865354713, 0.0000000000000000000, -0.7071067811865594521 ) ) ;
#18 = EDGE_LOOP ( 'NONE', ( #253, #155 ) ) ;
#19 = DIRECTION ( 'NONE',  ( -0.0000000000000000000, -0.0000000000000000000, -1.000000000000000000 ) ) ;
#20 = AXIS2_PLACEMENT_3D ( 'NONE', #43, #123, #154 ) ;
#21 = CARTESIAN_POINT ( 'NONE',  ( 7.232151672364695422E-18, 0.0000000000000000000, 0.05905500000000000332 ) ) ;
#22 =( NAMED_UNIT ( * ) PLANE_ANGLE_UNIT ( ) SI_UNIT ( $, .RADIAN. ) );
#23 = LENGTH_MEASURE_WITH_UNIT ( LENGTH_MEASURE( 0.02539999999999999897 ), #324 );
#24 = CIRCLE ( 'NONE', #135, 0.1968504999999999838 ) ;
#25 = DIRECTION ( 'NONE',  ( 1.000000000000000000, 0.0000000000000000000, 0.0000000000000000000 ) ) ;
#26 = EDGE_CURVE ( 'NONE', #153, #33, #117, .T. ) ;
#27 = CARTESIAN_POINT ( 'NONE',  ( 0.0000000000000000000, 0.0000000000000000000, 2.834646000000000665 ) ) ;
#28 = DIRECTION ( 'NONE',  ( -1.224646799147353207E-16, -0.0000000000000000000, -1.000000000000000000 ) ) ;
#29 = AXIS2_PLACEMENT_3D ( 'NONE', #189, #351, #25 ) ;
#30 = FILL_AREA_STYLE_COLOUR ( '', #297 ) ;
#31 = EDGE_LOOP ( 'NONE', ( #234, #316, #122, #289 ) ) ;
#32 = ORIENTED_EDGE ( 'NONE', *, *, #7, .F. ) ;
#33 = VERTEX_POINT ( 'NONE', #66 ) ;
#34 = CIRCLE ( 'NONE', #175, 0.1966536495000000273 ) ;
#35 = SHAPE_DEFINITION_REPRESENTATION ( #71, #89 ) ;
#36 = ORIENTED_EDGE ( 'NONE', *, *, #340, .T. ) ;
#37 = EDGE_CURVE ( 'NONE', #150, #303, #269, .T. ) ;
#38 = ORIENTED_EDGE ( 'NONE', *, *, #298, .T. ) ;
#39 =( GEOMETRIC_REPRESENTATION_CONTEXT ( 3 ) GLOBAL_UNCERTAINTY_ASSIGNED_CONTEXT ( ( #252 ) ) GLOBAL_UNIT_ASSIGNED_CONTEXT ( ( #254, #40, #341 ) ) REPRESENTATION_CONTEXT ( 'NONE', 'WORKASPACE' ) );
#40 =( NAMED_UNIT ( * ) PLANE_ANGLE_UNIT ( ) SI_UNIT ( $, .RADIAN. ) );
#41 = AXIS2_PLACEMENT_3D ( 'NONE', #87, #152, #49 ) ;
#42 = ORIENTED_EDGE ( 'NONE', *, *, #93, .T. ) ;
#43 = CARTESIAN_POINT ( 'NONE',  ( 1.205361061354380629E-16, 0.0000000000000000000, 0.9842519999999999047 ) ) ;
#44 = ORIENTED_EDGE ( 'NONE', *, *, #111, .F. ) ;
#45 = ORIENTED_EDGE ( 'NONE', *, *, #130, .T. ) ;
#46 = ADVANCED_FACE ( 'NONE', ( #165 ), #171, .T. ) ;
#47 = DIRECTION ( 'NONE',  ( -1.000000000000000000, 0.0000000000000000000, 1.224646799147353207E-16 ) ) ;
#48 = VECTOR ( 'NONE', #319, 39.37007874015748143 ) ;
#49 = DIRECTION ( 'NONE',  ( 1.000000000000000000, 0.0000000000000000000, 0.0000000000000000000 ) ) ;
#50 = EDGE_CURVE ( 'NONE', #145, #178, #4, .T. ) ;
#51 = DIRECTION ( 'NONE',  ( -1.000000000000000000, 1.224646799147352468E-16, 0.0000000000000000000 ) ) ;
#52 = DIRECTION ( 'NONE',  ( 1.224646799147353207E-16, 1.000000000000000000, -0.0000000000000000000 ) ) ;
#53 = EDGE_CURVE ( 'NONE', #95, #10, #58, .T. ) ;
#54 = PRESENTATION_LAYER_ASSIGNMENT (  '', '', ( #301 ) ) ;
#55 = CONICAL_SURFACE ( 'NONE', #272, 0.1818505000000002481, 0.7853981633974312926 ) ;
#56 = DIRECTION ( 'NONE',  ( -1.000000000000000000, 0.0000000000000000000, 0.0000000000000000000 ) ) ;
#57 = DIRECTION ( 'NONE',  ( -0.0000000000000000000, -0.0000000000000000000, -1.000000000000000000 ) ) ;
#58 = CIRCLE ( 'NONE', #159, 0.1818505000000002481 ) ;
#59 = DIRECTION ( 'NONE',  ( 0.0000000000000000000, 0.0000000000000000000, 1.000000000000000000 ) ) ;
#60 = CIRCLE ( 'NONE', #6, 0.1966536495000000273 ) ;
#61 = DIRECTION ( 'NONE',  ( 0.0000000000000000000, 0.0000000000000000000, 1.000000000000000000 ) ) ;
#62 = LENGTH_MEASURE_WITH_UNIT ( LENGTH_MEASURE( 0.02539999999999999897 ), #271 );
#63 = ORIENTED_EDGE ( 'NONE', *, *, #133, .T. ) ;
#64 = DIRECTION ( 'NONE',  ( 0.0000000000000000000, 0.0000000000000000000, 1.000000000000000000 ) ) ;
#65 = EDGE_LOOP ( 'NONE', ( #338, #192, #209, #330 ) ) ;
#66 = CARTESIAN_POINT ( 'NONE',  ( -0.1968504999999998450, 0.0000000000000000000, 0.9853683946618323475 ) ) ;
#67 = ORIENTED_EDGE ( 'NONE', *, *, #50, .F. ) ;
#68 = DIRECTION ( 'NONE',  ( 1.000000000000000000, 0.0000000000000000000, 0.0000000000000000000 ) ) ;
#69 = ORIENTED_EDGE ( 'NONE', *, *, #298, .F. ) ;
#70 = DIRECTION ( 'NONE',  ( -1.000000000000000000, 0.0000000000000000000, 0.0000000000000000000 ) ) ;
#71 = PRODUCT_DEFINITION_SHAPE ( 'NONE', 'NONE',  #268 ) ;
#72 = CARTESIAN_POINT ( 'NONE',  ( -0.1966536495000000828, 0.0000000000000000000, 0.05905500000000001720 ) ) ;
#73 = EDGE_CURVE ( 'NONE', #119, #274, #255, .T. ) ;
#74 = DIMENSIONAL_EXPONENTS ( 1.000000000000000000, 0.0000000000000000000, 0.0000000000000000000, 0.0000000000000000000, 0.0000000000000000000, 0.0000000000000000000, 0.0000000000000000000 ) ;
#75 = FACE_OUTER_BOUND ( 'NONE', #147, .T. ) ;
#76 = CARTESIAN_POINT ( 'NONE',  ( 0.1966536495000001661, 0.0000000000000000000, 0.9842519999999999047 ) ) ;
#77 = AXIS2_PLACEMENT_3D ( 'NONE', #217, #245, #134 ) ;
#78 = CARTESIAN_POINT ( 'NONE',  ( -0.1966536494999999163, 2.409517985681882908E-17, 0.9842519999999999047 ) ) ;
#79 = MANIFOLD_SOLID_BREP ( 'Fillet1', #288 ) ;
#80 = DIRECTION ( 'NONE',  ( 0.0000000000000000000, 0.0000000000000000000, -1.000000000000000000 ) ) ;
#81 = DIRECTION ( 'NONE',  ( 0.0000000000000000000, 0.0000000000000000000, -1.000000000000000000 ) ) ;
#82 = MECHANICAL_DESIGN_GEOMETRIC_PRESENTATION_REPRESENTATION (  '', ( #346 ), #156 ) ;
#83 = FACE_OUTER_BOUND ( 'NONE', #124, .T. ) ;
#84 = CARTESIAN_POINT ( 'NONE',  ( 0.0000000000000000000, 0.0000000000000000000, 0.0000000000000000000 ) ) ;
#85 = SURFACE_STYLE_FILL_AREA ( #332 ) ;
#86 = CONICAL_SURFACE ( 'NONE', #20, 0.1966536495000000273, 0.1745329251994337805 ) ;
#87 = CARTESIAN_POINT ( 'NONE',  ( 1.206728250503578783E-16, 0.0000000000000000000, 0.9853683946618323475 ) ) ;
#88 = DIRECTION ( 'NONE',  ( -0.0000000000000000000, -0.0000000000000000000, -1.000000000000000000 ) ) ;
#89 = ADVANCED_BREP_SHAPE_REPRESENTATION ( 'Micro_AECM-1015-4', ( #79, #136 ), #249 ) ;
#90 = DIRECTION ( 'NONE',  ( 1.000000000000000000, 0.0000000000000000000, 0.0000000000000000000 ) ) ;
#91 = CARTESIAN_POINT ( 'NONE',  ( 7.232151672364695422E-18, 0.0000000000000000000, 0.0000000000000000000 ) ) ;
#92 = CIRCLE ( 'NONE', #141, 0.1968504999999999838 ) ;
#93 = EDGE_CURVE ( 'NONE', #33, #178, #236, .T. ) ;
#94 = FACE_OUTER_BOUND ( 'NONE', #31, .T. ) ;
#95 = VERTEX_POINT ( 'NONE', #120 ) ;
#96 = DIRECTION ( 'NONE',  ( -1.224646799147353207E-16, -0.0000000000000000000, -1.000000000000000000 ) ) ;
#97 = EDGE_LOOP ( 'NONE', ( #232, #313 ) ) ;
#98 = ADVANCED_FACE ( 'NONE', ( #94 ), #102, .T. ) ;
#99 = UNCERTAINTY_MEASURE_WITH_UNIT (LENGTH_MEASURE( 1.000000000000000082E-05 ), #308, 'distance_accuracy_value', 'NONE');
#100 = CARTESIAN_POINT ( 'NONE',  ( 0.0000000000000000000, 0.0000000000000000000, 2.834646000000000665 ) ) ;
#101 = ADVANCED_FACE ( 'NONE', ( #157 ), #282, .T. ) ;
#102 = CYLINDRICAL_SURFACE ( 'NONE', #331, 0.1966536495000000273 ) ;
#103 = DIRECTION ( 'NONE',  ( -1.000000000000000000, 0.0000000000000000000, 0.0000000000000000000 ) ) ;
#104 = COLOUR_RGB ( '',0.7921568627450980005, 0.8196078431372548767, 0.9333333333333333481 ) ;
#105 = DIRECTION ( 'NONE',  ( -0.1736481776669310528, 2.126576849575781776E-17, 0.9848077530122080203 ) ) ;
#106 = CARTESIAN_POINT ( 'NONE',  ( -0.1375986495000000309, 1.685097456771735936E-17, 0.05905500000000000332 ) ) ;
#107 = CARTESIAN_POINT ( 'NONE',  ( 0.1375986495000000309, 0.0000000000000000000, 0.0000000000000000000 ) ) ;
#108 = LINE ( 'NONE', #265, #304 ) ;
#109 = AXIS2_PLACEMENT_3D ( 'NONE', #106, #52, #51 ) ;
#110 = FACE_OUTER_BOUND ( 'NONE', #13, .T. ) ;
#111 = EDGE_CURVE ( 'NONE', #227, #153, #310, .T. ) ;
#112 = APPLICATION_PROTOCOL_DEFINITION ( 'draft international standard', 'automotive_design', 1998, #221 ) ;
#113 = DIRECTION ( 'NONE',  ( 0.1736481776669312749, 0.0000000000000000000, 0.9848077530122077983 ) ) ;
#114 = ADVANCED_FACE ( 'NONE', ( #75 ), #317, .T. ) ;
#115 = CARTESIAN_POINT ( 'NONE',  ( 7.232151672364695422E-18, 0.0000000000000000000, 0.05905500000000001720 ) ) ;
#116 = SURFACE_STYLE_USAGE ( .BOTH. , #194 ) ;
#117 = LINE ( 'NONE', #224, #184 ) ;
#118 =( NAMED_UNIT ( * ) SI_UNIT ( $, .STERADIAN. ) SOLID_ANGLE_UNIT ( ) );
#119 = VERTEX_POINT ( 'NONE', #261 ) ;
#120 = CARTESIAN_POINT ( 'NONE',  ( 0.1818505000000002481, 2.318874837419510283E-17, 2.834646000000000665 ) ) ;
#121 = AXIS2_PLACEMENT_3D ( 'NONE', #315, #348, #103 ) ;
#122 = ORIENTED_EDGE ( 'NONE', *, *, #263, .T. ) ;
#123 = DIRECTION ( 'NONE',  ( 1.224646799147353207E-16, 0.0000000000000000000, 1.000000000000000000 ) ) ;
#124 = EDGE_LOOP ( 'NONE', ( #262, #127, #281, #172 ) ) ;
#125 = EDGE_CURVE ( 'NONE', #10, #95, #161, .T. ) ;
#126 = CARTESIAN_POINT ( 'NONE',  ( 1.205361061354380629E-16, 0.0000000000000000000, 0.9842519999999999047 ) ) ;
#127 = ORIENTED_EDGE ( 'NONE', *, *, #193, .T. ) ;
#128 = CARTESIAN_POINT ( 'NONE',  ( -0.1968504999999999838, 0.0000000000000000000, 2.819646000000000097 ) ) ;
#129 = AXIS2_PLACEMENT_3D ( 'NONE', #204, #344, #70 ) ;
#130 = EDGE_CURVE ( 'NONE', #227, #178, #231, .T. ) ;
#131 = DIRECTION ( 'NONE',  ( 0.0000000000000000000, 0.0000000000000000000, 1.000000000000000000 ) ) ;
#132 = CARTESIAN_POINT ( 'NONE',  ( 0.0000000000000000000, 0.0000000000000000000, 2.819646000000000097 ) ) ;
#133 = EDGE_CURVE ( 'NONE', #10, #153, #260, .T. ) ;
#134 = DIRECTION ( 'NONE',  ( 1.000000000000000000, 0.0000000000000000000, -0.0000000000000000000 ) ) ;
#135 = AXIS2_PLACEMENT_3D ( 'NONE', #132, #300, #216 ) ;
#136 = AXIS2_PLACEMENT_3D ( 'NONE', #200, #59, #302 ) ;
#137 = CARTESIAN_POINT ( 'NONE',  ( 0.1818505000000002481, 2.227026327483460228E-17, 2.834646000000000665 ) ) ;
#138 = ADVANCED_FACE ( 'NONE', ( #182 ), #199, .T. ) ;
#139 = CARTESIAN_POINT ( 'NONE',  ( 0.1966536495000000273, 2.408312624008205478E-17, 0.05905500000000001720 ) ) ;
#140 = DIRECTION ( 'NONE',  ( -1.224646799147353207E-16, -0.0000000000000000000, -1.000000000000000000 ) ) ;
#141 = AXIS2_PLACEMENT_3D ( 'NONE', #211, #258, #14 ) ;
#142 = ORIENTED_EDGE ( 'NONE', *, *, #195, .F. ) ;
#143 =( NAMED_UNIT ( * ) PLANE_ANGLE_UNIT ( ) SI_UNIT ( $, .RADIAN. ) );
#144 = EDGE_LOOP ( 'NONE', ( #230, #336, #63, #44 ) ) ;
#145 = VERTEX_POINT ( 'NONE', #76 ) ;
#146 = DIRECTION ( 'NONE',  ( -0.0000000000000000000, -0.0000000000000000000, -1.000000000000000000 ) ) ;
#147 = EDGE_LOOP ( 'NONE', ( #69, #32, #201, #8 ) ) ;
#148 = VECTOR ( 'NONE', #113, 39.37007874015748143 ) ;
#149 = LENGTH_MEASURE_WITH_UNIT ( LENGTH_MEASURE( 0.02539999999999999897 ), #226 );
#150 = VERTEX_POINT ( 'NONE', #72 ) ;
#151 = MECHANICAL_DESIGN_GEOMETRIC_PRESENTATION_REPRESENTATION (  '', ( #301 ), #39 ) ;
#152 = DIRECTION ( 'NONE',  ( -1.224646799147353207E-16, -0.0000000000000000000, -1.000000000000000000 ) ) ;
#153 = VERTEX_POINT ( 'NONE', #128 ) ;
#154 = DIRECTION ( 'NONE',  ( 1.000000000000000000, 0.0000000000000000000, 0.0000000000000000000 ) ) ;
#155 = ORIENTED_EDGE ( 'NONE', *, *, #73, .T. ) ;
#156 =( GEOMETRIC_REPRESENTATION_CONTEXT ( 3 ) GLOBAL_UNCERTAINTY_ASSIGNED_CONTEXT ( ( #99 ) ) GLOBAL_UNIT_ASSIGNED_CONTEXT ( ( #308, #143, #118 ) ) REPRESENTATION_CONTEXT ( 'NONE', 'WORKASPACE' ) );
#157 = FACE_OUTER_BOUND ( 'NONE', #248, .T. ) ;
#158 = DIRECTION ( 'NONE',  ( -1.000000000000000000, 0.0000000000000000000, 0.0000000000000000000 ) ) ;
#159 = AXIS2_PLACEMENT_3D ( 'NONE', #223, #61, #90 ) ;
#160 = LINE ( 'NONE', #244, #284 ) ;
#161 = CIRCLE ( 'NONE', #214, 0.1818505000000002481 ) ;
#162 = PLANE ( 'NONE',  #77 ) ;
#163 = DIRECTION ( 'NONE',  ( 0.0000000000000000000, 0.0000000000000000000, 1.000000000000000000 ) ) ;
#164 = ORIENTED_EDGE ( 'NONE', *, *, #166, .T. ) ;
#165 = FACE_OUTER_BOUND ( 'NONE', #97, .T. ) ;
#166 = EDGE_CURVE ( 'NONE', #178, #33, #92, .T. ) ;
#167 = DIMENSIONAL_EXPONENTS ( 1.000000000000000000, 0.0000000000000000000, 0.0000000000000000000, 0.0000000000000000000, 0.0000000000000000000, 0.0000000000000000000, 0.0000000000000000000 ) ;
#168 = AXIS2_PLACEMENT_3D ( 'NONE', #84, #28, #213 ) ;
#169 = PRESENTATION_STYLE_ASSIGNMENT (( #116 ) ) ;
#170 = SURFACE_SIDE_STYLE ('',( #309 ) ) ;
#171 = PLANE ( 'NONE',  #197 ) ;
#172 = ORIENTED_EDGE ( 'NONE', *, *, #37, .T. ) ;
#173 = CARTESIAN_POINT ( 'NONE',  ( -0.1818505000000002481, 0.0000000000000000000, 2.834646000000000665 ) ) ;
#174 = ORIENTED_EDGE ( 'NONE', *, *, #312, .T. ) ;
#175 = AXIS2_PLACEMENT_3D ( 'NONE', #328, #267, #187 ) ;
#176 = DIRECTION ( 'NONE',  ( 0.0000000000000000000, 0.0000000000000000000, 1.000000000000000000 ) ) ;
#177 = PRODUCT_DEFINITION_FORMATION_WITH_SPECIFIED_SOURCE ( 'ANY', '', #343, .NOT_KNOWN. ) ;
#178 = VERTEX_POINT ( 'NONE', #292 ) ;
#179 = DIRECTION ( 'NONE',  ( -1.224646799147353207E-16, -0.0000000000000000000, -1.000000000000000000 ) ) ;
#180 = ORIENTED_EDGE ( 'NONE', *, *, #111, .T. ) ;
#181 = CARTESIAN_POINT ( 'NONE',  ( 0.0000000000000000000, 0.0000000000000000000, 2.834646000000000665 ) ) ;
#182 = FACE_OUTER_BOUND ( 'NONE', #144, .T. ) ;
#183 = VECTOR ( 'NONE', #186, 39.37007874015748854 ) ;
#184 = VECTOR ( 'NONE', #220, 39.37007874015748143 ) ;
#185 = ADVANCED_FACE ( 'NONE', ( #11 ), #86, .T. ) ;
#186 = DIRECTION ( 'NONE',  ( 0.7071067811865354713, 8.659560562354783714E-17, -0.7071067811865594521 ) ) ;
#187 = DIRECTION ( 'NONE',  ( 1.000000000000000000, 0.0000000000000000000, 0.0000000000000000000 ) ) ;
#188 = PRESENTATION_LAYER_ASSIGNMENT (  '', '', ( #346 ) ) ;
#189 = CARTESIAN_POINT ( 'NONE',  ( 1.205361061354380629E-16, 0.0000000000000000000, 0.9842519999999999047 ) ) ;
#190 = ORIENTED_EDGE ( 'NONE', *, *, #130, .F. ) ;
#191 = VECTOR ( 'NONE', #17, 39.37007874015748854 ) ;
#192 = ORIENTED_EDGE ( 'NONE', *, *, #215, .T. ) ;
#193 = EDGE_CURVE ( 'NONE', #145, #345, #60, .T. ) ;
#194 = SURFACE_SIDE_STYLE ('',( #85 ) ) ;
#195 = EDGE_CURVE ( 'NONE', #345, #145, #337, .T. ) ;
#196 = FILL_AREA_STYLE ('',( #198 ) ) ;
#197 = AXIS2_PLACEMENT_3D ( 'NONE', #329, #280, #277 ) ;
#198 = FILL_AREA_STYLE_COLOUR ( '', #104 ) ;
#199 = CONICAL_SURFACE ( 'NONE', #121, 0.1818505000000002481, 0.7853981633974312926 ) ;
#200 = CARTESIAN_POINT ( 'NONE',  ( 0.0000000000000000000, 0.0000000000000000000, 0.0000000000000000000 ) ) ;
#201 = ORIENTED_EDGE ( 'NONE', *, *, #275, .T. ) ;
#202 = EDGE_CURVE ( 'NONE', #145, #303, #285, .T. ) ;
#203 = EDGE_LOOP ( 'NONE', ( #205, #283, #16, #164 ) ) ;
#204 = CARTESIAN_POINT ( 'NONE',  ( 1.205361061354380629E-16, 0.0000000000000000000, 0.9842519999999999047 ) ) ;
#205 = ORIENTED_EDGE ( 'NONE', *, *, #312, .F. ) ;
#206 = AXIS2_PLACEMENT_3D ( 'NONE', #91, #88, #222 ) ;
#207 = TOROIDAL_SURFACE ( 'NONE', #327, 0.1375986495000000309, 0.05905500000000000332 ) ;
#208 = CARTESIAN_POINT ( 'NONE',  ( 0.1966536495000000273, 2.408312624008205478E-17, -2.408312624008205478E-17 ) ) ;
#209 = ORIENTED_EDGE ( 'NONE', *, *, #340, .F. ) ;
#210 = PRODUCT_RELATED_PRODUCT_CATEGORY ( 'part', '', ( #343 ) ) ;
#211 = CARTESIAN_POINT ( 'NONE',  ( 1.206728250503578783E-16, 0.0000000000000000000, 0.9853683946618323475 ) ) ;
#212 = DIRECTION ( 'NONE',  ( -1.000000000000000000, 0.0000000000000000000, 0.0000000000000000000 ) ) ;
#213 = DIRECTION ( 'NONE',  ( -1.000000000000000000, 0.0000000000000000000, 1.224646799147353207E-16 ) ) ;
#214 = AXIS2_PLACEMENT_3D ( 'NONE', #100, #176, #238 ) ;
#215 = EDGE_CURVE ( 'NONE', #95, #227, #347, .T. ) ;
#216 = DIRECTION ( 'NONE',  ( 1.000000000000000000, 0.0000000000000000000, 0.0000000000000000000 ) ) ;
#217 = CARTESIAN_POINT ( 'NONE',  ( 0.0000000000000000000, 0.0000000000000000000, 0.0000000000000000000 ) ) ;
#218 = CYLINDRICAL_SURFACE ( 'NONE', #321, 0.1968504999999999838 ) ;
#219 = PRODUCT_CONTEXT ( 'NONE', #221, 'mechanical' ) ;
#220 = DIRECTION ( 'NONE',  ( -0.0000000000000000000, -0.0000000000000000000, -1.000000000000000000 ) ) ;
#221 = APPLICATION_CONTEXT ( 'automotive_design' ) ;
#222 = DIRECTION ( 'NONE',  ( 1.000000000000000000, 0.0000000000000000000, 0.0000000000000000000 ) ) ;
#223 = CARTESIAN_POINT ( 'NONE',  ( 0.0000000000000000000, 0.0000000000000000000, 2.834646000000000665 ) ) ;
#224 = CARTESIAN_POINT ( 'NONE',  ( -0.1968504999999999838, 0.0000000000000000000, 2.834646000000000665 ) ) ;
#225 = APPLICATION_PROTOCOL_DEFINITION ( 'draft international standard', 'automotive_design', 1998, #242 ) ;
#226 =( LENGTH_UNIT ( ) NAMED_UNIT ( * ) SI_UNIT ( $, .METRE. ) );
#227 = VERTEX_POINT ( 'NONE', #296 ) ;
#228 = AXIS2_PLACEMENT_3D ( 'NONE', #21, #131, #290 ) ;
#229 = CARTESIAN_POINT ( 'NONE',  ( 0.0000000000000000000, 0.0000000000000000000, 0.0000000000000000000 ) ) ;
#230 = ORIENTED_EDGE ( 'NONE', *, *, #215, .F. ) ;
#231 = LINE ( 'NONE', #287, #48 ) ;
#232 = ORIENTED_EDGE ( 'NONE', *, *, #125, .T. ) ;
#233 = DIRECTION ( 'NONE',  ( -1.000000000000000000, 0.0000000000000000000, 0.0000000000000000000 ) ) ;
#234 = ORIENTED_EDGE ( 'NONE', *, *, #195, .T. ) ;
#235 = ADVANCED_FACE ( 'NONE', ( #295 ), #278, .T. ) ;
#236 = CIRCLE ( 'NONE', #41, 0.1968504999999999838 ) ;
#237 = DIRECTION ( 'NONE',  ( -1.224646799147353207E-16, -0.0000000000000000000, -1.000000000000000000 ) ) ;
#238 = DIRECTION ( 'NONE',  ( 1.000000000000000000, 0.0000000000000000000, 0.0000000000000000000 ) ) ;
#239 = ADVANCED_FACE ( 'NONE', ( #323 ), #162, .F. ) ;
#240 = ADVANCED_FACE ( 'NONE', ( #110 ), #207, .T. ) ;
#241 = DIRECTION ( 'NONE',  ( 0.0000000000000000000, -1.000000000000000000, 0.0000000000000000000 ) ) ;
#242 = APPLICATION_CONTEXT ( 'automotive_design' ) ;
#243 = CARTESIAN_POINT ( 'NONE',  ( 0.0000000000000000000, 0.0000000000000000000, 2.834646000000000665 ) ) ;
#244 = CARTESIAN_POINT ( 'NONE',  ( -0.1966536494999999163, 2.408312624008205478E-17, 0.9842519999999999047 ) ) ;
#245 = DIRECTION ( 'NONE',  ( 0.0000000000000000000, 0.0000000000000000000, 1.000000000000000000 ) ) ;
#246 = VECTOR ( 'NONE', #237, 39.37007874015748143 ) ;
#247 = EDGE_LOOP ( 'NONE', ( #142, #174, #42, #67 ) ) ;
#248 = EDGE_LOOP ( 'NONE', ( #190, #180, #339, #276 ) ) ;
#249 =( GEOMETRIC_REPRESENTATION_CONTEXT ( 3 ) GLOBAL_UNCERTAINTY_ASSIGNED_CONTEXT ( ( #273 ) ) GLOBAL_UNIT_ASSIGNED_CONTEXT ( ( #325, #22, #250 ) ) REPRESENTATION_CONTEXT ( 'NONE', 'WORKASPACE' ) );
#250 =( NAMED_UNIT ( * ) SI_UNIT ( $, .STERADIAN. ) SOLID_ANGLE_UNIT ( ) );
#251 = EDGE_LOOP ( 'NONE', ( #36, #45, #342, #259 ) ) ;
#252 = UNCERTAINTY_MEASURE_WITH_UNIT (LENGTH_MEASURE( 1.000000000000000082E-05 ), #254, 'distance_accuracy_value', 'NONE');
#253 = ORIENTED_EDGE ( 'NONE', *, *, #7, .T. ) ;
#254 =( CONVERSION_BASED_UNIT ( 'INCH', #149 ) LENGTH_UNIT ( ) NAMED_UNIT ( #74 ) );
#255 = CIRCLE ( 'NONE', #206, 0.1375986495000000309 ) ;
#256 = ORIENTED_EDGE ( 'NONE', *, *, #263, .F. ) ;
#257 = PRODUCT_DEFINITION_CONTEXT ( 'detailed design', #242, 'design' ) ;
#258 = DIRECTION ( 'NONE',  ( -1.224646799147353207E-16, -0.0000000000000000000, -1.000000000000000000 ) ) ;
#259 = ORIENTED_EDGE ( 'NONE', *, *, #26, .F. ) ;
#260 = LINE ( 'NONE', #173, #191 ) ;
#261 = CARTESIAN_POINT ( 'NONE',  ( -0.1375986495000000309, 2.046705040389970861E-17, 0.0000000000000000000 ) ) ;
#262 = ORIENTED_EDGE ( 'NONE', *, *, #202, .F. ) ;
#263 = EDGE_CURVE ( 'NONE', #303, #150, #34, .T. ) ;
#264 = ADVANCED_FACE ( 'NONE', ( #299 ), #55, .T. ) ;
#265 = CARTESIAN_POINT ( 'NONE',  ( -0.1966536495000000273, 0.0000000000000000000, 2.408312624008205478E-17 ) ) ;
#266 = CIRCLE ( 'NONE', #109, 0.05905500000000001720 ) ;
#267 = DIRECTION ( 'NONE',  ( 0.0000000000000000000, 0.0000000000000000000, 1.000000000000000000 ) ) ;
#268 = PRODUCT_DEFINITION ( 'UNKNOWN', '', #177, #257 ) ;
#269 = CIRCLE ( 'NONE', #294, 0.1966536495000000273 ) ;
#270 = ADVANCED_FACE ( 'NONE', ( #1 ), #218, .T. ) ;
#271 =( LENGTH_UNIT ( ) NAMED_UNIT ( * ) SI_UNIT ( $, .METRE. ) );
#272 = AXIS2_PLACEMENT_3D ( 'NONE', #243, #81, #56 ) ;
#273 = UNCERTAINTY_MEASURE_WITH_UNIT (LENGTH_MEASURE( 1.000000000000000082E-05 ), #325, 'distance_accuracy_value', 'NONE');
#274 = VERTEX_POINT ( 'NONE', #107 ) ;
#275 = EDGE_CURVE ( 'NONE', #274, #303, #350, .T. ) ;
#276 = ORIENTED_EDGE ( 'NONE', *, *, #166, .F. ) ;
#277 = DIRECTION ( 'NONE',  ( 1.000000000000000000, 0.0000000000000000000, -0.0000000000000000000 ) ) ;
#278 = CONICAL_SURFACE ( 'NONE', #29, 0.1966536495000000273, 0.1745329251994337805 ) ;
#279 = SURFACE_STYLE_USAGE ( .BOTH. , #170 ) ;
#280 = DIRECTION ( 'NONE',  ( 0.0000000000000000000, 0.0000000000000000000, 1.000000000000000000 ) ) ;
#281 = ORIENTED_EDGE ( 'NONE', *, *, #326, .T. ) ;
#282 = CYLINDRICAL_SURFACE ( 'NONE', #3, 0.1968504999999999838 ) ;
#283 = ORIENTED_EDGE ( 'NONE', *, *, #193, .F. ) ;
#284 = VECTOR ( 'NONE', #105, 39.37007874015748854 ) ;
#285 = LINE ( 'NONE', #208, #246 ) ;
#286 = ORIENTED_EDGE ( 'NONE', *, *, #275, .F. ) ;
#287 = CARTESIAN_POINT ( 'NONE',  ( 0.1968504999999999838, 2.410723347355560646E-17, 2.834646000000000665 ) ) ;
#288 = CLOSED_SHELL ( 'NONE', ( #240, #98, #185, #264, #270, #101, #46, #138, #235, #334, #239, #114 ) ) ;
#289 = ORIENTED_EDGE ( 'NONE', *, *, #326, .F. ) ;
#290 = DIRECTION ( 'NONE',  ( 1.000000000000000000, 0.0000000000000000000, 0.0000000000000000000 ) ) ;
#291 = AXIS2_PLACEMENT_3D ( 'NONE', #314, #320, #68 ) ;
#292 = CARTESIAN_POINT ( 'NONE',  ( 0.1968505000000001226, 2.410723347355561878E-17, 0.9853683946618323475 ) ) ;
#293 = CARTESIAN_POINT ( 'NONE',  ( 0.1375986495000000309, 0.0000000000000000000, 0.05905500000000000332 ) ) ;
#294 = AXIS2_PLACEMENT_3D ( 'NONE', #115, #64, #335 ) ;
#295 = FACE_OUTER_BOUND ( 'NONE', #203, .T. ) ;
#296 = CARTESIAN_POINT ( 'NONE',  ( 0.1968504999999999838, 2.410723347355560646E-17, 2.819646000000000097 ) ) ;
#297 = COLOUR_RGB ( '',0.7921568627450980005, 0.8196078431372548767, 0.9333333333333333481 ) ;
#298 = EDGE_CURVE ( 'NONE', #119, #150, #266, .T. ) ;
#299 = FACE_OUTER_BOUND ( 'NONE', #65, .T. ) ;
#300 = DIRECTION ( 'NONE',  ( 0.0000000000000000000, 0.0000000000000000000, -1.000000000000000000 ) ) ;
#301 = STYLED_ITEM ( 'NONE', ( #305 ), #79 ) ;
#302 = DIRECTION ( 'NONE',  ( 1.000000000000000000, 0.0000000000000000000, 0.0000000000000000000 ) ) ;
#303 = VERTEX_POINT ( 'NONE', #139 ) ;
#304 = VECTOR ( 'NONE', #140, 39.37007874015748143 ) ;
#305 = PRESENTATION_STYLE_ASSIGNMENT (( #279 ) ) ;
#306 = CIRCLE ( 'NONE', #318, 0.1375986495000000309 ) ;
#307 = DIRECTION ( 'NONE',  ( 1.000000000000000000, 0.0000000000000000000, 0.0000000000000000000 ) ) ;
#308 =( CONVERSION_BASED_UNIT ( 'INCH', #62 ) LENGTH_UNIT ( ) NAMED_UNIT ( #167 ) );
#309 = SURFACE_STYLE_FILL_AREA ( #196 ) ;
#310 = CIRCLE ( 'NONE', #291, 0.1968504999999999838 ) ;
#311 = ORIENTED_EDGE ( 'NONE', *, *, #73, .F. ) ;
#312 = EDGE_CURVE ( 'NONE', #345, #33, #160, .T. ) ;
#313 = ORIENTED_EDGE ( 'NONE', *, *, #53, .T. ) ;
#314 = CARTESIAN_POINT ( 'NONE',  ( 0.0000000000000000000, 0.0000000000000000000, 2.819646000000000097 ) ) ;
#315 = CARTESIAN_POINT ( 'NONE',  ( 0.0000000000000000000, 0.0000000000000000000, 2.834646000000000665 ) ) ;
#316 = ORIENTED_EDGE ( 'NONE', *, *, #202, .T. ) ;
#317 = TOROIDAL_SURFACE ( 'NONE', #228, 0.1375986495000000309, 0.05905500000000000332 ) ;
#318 = AXIS2_PLACEMENT_3D ( 'NONE', #5, #146, #307 ) ;
#319 = DIRECTION ( 'NONE',  ( -0.0000000000000000000, -0.0000000000000000000, -1.000000000000000000 ) ) ;
#320 = DIRECTION ( 'NONE',  ( 0.0000000000000000000, 0.0000000000000000000, -1.000000000000000000 ) ) ;
#321 = AXIS2_PLACEMENT_3D ( 'NONE', #27, #57, #158 ) ;
#322 = CARTESIAN_POINT ( 'NONE',  ( 7.232151672364695422E-18, 0.0000000000000000000, 0.05905500000000000332 ) ) ;
#323 = FACE_OUTER_BOUND ( 'NONE', #18, .T. ) ;
#324 =( LENGTH_UNIT ( ) NAMED_UNIT ( * ) SI_UNIT ( $, .METRE. ) );
#325 =( CONVERSION_BASED_UNIT ( 'INCH', #23 ) LENGTH_UNIT ( ) NAMED_UNIT ( #15 ) );
#326 = EDGE_CURVE ( 'NONE', #345, #150, #108, .T. ) ;
#327 = AXIS2_PLACEMENT_3D ( 'NONE', #322, #163, #349 ) ;
#328 = CARTESIAN_POINT ( 'NONE',  ( 7.232151672364695422E-18, 0.0000000000000000000, 0.05905500000000001720 ) ) ;
#329 = CARTESIAN_POINT ( 'NONE',  ( 0.0000000000000000000, 0.0000000000000000000, 2.834646000000000665 ) ) ;
#330 = ORIENTED_EDGE ( 'NONE', *, *, #133, .F. ) ;
#331 = AXIS2_PLACEMENT_3D ( 'NONE', #229, #179, #47 ) ;
#332 = FILL_AREA_STYLE ('',( #30 ) ) ;
#333 = CARTESIAN_POINT ( 'NONE',  ( -0.1818505000000002481, 0.0000000000000000000, 2.834646000000000665 ) ) ;
#334 = ADVANCED_FACE ( 'NONE', ( #83 ), #2, .T. ) ;
#335 = DIRECTION ( 'NONE',  ( 1.000000000000000000, 0.0000000000000000000, 0.0000000000000000000 ) ) ;
#336 = ORIENTED_EDGE ( 'NONE', *, *, #125, .F. ) ;
#337 = CIRCLE ( 'NONE', #129, 0.1966536495000000273 ) ;
#338 = ORIENTED_EDGE ( 'NONE', *, *, #53, .F. ) ;
#339 = ORIENTED_EDGE ( 'NONE', *, *, #26, .T. ) ;
#340 = EDGE_CURVE ( 'NONE', #153, #227, #24, .T. ) ;
#341 =( NAMED_UNIT ( * ) SI_UNIT ( $, .STERADIAN. ) SOLID_ANGLE_UNIT ( ) );
#342 = ORIENTED_EDGE ( 'NONE', *, *, #93, .F. ) ;
#343 = PRODUCT ( 'Micro_AECM-1015-4', 'Micro_AECM-1015-4', '', ( #219 ) ) ;
#344 = DIRECTION ( 'NONE',  ( -1.224646799147353207E-16, -0.0000000000000000000, -1.000000000000000000 ) ) ;
#345 = VERTEX_POINT ( 'NONE', #78 ) ;
#346 = STYLED_ITEM ( 'NONE', ( #169 ), #89 ) ;
#347 = LINE ( 'NONE', #137, #183 ) ;
#348 = DIRECTION ( 'NONE',  ( 0.0000000000000000000, 0.0000000000000000000, -1.000000000000000000 ) ) ;
#349 = DIRECTION ( 'NONE',  ( 1.000000000000000000, 0.0000000000000000000, 0.0000000000000000000 ) ) ;
#350 = CIRCLE ( 'NONE', #12, 0.05905500000000000332 ) ;
#351 = DIRECTION ( 'NONE',  ( 1.224646799147353207E-16, 0.0000000000000000000, 1.000000000000000000 ) ) ;
ENDSEC;
END-ISO-10303-21;
