ISO-10303-21;
HEADER;
FILE_DESCRIPTION (( 'STEP AP214' ),
    '1' );
FILE_NAME ('Micro_EMS-093-3X.STEP',
    '2021-09-01T17:38:13',
    ( '' ),
    ( '' ),
    'SwSTEP 2.0',
    'SolidWorks 2020',
    '' );
FILE_SCHEMA (( 'AUTOMOTIVE_DESIGN' ));
ENDSEC;

DATA;
#1 = FACE_OUTER_BOUND ( 'NONE', #71, .T. ) ;
#2 = PRODUCT_RELATED_PRODUCT_CATEGORY ( 'part', '', ( #261 ) ) ;
#3 =( NAMED_UNIT ( * ) SI_UNIT ( $, .STERADIAN. ) SOLID_ANGLE_UNIT ( ) );
#4 = AXIS2_PLACEMENT_3D ( 'NONE', #27, #52, #179 ) ;
#5 = FACE_OUTER_BOUND ( 'NONE', #134, .T. ) ;
#6 = AXIS2_PLACEMENT_3D ( 'NONE', #97, #277, #55 ) ;
#7 = AXIS2_PLACEMENT_3D ( 'NONE', #98, #85, #169 ) ;
#8 = FACE_OUTER_BOUND ( 'NONE', #114, .T. ) ;
#9 = EDGE_CURVE ( 'NONE', #192, #18, #75, .T. ) ;
#10 = DIRECTION ( 'NONE',  ( 0.7071067811865462405, 8.659560562354916834E-17, -0.7071067811865486830 ) ) ;
#11 =( CONVERSION_BASED_UNIT ( 'INCH', #208 ) LENGTH_UNIT ( ) NAMED_UNIT ( #35 ) );
#12 = DIRECTION ( 'NONE',  ( -1.224646799147353700E-16, -0.0000000000000000000, -1.000000000000000000 ) ) ;
#13 = FILL_AREA_STYLE ('',( #212 ) ) ;
#14 = AXIS2_PLACEMENT_3D ( 'NONE', #262, #265, #267 ) ;
#15 = EDGE_CURVE ( 'NONE', #135, #218, #39, .T. ) ;
#16 = CIRCLE ( 'NONE', #65, 0.04685310000000000169 ) ;
#17 = EDGE_CURVE ( 'NONE', #220, #217, #207, .T. ) ;
#18 = VERTEX_POINT ( 'NONE', #137 ) ;
#19 = ORIENTED_EDGE ( 'NONE', *, *, #193, .F. ) ;
#20 = AXIS2_PLACEMENT_3D ( 'NONE', #255, #12, #124 ) ;
#21 = EDGE_LOOP ( 'NONE', ( #115, #136 ) ) ;
#22 = ORIENTED_EDGE ( 'NONE', *, *, #241, .T. ) ;
#23 = ORIENTED_EDGE ( 'NONE', *, *, #189, .F. ) ;
#24 = CIRCLE ( 'NONE', #20, 0.06250000000000002776 ) ;
#25 = DIRECTION ( 'NONE',  ( -1.224646799147353700E-16, -0.0000000000000000000, -1.000000000000000000 ) ) ;
#26 = CARTESIAN_POINT ( 'NONE',  ( 0.0000000000000000000, 0.0000000000000000000, 1.485000000000000764 ) ) ;
#27 = CARTESIAN_POINT ( 'NONE',  ( 4.592425496802576684E-17, 0.0000000000000000000, 0.3750000000000000555 ) ) ;
#28 = LINE ( 'NONE', #30, #197 ) ;
#29 =( NAMED_UNIT ( * ) SI_UNIT ( $, .STERADIAN. ) SOLID_ANGLE_UNIT ( ) );
#30 = CARTESIAN_POINT ( 'NONE',  ( -0.04685310000000000169, 0.0000000000000000000, 5.737849894513087439E-18 ) ) ;
#31 = DIRECTION ( 'NONE',  ( 0.0000000000000000000, 0.0000000000000000000, -1.000000000000000000 ) ) ;
#32 = FACE_OUTER_BOUND ( 'NONE', #154, .T. ) ;
#33 = CARTESIAN_POINT ( 'NONE',  ( 0.04750000000000064587, 6.735557395310483192E-18, 1.500000000000000222 ) ) ;
#34 = CARTESIAN_POINT ( 'NONE',  ( 0.04685310000000005026, 0.0000000000000000000, 0.3750000000000000555 ) ) ;
#35 = DIMENSIONAL_EXPONENTS ( 1.000000000000000000, 0.0000000000000000000, 0.0000000000000000000, 0.0000000000000000000, 0.0000000000000000000, 0.0000000000000000000, 0.0000000000000000000 ) ;
#36 = VECTOR ( 'NONE', #99, 39.37007874015748143 ) ;
#37 = AXIS2_PLACEMENT_3D ( 'NONE', #56, #206, #285 ) ;
#38 = AXIS2_PLACEMENT_3D ( 'NONE', #240, #139, #182 ) ;
#39 = CIRCLE ( 'NONE', #234, 0.04685310000000000169 ) ;
#40 = CIRCLE ( 'NONE', #117, 0.06250000000000002776 ) ;
#41 = APPLICATION_CONTEXT ( 'automotive_design' ) ;
#42 = ORIENTED_EDGE ( 'NONE', *, *, #9, .T. ) ;
#43 =( NAMED_UNIT ( * ) SI_UNIT ( $, .STERADIAN. ) SOLID_ANGLE_UNIT ( ) );
#44 = ORIENTED_EDGE ( 'NONE', *, *, #15, .T. ) ;
#45 = VECTOR ( 'NONE', #10, 39.37007874015748854 ) ;
#46 = CONICAL_SURFACE ( 'NONE', #37, 0.04685310000000000863, 0.1745329251994338637 ) ;
#47 = VERTEX_POINT ( 'NONE', #235 ) ;
#48 = ORIENTED_EDGE ( 'NONE', *, *, #58, .T. ) ;
#49 = PRODUCT_CONTEXT ( 'NONE', #41, 'mechanical' ) ;
#50 = ORIENTED_EDGE ( 'NONE', *, *, #84, .T. ) ;
#51 = COLOUR_RGB ( '',0.7921568627450980005, 0.8196078431372548767, 0.9333333333333333481 ) ;
#52 = DIRECTION ( 'NONE',  ( -1.224646799147353700E-16, -0.0000000000000000000, -1.000000000000000000 ) ) ;
#53 =( LENGTH_UNIT ( ) NAMED_UNIT ( * ) SI_UNIT ( $, .METRE. ) );
#54 = CARTESIAN_POINT ( 'NONE',  ( 7.026839507303433011E-34, 0.0000000000000000000, 5.737849894513087439E-18 ) ) ;
#55 = DIRECTION ( 'NONE',  ( -1.000000000000000000, 0.0000000000000000000, 0.0000000000000000000 ) ) ;
#56 = CARTESIAN_POINT ( 'NONE',  ( 4.592425496802576684E-17, 0.0000000000000000000, 0.3750000000000000555 ) ) ;
#57 = CARTESIAN_POINT ( 'NONE',  ( 0.06250000000000002776, 7.654042494670959086E-18, 1.500000000000000222 ) ) ;
#58 = EDGE_CURVE ( 'NONE', #192, #135, #28, .T. ) ;
#59 = DIRECTION ( 'NONE',  ( -1.224646799147353700E-16, -0.0000000000000000000, -1.000000000000000000 ) ) ;
#60 = CARTESIAN_POINT ( 'NONE',  ( 0.04685310000000005026, 0.0000000000000000000, 0.3750000000000000555 ) ) ;
#61 = EDGE_CURVE ( 'NONE', #274, #220, #279, .T. ) ;
#62 = PRESENTATION_LAYER_ASSIGNMENT (  '', '', ( #184 ) ) ;
#63 = AXIS2_PLACEMENT_3D ( 'NONE', #270, #153, #247 ) ;
#64 = AXIS2_PLACEMENT_3D ( 'NONE', #145, #166, #165 ) ;
#65 = AXIS2_PLACEMENT_3D ( 'NONE', #299, #59, #161 ) ;
#66 =( CONVERSION_BASED_UNIT ( 'INCH', #106 ) LENGTH_UNIT ( ) NAMED_UNIT ( #228 ) );
#67 = ORIENTED_EDGE ( 'NONE', *, *, #296, .F. ) ;
#68 = ADVANCED_FACE ( 'NONE', ( #82 ), #116, .T. ) ;
#69 = ORIENTED_EDGE ( 'NONE', *, *, #130, .T. ) ;
#70 = PRODUCT_DEFINITION_CONTEXT ( 'detailed design', #194, 'design' ) ;
#71 = EDGE_LOOP ( 'NONE', ( #297, #69, #244, #246 ) ) ;
#72 = VERTEX_POINT ( 'NONE', #204 ) ;
#73 = DIRECTION ( 'NONE',  ( 1.000000000000000000, 0.0000000000000000000, 0.0000000000000000000 ) ) ;
#74 = PRESENTATION_STYLE_ASSIGNMENT (( #198 ) ) ;
#75 = LINE ( 'NONE', #118, #128 ) ;
#76 = CARTESIAN_POINT ( 'NONE',  ( -0.04685309999999996700, 6.695946194592023262E-18, 0.3750000000000000555 ) ) ;
#77 = CARTESIAN_POINT ( 'NONE',  ( 0.0000000000000000000, 0.0000000000000000000, 1.500000000000000222 ) ) ;
#78 = CARTESIAN_POINT ( 'NONE',  ( 0.0000000000000000000, 0.0000000000000000000, 1.500000000000000222 ) ) ;
#79 = DIRECTION ( 'NONE',  ( -0.1736481776669311639, 2.126576849575783008E-17, 0.9848077530122080203 ) ) ;
#80 = DIRECTION ( 'NONE',  ( 0.0000000000000000000, 0.0000000000000000000, 1.000000000000000000 ) ) ;
#81 = EDGE_CURVE ( 'NONE', #72, #274, #92, .T. ) ;
#82 = FACE_OUTER_BOUND ( 'NONE', #108, .T. ) ;
#83 = AXIS2_PLACEMENT_3D ( 'NONE', #233, #180, #203 ) ;
#84 = EDGE_CURVE ( 'NONE', #47, #18, #162, .T. ) ;
#85 = DIRECTION ( 'NONE',  ( 0.0000000000000000000, 0.0000000000000000000, 1.000000000000000000 ) ) ;
#86 = ADVANCED_FACE ( 'NONE', ( #32 ), #276, .T. ) ;
#87 = CIRCLE ( 'NONE', #170, 0.06250000000000002776 ) ;
#88 = ORIENTED_EDGE ( 'NONE', *, *, #257, .T. ) ;
#89 = ORIENTED_EDGE ( 'NONE', *, *, #103, .F. ) ;
#90 = ORIENTED_EDGE ( 'NONE', *, *, #245, .T. ) ;
#91 = ORIENTED_EDGE ( 'NONE', *, *, #245, .F. ) ;
#92 = CIRCLE ( 'NONE', #264, 0.04750000000000064587 ) ;
#93 = EDGE_LOOP ( 'NONE', ( #155, #157, #48, #248 ) ) ;
#94 = DIRECTION ( 'NONE',  ( -1.000000000000000000, 0.0000000000000000000, 1.224646799147353700E-16 ) ) ;
#95 = LINE ( 'NONE', #178, #243 ) ;
#96 = FACE_OUTER_BOUND ( 'NONE', #222, .T. ) ;
#97 = CARTESIAN_POINT ( 'NONE',  ( 4.592425496802576684E-17, 0.0000000000000000000, 0.3750000000000000555 ) ) ;
#98 = CARTESIAN_POINT ( 'NONE',  ( 0.0000000000000000000, 0.0000000000000000000, 0.0000000000000000000 ) ) ;
#99 = DIRECTION ( 'NONE',  ( -0.0000000000000000000, -0.0000000000000000000, -1.000000000000000000 ) ) ;
#100 = CYLINDRICAL_SURFACE ( 'NONE', #64, 0.04685310000000000169 ) ;
#101 = DIRECTION ( 'NONE',  ( 1.000000000000000000, 0.0000000000000000000, 0.0000000000000000000 ) ) ;
#102 = SURFACE_STYLE_FILL_AREA ( #13 ) ;
#103 = EDGE_CURVE ( 'NONE', #18, #217, #24, .T. ) ;
#104 = EDGE_CURVE ( 'NONE', #173, #192, #132, .T. ) ;
#105 = ADVANCED_FACE ( 'NONE', ( #1 ), #100, .T. ) ;
#106 = LENGTH_MEASURE_WITH_UNIT ( LENGTH_MEASURE( 0.02539999999999999897 ), #282 );
#107 = ORIENTED_EDGE ( 'NONE', *, *, #17, .F. ) ;
#108 = EDGE_LOOP ( 'NONE', ( #292, #273, #171, #90 ) ) ;
#109 = CIRCLE ( 'NONE', #83, 0.06250000000000002776 ) ;
#110 = FILL_AREA_STYLE ('',( #133 ) ) ;
#111 = ORIENTED_EDGE ( 'NONE', *, *, #61, .F. ) ;
#112 = ADVANCED_FACE ( 'NONE', ( #138 ), #225, .T. ) ;
#113 = UNCERTAINTY_MEASURE_WITH_UNIT (LENGTH_MEASURE( 1.000000000000000082E-05 ), #66, 'distance_accuracy_value', 'NONE');
#114 = EDGE_LOOP ( 'NONE', ( #107, #251, #50, #91 ) ) ;
#115 = ORIENTED_EDGE ( 'NONE', *, *, #81, .T. ) ;
#116 = CONICAL_SURFACE ( 'NONE', #278, 0.04685310000000000863, 0.1745329251994338637 ) ;
#117 = AXIS2_PLACEMENT_3D ( 'NONE', #146, #125, #101 ) ;
#118 = CARTESIAN_POINT ( 'NONE',  ( -0.04685309999999996700, 5.737849894513086668E-18, 0.3750000000000000555 ) ) ;
#119 = FACE_OUTER_BOUND ( 'NONE', #93, .T. ) ;
#120 = CARTESIAN_POINT ( 'NONE',  ( -0.04685310000000000169, 0.0000000000000000000, 1.147569978902617488E-17 ) ) ;
#121 = ADVANCED_FACE ( 'NONE', ( #286 ), #215, .T. ) ;
#122 = CARTESIAN_POINT ( 'NONE',  ( 0.04685310000000000169, 5.737849894513085128E-18, -5.737849894513087439E-18 ) ) ;
#123 = FACE_OUTER_BOUND ( 'NONE', #195, .T. ) ;
#124 = DIRECTION ( 'NONE',  ( 1.000000000000000000, 0.0000000000000000000, 0.0000000000000000000 ) ) ;
#125 = DIRECTION ( 'NONE',  ( -1.224646799147353700E-16, -0.0000000000000000000, -1.000000000000000000 ) ) ;
#126 = CARTESIAN_POINT ( 'NONE',  ( -0.06250000000000002776, 0.0000000000000000000, 1.500000000000000222 ) ) ;
#127 = DIRECTION ( 'NONE',  ( 0.0000000000000000000, 0.0000000000000000000, 1.000000000000000000 ) ) ;
#128 = VECTOR ( 'NONE', #79, 39.37007874015747433 ) ;
#129 = MECHANICAL_DESIGN_GEOMETRIC_PRESENTATION_REPRESENTATION (  '', ( #219 ), #147 ) ;
#130 = EDGE_CURVE ( 'NONE', #173, #218, #140, .T. ) ;
#131 = EDGE_LOOP ( 'NONE', ( #67, #269, #23, #224 ) ) ;
#132 = CIRCLE ( 'NONE', #4, 0.04685310000000000863 ) ;
#133 = FILL_AREA_STYLE_COLOUR ( '', #150 ) ;
#134 = EDGE_LOOP ( 'NONE', ( #44, #22 ) ) ;
#135 = VERTEX_POINT ( 'NONE', #120 ) ;
#136 = ORIENTED_EDGE ( 'NONE', *, *, #296, .T. ) ;
#137 = CARTESIAN_POINT ( 'NONE',  ( -0.06249999999999996531, 0.0000000000000000000, 0.4637379795033760299 ) ) ;
#138 = FACE_OUTER_BOUND ( 'NONE', #21, .T. ) ;
#139 = DIRECTION ( 'NONE',  ( -0.0000000000000000000, -0.0000000000000000000, -1.000000000000000000 ) ) ;
#140 = LINE ( 'NONE', #122, #201 ) ;
#141 = ADVANCED_FACE ( 'NONE', ( #96 ), #46, .T. ) ;
#142 = APPLICATION_PROTOCOL_DEFINITION ( 'draft international standard', 'automotive_design', 1998, #194 ) ;
#143 = CARTESIAN_POINT ( 'NONE',  ( 0.0000000000000000000, 0.0000000000000000000, 1.500000000000000222 ) ) ;
#144 = LENGTH_MEASURE_WITH_UNIT ( LENGTH_MEASURE( 0.02539999999999999897 ), #53 );
#145 = CARTESIAN_POINT ( 'NONE',  ( 0.0000000000000000000, 0.0000000000000000000, 0.0000000000000000000 ) ) ;
#146 = CARTESIAN_POINT ( 'NONE',  ( 5.679152322418704750E-17, 0.0000000000000000000, 0.4637379795033760299 ) ) ;
#147 =( GEOMETRIC_REPRESENTATION_CONTEXT ( 3 ) GLOBAL_UNCERTAINTY_ASSIGNED_CONTEXT ( ( #113 ) ) GLOBAL_UNIT_ASSIGNED_CONTEXT ( ( #66, #263, #29 ) ) REPRESENTATION_CONTEXT ( 'NONE', 'WORKASPACE' ) );
#148 = CARTESIAN_POINT ( 'NONE',  ( 0.04750000000000064587, 5.817072295950006528E-18, 1.500000000000000222 ) ) ;
#149 = DIRECTION ( 'NONE',  ( 0.1736481776669313581, 0.0000000000000000000, 0.9848077530122077983 ) ) ;
#150 = COLOUR_RGB ( '',0.7921568627450980005, 0.8196078431372548767, 0.9333333333333333481 ) ;
#151 = AXIS2_PLACEMENT_3D ( 'NONE', #210, #185, #231 ) ;
#152 = VECTOR ( 'NONE', #149, 39.37007874015748143 ) ;
#153 = DIRECTION ( 'NONE',  ( 0.0000000000000000000, 0.0000000000000000000, 1.000000000000000000 ) ) ;
#154 = EDGE_LOOP ( 'NONE', ( #199, #253, #89, #271 ) ) ;
#155 = ORIENTED_EDGE ( 'NONE', *, *, #130, .F. ) ;
#156 = PRESENTATION_STYLE_ASSIGNMENT (( #287 ) ) ;
#157 = ORIENTED_EDGE ( 'NONE', *, *, #104, .T. ) ;
#158 = ADVANCED_FACE ( 'NONE', ( #5 ), #181, .F. ) ;
#159 = DIRECTION ( 'NONE',  ( 1.000000000000000000, 0.0000000000000000000, 0.0000000000000000000 ) ) ;
#160 = DIRECTION ( 'NONE',  ( 0.0000000000000000000, 0.0000000000000000000, 1.000000000000000000 ) ) ;
#161 = DIRECTION ( 'NONE',  ( -1.000000000000000000, 0.0000000000000000000, 1.224646799147353700E-16 ) ) ;
#162 = LINE ( 'NONE', #126, #36 ) ;
#163 = CARTESIAN_POINT ( 'NONE',  ( 0.06250000000000002776, 7.654042494670959086E-18, 1.485000000000000764 ) ) ;
#164 = EDGE_CURVE ( 'NONE', #173, #217, #242, .T. ) ;
#165 = DIRECTION ( 'NONE',  ( -1.000000000000000000, 0.0000000000000000000, 1.224646799147353700E-16 ) ) ;
#166 = DIRECTION ( 'NONE',  ( -1.224646799147353700E-16, -0.0000000000000000000, -1.000000000000000000 ) ) ;
#167 = CYLINDRICAL_SURFACE ( 'NONE', #38, 0.06250000000000002776 ) ;
#168 = CARTESIAN_POINT ( 'NONE',  ( 4.592425496802576684E-17, 0.0000000000000000000, 0.3750000000000000555 ) ) ;
#169 = DIRECTION ( 'NONE',  ( 1.000000000000000000, 0.0000000000000000000, -0.0000000000000000000 ) ) ;
#170 = AXIS2_PLACEMENT_3D ( 'NONE', #26, #226, #159 ) ;
#171 = ORIENTED_EDGE ( 'NONE', *, *, #164, .T. ) ;
#172 = CIRCLE ( 'NONE', #230, 0.04750000000000064587 ) ;
#173 = VERTEX_POINT ( 'NONE', #34 ) ;
#174 = AXIS2_PLACEMENT_3D ( 'NONE', #283, #256, #254 ) ;
#175 = PRODUCT_DEFINITION_SHAPE ( 'NONE', 'NONE',  #272 ) ;
#176 = ORIENTED_EDGE ( 'NONE', *, *, #164, .F. ) ;
#177 = DIRECTION ( 'NONE',  ( -0.0000000000000000000, -0.0000000000000000000, -1.000000000000000000 ) ) ;
#178 = CARTESIAN_POINT ( 'NONE',  ( -0.04750000000000064587, 0.0000000000000000000, 1.500000000000000222 ) ) ;
#179 = DIRECTION ( 'NONE',  ( -1.000000000000000000, 0.0000000000000000000, 0.0000000000000000000 ) ) ;
#180 = DIRECTION ( 'NONE',  ( 0.0000000000000000000, 0.0000000000000000000, -1.000000000000000000 ) ) ;
#181 = PLANE ( 'NONE',  #7 ) ;
#182 = DIRECTION ( 'NONE',  ( -1.000000000000000000, 0.0000000000000000000, 0.0000000000000000000 ) ) ;
#183 = DIRECTION ( 'NONE',  ( 1.000000000000000000, 0.0000000000000000000, 0.0000000000000000000 ) ) ;
#184 = STYLED_ITEM ( 'NONE', ( #74 ), #223 ) ;
#185 = DIRECTION ( 'NONE',  ( -0.0000000000000000000, -0.0000000000000000000, -1.000000000000000000 ) ) ;
#186 = AXIS2_PLACEMENT_3D ( 'NONE', #77, #80, #281 ) ;
#187 = SURFACE_SIDE_STYLE ('',( #102 ) ) ;
#188 = MANIFOLD_SOLID_BREP ( 'Cut-Revolve1', #213 ) ;
#189 = EDGE_CURVE ( 'NONE', #47, #220, #87, .T. ) ;
#190 = ORIENTED_EDGE ( 'NONE', *, *, #81, .F. ) ;
#191 = ADVANCED_FACE ( 'NONE', ( #119 ), #211, .T. ) ;
#192 = VERTEX_POINT ( 'NONE', #76 ) ;
#193 = EDGE_CURVE ( 'NONE', #220, #47, #109, .T. ) ;
#194 = APPLICATION_CONTEXT ( 'automotive_design' ) ;
#195 = EDGE_LOOP ( 'NONE', ( #111, #190, #88, #19 ) ) ;
#196 = UNCERTAINTY_MEASURE_WITH_UNIT (LENGTH_MEASURE( 1.000000000000000082E-05 ), #11, 'distance_accuracy_value', 'NONE');
#197 = VECTOR ( 'NONE', #227, 39.37007874015748143 ) ;
#198 = SURFACE_STYLE_USAGE ( .BOTH. , #250 ) ;
#199 = ORIENTED_EDGE ( 'NONE', *, *, #189, .T. ) ;
#200 = SHAPE_DEFINITION_REPRESENTATION ( #175, #223 ) ;
#201 = VECTOR ( 'NONE', #25, 39.37007874015748143 ) ;
#202 = CARTESIAN_POINT ( 'NONE',  ( 0.0000000000000000000, 0.0000000000000000000, 1.500000000000000222 ) ) ;
#203 = DIRECTION ( 'NONE',  ( 1.000000000000000000, 0.0000000000000000000, 0.0000000000000000000 ) ) ;
#204 = CARTESIAN_POINT ( 'NONE',  ( -0.04750000000000064587, 0.0000000000000000000, 1.500000000000000222 ) ) ;
#205 =( NAMED_UNIT ( * ) PLANE_ANGLE_UNIT ( ) SI_UNIT ( $, .RADIAN. ) );
#206 = DIRECTION ( 'NONE',  ( 1.224646799147353700E-16, 0.0000000000000000000, 1.000000000000000000 ) ) ;
#207 = LINE ( 'NONE', #57, #289 ) ;
#208 = LENGTH_MEASURE_WITH_UNIT ( LENGTH_MEASURE( 0.02539999999999999897 ), #229 );
#209 =( NAMED_UNIT ( * ) PLANE_ANGLE_UNIT ( ) SI_UNIT ( $, .RADIAN. ) );
#210 = CARTESIAN_POINT ( 'NONE',  ( 0.0000000000000000000, 0.0000000000000000000, 1.500000000000000222 ) ) ;
#211 = CYLINDRICAL_SURFACE ( 'NONE', #174, 0.04685310000000000169 ) ;
#212 = FILL_AREA_STYLE_COLOUR ( '', #51 ) ;
#213 = CLOSED_SHELL ( 'NONE', ( #105, #141, #121, #86, #249, #112, #236, #68, #191, #158 ) ) ;
#214 = APPLICATION_PROTOCOL_DEFINITION ( 'draft international standard', 'automotive_design', 1998, #41 ) ;
#215 = CONICAL_SURFACE ( 'NONE', #14, 0.04750000000000064587, 0.7853981633974466137 ) ;
#216 = CONICAL_SURFACE ( 'NONE', #266, 0.04750000000000064587, 0.7853981633974466137 ) ;
#217 = VERTEX_POINT ( 'NONE', #238 ) ;
#218 = VERTEX_POINT ( 'NONE', #260 ) ;
#219 = STYLED_ITEM ( 'NONE', ( #156 ), #188 ) ;
#220 = VERTEX_POINT ( 'NONE', #163 ) ;
#221 = SURFACE_STYLE_FILL_AREA ( #110 ) ;
#222 = EDGE_LOOP ( 'NONE', ( #295, #42, #293, #176 ) ) ;
#223 = ADVANCED_BREP_SHAPE_REPRESENTATION ( 'Micro_EMS-093-3X', ( #188, #63 ), #288 ) ;
#224 = ORIENTED_EDGE ( 'NONE', *, *, #257, .F. ) ;
#225 = PLANE ( 'NONE',  #186 ) ;
#226 = DIRECTION ( 'NONE',  ( 0.0000000000000000000, 0.0000000000000000000, -1.000000000000000000 ) ) ;
#227 = DIRECTION ( 'NONE',  ( -1.224646799147353700E-16, -0.0000000000000000000, -1.000000000000000000 ) ) ;
#228 = DIMENSIONAL_EXPONENTS ( 1.000000000000000000, 0.0000000000000000000, 0.0000000000000000000, 0.0000000000000000000, 0.0000000000000000000, 0.0000000000000000000, 0.0000000000000000000 ) ;
#229 =( LENGTH_UNIT ( ) NAMED_UNIT ( * ) SI_UNIT ( $, .METRE. ) );
#230 = AXIS2_PLACEMENT_3D ( 'NONE', #143, #127, #73 ) ;
#231 = DIRECTION ( 'NONE',  ( -1.000000000000000000, 0.0000000000000000000, 0.0000000000000000000 ) ) ;
#232 =( GEOMETRIC_REPRESENTATION_CONTEXT ( 3 ) GLOBAL_UNCERTAINTY_ASSIGNED_CONTEXT ( ( #290 ) ) GLOBAL_UNIT_ASSIGNED_CONTEXT ( ( #284, #209, #43 ) ) REPRESENTATION_CONTEXT ( 'NONE', 'WORKASPACE' ) );
#233 = CARTESIAN_POINT ( 'NONE',  ( 0.0000000000000000000, 0.0000000000000000000, 1.485000000000000764 ) ) ;
#234 = AXIS2_PLACEMENT_3D ( 'NONE', #54, #298, #94 ) ;
#235 = CARTESIAN_POINT ( 'NONE',  ( -0.06250000000000002776, 0.0000000000000000000, 1.485000000000000764 ) ) ;
#236 = ADVANCED_FACE ( 'NONE', ( #123 ), #216, .T. ) ;
#237 = PRESENTATION_LAYER_ASSIGNMENT (  '', '', ( #219 ) ) ;
#238 = CARTESIAN_POINT ( 'NONE',  ( 0.06250000000000008327, 7.654042494670966789E-18, 0.4637379795033760299 ) ) ;
#239 = DIRECTION ( 'NONE',  ( 1.224646799147353700E-16, 0.0000000000000000000, 1.000000000000000000 ) ) ;
#240 = CARTESIAN_POINT ( 'NONE',  ( 0.0000000000000000000, 0.0000000000000000000, 1.500000000000000222 ) ) ;
#241 = EDGE_CURVE ( 'NONE', #218, #135, #16, .T. ) ;
#242 = LINE ( 'NONE', #60, #152 ) ;
#243 = VECTOR ( 'NONE', #280, 39.37007874015748854 ) ;
#244 = ORIENTED_EDGE ( 'NONE', *, *, #15, .F. ) ;
#245 = EDGE_CURVE ( 'NONE', #217, #18, #40, .T. ) ;
#246 = ORIENTED_EDGE ( 'NONE', *, *, #58, .F. ) ;
#247 = DIRECTION ( 'NONE',  ( 1.000000000000000000, 0.0000000000000000000, 0.0000000000000000000 ) ) ;
#248 = ORIENTED_EDGE ( 'NONE', *, *, #241, .F. ) ;
#249 = ADVANCED_FACE ( 'NONE', ( #8 ), #167, .T. ) ;
#250 = SURFACE_SIDE_STYLE ('',( #221 ) ) ;
#251 = ORIENTED_EDGE ( 'NONE', *, *, #193, .T. ) ;
#252 = PRODUCT_DEFINITION_FORMATION_WITH_SPECIFIED_SOURCE ( 'ANY', '', #261, .NOT_KNOWN. ) ;
#253 = ORIENTED_EDGE ( 'NONE', *, *, #17, .T. ) ;
#254 = DIRECTION ( 'NONE',  ( -1.000000000000000000, 0.0000000000000000000, 1.224646799147353700E-16 ) ) ;
#255 = CARTESIAN_POINT ( 'NONE',  ( 5.679152322418704750E-17, 0.0000000000000000000, 0.4637379795033760299 ) ) ;
#256 = DIRECTION ( 'NONE',  ( -1.224646799147353700E-16, -0.0000000000000000000, -1.000000000000000000 ) ) ;
#257 = EDGE_CURVE ( 'NONE', #72, #47, #95, .T. ) ;
#258 = DIMENSIONAL_EXPONENTS ( 1.000000000000000000, 0.0000000000000000000, 0.0000000000000000000, 0.0000000000000000000, 0.0000000000000000000, 0.0000000000000000000, 0.0000000000000000000 ) ;
#259 = DIRECTION ( 'NONE',  ( 1.000000000000000000, 0.0000000000000000000, 0.0000000000000000000 ) ) ;
#260 = CARTESIAN_POINT ( 'NONE',  ( 0.04685310000000000169, 5.737849894513085128E-18, 0.0000000000000000000 ) ) ;
#261 = PRODUCT ( 'Micro_EMS-093-3X', 'Micro_EMS-093-3X', '', ( #49 ) ) ;
#262 = CARTESIAN_POINT ( 'NONE',  ( 0.0000000000000000000, 0.0000000000000000000, 1.500000000000000222 ) ) ;
#263 =( NAMED_UNIT ( * ) PLANE_ANGLE_UNIT ( ) SI_UNIT ( $, .RADIAN. ) );
#264 = AXIS2_PLACEMENT_3D ( 'NONE', #202, #160, #183 ) ;
#265 = DIRECTION ( 'NONE',  ( 0.0000000000000000000, 0.0000000000000000000, -1.000000000000000000 ) ) ;
#266 = AXIS2_PLACEMENT_3D ( 'NONE', #78, #31, #275 ) ;
#267 = DIRECTION ( 'NONE',  ( -1.000000000000000000, 0.0000000000000000000, 0.0000000000000000000 ) ) ;
#268 = EDGE_CURVE ( 'NONE', #192, #173, #291, .T. ) ;
#269 = ORIENTED_EDGE ( 'NONE', *, *, #61, .T. ) ;
#270 = CARTESIAN_POINT ( 'NONE',  ( 0.0000000000000000000, 0.0000000000000000000, 0.0000000000000000000 ) ) ;
#271 = ORIENTED_EDGE ( 'NONE', *, *, #84, .F. ) ;
#272 = PRODUCT_DEFINITION ( 'UNKNOWN', '', #252, #70 ) ;
#273 = ORIENTED_EDGE ( 'NONE', *, *, #104, .F. ) ;
#274 = VERTEX_POINT ( 'NONE', #33 ) ;
#275 = DIRECTION ( 'NONE',  ( -1.000000000000000000, 0.0000000000000000000, 0.0000000000000000000 ) ) ;
#276 = CYLINDRICAL_SURFACE ( 'NONE', #151, 0.06250000000000002776 ) ;
#277 = DIRECTION ( 'NONE',  ( -1.224646799147353700E-16, -0.0000000000000000000, -1.000000000000000000 ) ) ;
#278 = AXIS2_PLACEMENT_3D ( 'NONE', #168, #239, #259 ) ;
#279 = LINE ( 'NONE', #148, #45 ) ;
#280 = DIRECTION ( 'NONE',  ( -0.7071067811865462405, 0.0000000000000000000, -0.7071067811865486830 ) ) ;
#281 = DIRECTION ( 'NONE',  ( 1.000000000000000000, 0.0000000000000000000, -0.0000000000000000000 ) ) ;
#282 =( LENGTH_UNIT ( ) NAMED_UNIT ( * ) SI_UNIT ( $, .METRE. ) );
#283 = CARTESIAN_POINT ( 'NONE',  ( 0.0000000000000000000, 0.0000000000000000000, 0.0000000000000000000 ) ) ;
#284 =( CONVERSION_BASED_UNIT ( 'INCH', #144 ) LENGTH_UNIT ( ) NAMED_UNIT ( #258 ) );
#285 = DIRECTION ( 'NONE',  ( 1.000000000000000000, 0.0000000000000000000, 0.0000000000000000000 ) ) ;
#286 = FACE_OUTER_BOUND ( 'NONE', #131, .T. ) ;
#287 = SURFACE_STYLE_USAGE ( .BOTH. , #187 ) ;
#288 =( GEOMETRIC_REPRESENTATION_CONTEXT ( 3 ) GLOBAL_UNCERTAINTY_ASSIGNED_CONTEXT ( ( #196 ) ) GLOBAL_UNIT_ASSIGNED_CONTEXT ( ( #11, #205, #3 ) ) REPRESENTATION_CONTEXT ( 'NONE', 'WORKASPACE' ) );
#289 = VECTOR ( 'NONE', #177, 39.37007874015748143 ) ;
#290 = UNCERTAINTY_MEASURE_WITH_UNIT (LENGTH_MEASURE( 1.000000000000000082E-05 ), #284, 'distance_accuracy_value', 'NONE');
#291 = CIRCLE ( 'NONE', #6, 0.04685310000000000863 ) ;
#292 = ORIENTED_EDGE ( 'NONE', *, *, #9, .F. ) ;
#293 = ORIENTED_EDGE ( 'NONE', *, *, #103, .T. ) ;
#294 = MECHANICAL_DESIGN_GEOMETRIC_PRESENTATION_REPRESENTATION (  '', ( #184 ), #232 ) ;
#295 = ORIENTED_EDGE ( 'NONE', *, *, #268, .F. ) ;
#296 = EDGE_CURVE ( 'NONE', #274, #72, #172, .T. ) ;
#297 = ORIENTED_EDGE ( 'NONE', *, *, #268, .T. ) ;
#298 = DIRECTION ( 'NONE',  ( -1.224646799147353700E-16, -0.0000000000000000000, -1.000000000000000000 ) ) ;
#299 = CARTESIAN_POINT ( 'NONE',  ( 7.026839507303433011E-34, 0.0000000000000000000, 5.737849894513087439E-18 ) ) ;
ENDSEC;
END-ISO-10303-21;
