ISO-10303-21;
HEADER;
FILE_DESCRIPTION (( 'STEP AP214' ),
    '1' );
FILE_NAME ('Micro_RTC-250-220.STEP',
    '2021-09-03T18:10:52',
    ( '' ),
    ( '' ),
    'SwSTEP 2.0',
    'SolidWorks 2020',
    '' );
FILE_SCHEMA (( 'AUTOMOTIVE_DESIGN' ));
ENDSEC;

DATA;
#1 = DIRECTION ( 'NONE',  ( 0.0000000000000000000, 0.0000000000000000000, -1.000000000000000000 ) ) ;
#2 = PRODUCT_DEFINITION_SHAPE ( 'NONE', 'NONE',  #12 ) ;
#3 = LENGTH_MEASURE_WITH_UNIT ( LENGTH_MEASURE( 0.02539999999999999897 ), #236 );
#4 = AXIS2_PLACEMENT_3D ( 'NONE', #115, #187, #64 ) ;
#5 = FILL_AREA_STYLE ('',( #68 ) ) ;
#6 =( LENGTH_UNIT ( ) NAMED_UNIT ( * ) SI_UNIT ( $, .METRE. ) );
#7 = PLANE ( 'NONE',  #74 ) ;
#8 = VECTOR ( 'NONE', #171, 39.37007874015748143 ) ;
#9 = LENGTH_MEASURE_WITH_UNIT ( LENGTH_MEASURE( 0.02539999999999999897 ), #6 );
#10 = DIRECTION ( 'NONE',  ( 0.0000000000000000000, 0.0000000000000000000, 1.000000000000000000 ) ) ;
#11 = ORIENTED_EDGE ( 'NONE', *, *, #219, .T. ) ;
#12 = PRODUCT_DEFINITION ( 'UNKNOWN', '', #108, #132 ) ;
#13 = PLANE ( 'NONE',  #158 ) ;
#14 = EDGE_LOOP ( 'NONE', ( #201, #149 ) ) ;
#15 = PRODUCT_CONTEXT ( 'NONE', #131, 'mechanical' ) ;
#16 = CARTESIAN_POINT ( 'NONE',  ( 0.0000000000000000000, 0.0000000000000000000, 2.500000000000000000 ) ) ;
#17 = DIRECTION ( 'NONE',  ( 0.0000000000000000000, 0.0000000000000000000, -1.000000000000000000 ) ) ;
#18 = DIRECTION ( 'NONE',  ( 1.000000000000000000, 0.0000000000000000000, 0.0000000000000000000 ) ) ;
#19 = EDGE_CURVE ( 'NONE', #177, #95, #208, .T. ) ;
#20 = AXIS2_PLACEMENT_3D ( 'NONE', #51, #113, #148 ) ;
#21 = AXIS2_PLACEMENT_3D ( 'NONE', #211, #120, #190 ) ;
#22 = DIRECTION ( 'NONE',  ( -1.000000000000000000, 0.0000000000000000000, 0.0000000000000000000 ) ) ;
#23 = CARTESIAN_POINT ( 'NONE',  ( 0.0000000000000000000, 0.0000000000000000000, 2.070814157129580835 ) ) ;
#24 =( NAMED_UNIT ( * ) SI_UNIT ( $, .STERADIAN. ) SOLID_ANGLE_UNIT ( ) );
#25 = AXIS2_PLACEMENT_3D ( 'NONE', #168, #1, #79 ) ;
#26 = DIRECTION ( 'NONE',  ( 0.0000000000000000000, 0.0000000000000000000, 1.000000000000000000 ) ) ;
#27 = DIRECTION ( 'NONE',  ( -1.000000000000000000, 0.0000000000000000000, 0.0000000000000000000 ) ) ;
#28 = CARTESIAN_POINT ( 'NONE',  ( 0.0000000000000000000, 0.0000000000000000000, 0.0000000000000000000 ) ) ;
#29 = STYLED_ITEM ( 'NONE', ( #33 ), #78 ) ;
#30 = ORIENTED_EDGE ( 'NONE', *, *, #70, .T. ) ;
#31 = CARTESIAN_POINT ( 'NONE',  ( 0.0000000000000000000, 0.0000000000000000000, 0.0000000000000000000 ) ) ;
#32 = ORIENTED_EDGE ( 'NONE', *, *, #87, .T. ) ;
#33 = PRESENTATION_STYLE_ASSIGNMENT (( #241 ) ) ;
#34 = DIMENSIONAL_EXPONENTS ( 1.000000000000000000, 0.0000000000000000000, 0.0000000000000000000, 0.0000000000000000000, 0.0000000000000000000, 0.0000000000000000000, 0.0000000000000000000 ) ;
#35 = DIRECTION ( 'NONE',  ( -1.000000000000000000, 0.0000000000000000000, 0.0000000000000000000 ) ) ;
#36 = EDGE_CURVE ( 'NONE', #145, #73, #104, .T. ) ;
#37 = ORIENTED_EDGE ( 'NONE', *, *, #247, .F. ) ;
#38 = PRESENTATION_LAYER_ASSIGNMENT (  '', '', ( #249 ) ) ;
#39 = DIRECTION ( 'NONE',  ( -0.0000000000000000000, -0.0000000000000000000, -1.000000000000000000 ) ) ;
#40 = LINE ( 'NONE', #61, #223 ) ;
#41 = MECHANICAL_DESIGN_GEOMETRIC_PRESENTATION_REPRESENTATION (  '', ( #249 ), #48 ) ;
#42 = CYLINDRICAL_SURFACE ( 'NONE', #21, 0.1250000000000000000 ) ;
#43 = DIRECTION ( 'NONE',  ( -1.000000000000000000, 0.0000000000000000000, 0.0000000000000000000 ) ) ;
#44 = LINE ( 'NONE', #172, #200 ) ;
#45 = DIRECTION ( 'NONE',  ( -0.0000000000000000000, -0.0000000000000000000, -1.000000000000000000 ) ) ;
#46 = SURFACE_STYLE_USAGE ( .BOTH. , #217 ) ;
#47 = CIRCLE ( 'NONE', #179, 0.1250000000000000000 ) ;
#48 =( GEOMETRIC_REPRESENTATION_CONTEXT ( 3 ) GLOBAL_UNCERTAINTY_ASSIGNED_CONTEXT ( ( #99 ) ) GLOBAL_UNIT_ASSIGNED_CONTEXT ( ( #85, #215, #124 ) ) REPRESENTATION_CONTEXT ( 'NONE', 'WORKASPACE' ) );
#49 = ADVANCED_BREP_SHAPE_REPRESENTATION ( 'Micro_RTC-250-220', ( #78, #210 ), #114 ) ;
#50 = ORIENTED_EDGE ( 'NONE', *, *, #87, .F. ) ;
#51 = CARTESIAN_POINT ( 'NONE',  ( 0.0000000000000000000, 0.0000000000000000000, 0.4291858428704192763 ) ) ;
#52 = APPLICATION_PROTOCOL_DEFINITION ( 'draft international standard', 'automotive_design', 1998, #141 ) ;
#53 = DIMENSIONAL_EXPONENTS ( 1.000000000000000000, 0.0000000000000000000, 0.0000000000000000000, 0.0000000000000000000, 0.0000000000000000000, 0.0000000000000000000, 0.0000000000000000000 ) ;
#54 = EDGE_LOOP ( 'NONE', ( #163, #183, #157, #226 ) ) ;
#55 = DIRECTION ( 'NONE',  ( 1.000000000000000000, 0.0000000000000000000, -0.0000000000000000000 ) ) ;
#56 = ADVANCED_FACE ( 'NONE', ( #144 ), #13, .F. ) ;
#57 = VERTEX_POINT ( 'NONE', #224 ) ;
#58 = VECTOR ( 'NONE', #202, 39.37007874015748143 ) ;
#59 = CONICAL_SURFACE ( 'NONE', #63, 0.01000000000000000021, 0.2617993877991502960 ) ;
#60 = DIMENSIONAL_EXPONENTS ( 1.000000000000000000, 0.0000000000000000000, 0.0000000000000000000, 0.0000000000000000000, 0.0000000000000000000, 0.0000000000000000000, 0.0000000000000000000 ) ;
#61 = CARTESIAN_POINT ( 'NONE',  ( 0.01000000000000000021, 0.0000000000000000000, 2.500000000000000000 ) ) ;
#62 = CARTESIAN_POINT ( 'NONE',  ( -0.01000000000000000021, 8.266365894244632793E-18, 0.0000000000000000000 ) ) ;
#63 = AXIS2_PLACEMENT_3D ( 'NONE', #195, #176, #122 ) ;
#64 = DIRECTION ( 'NONE',  ( 1.000000000000000000, 0.0000000000000000000, 0.0000000000000000000 ) ) ;
#65 = APPLICATION_PROTOCOL_DEFINITION ( 'draft international standard', 'automotive_design', 1998, #131 ) ;
#66 = EDGE_CURVE ( 'NONE', #244, #177, #240, .T. ) ;
#67 = CIRCLE ( 'NONE', #235, 0.1250000000000000000 ) ;
#68 = FILL_AREA_STYLE_COLOUR ( '', #143 ) ;
#69 = DIRECTION ( 'NONE',  ( -0.0000000000000000000, -0.0000000000000000000, -1.000000000000000000 ) ) ;
#70 = EDGE_CURVE ( 'NONE', #96, #133, #243, .T. ) ;
#71 = ORIENTED_EDGE ( 'NONE', *, *, #19, .F. ) ;
#72 = ORIENTED_EDGE ( 'NONE', *, *, #70, .F. ) ;
#73 = VERTEX_POINT ( 'NONE', #220 ) ;
#74 = AXIS2_PLACEMENT_3D ( 'NONE', #105, #26, #88 ) ;
#75 = ORIENTED_EDGE ( 'NONE', *, *, #36, .T. ) ;
#76 = DIRECTION ( 'NONE',  ( 0.0000000000000000000, 0.0000000000000000000, -1.000000000000000000 ) ) ;
#77 = FACE_OUTER_BOUND ( 'NONE', #221, .T. ) ;
#78 = MANIFOLD_SOLID_BREP ( 'Mirror1', #147 ) ;
#79 = DIRECTION ( 'NONE',  ( -1.000000000000000000, 0.0000000000000000000, 0.0000000000000000000 ) ) ;
#80 =( NAMED_UNIT ( * ) PLANE_ANGLE_UNIT ( ) SI_UNIT ( $, .RADIAN. ) );
#81 = DIRECTION ( 'NONE',  ( -0.0000000000000000000, -0.0000000000000000000, -1.000000000000000000 ) ) ;
#82 = DIRECTION ( 'NONE',  ( -1.000000000000000000, 0.0000000000000000000, 0.0000000000000000000 ) ) ;
#83 = EDGE_CURVE ( 'NONE', #95, #177, #47, .T. ) ;
#84 = VECTOR ( 'NONE', #228, 39.37007874015748143 ) ;
#85 =( CONVERSION_BASED_UNIT ( 'INCH', #3 ) LENGTH_UNIT ( ) NAMED_UNIT ( #53 ) );
#86 =( CONVERSION_BASED_UNIT ( 'INCH', #9 ) LENGTH_UNIT ( ) NAMED_UNIT ( #60 ) );
#87 = EDGE_CURVE ( 'NONE', #57, #244, #110, .T. ) ;
#88 = DIRECTION ( 'NONE',  ( 1.000000000000000000, 0.0000000000000000000, -0.0000000000000000000 ) ) ;
#89 =( NAMED_UNIT ( * ) PLANE_ANGLE_UNIT ( ) SI_UNIT ( $, .RADIAN. ) );
#90 = SHAPE_DEFINITION_REPRESENTATION ( #2, #49 ) ;
#91 = EDGE_LOOP ( 'NONE', ( #11, #182, #203, #196 ) ) ;
#92 = CARTESIAN_POINT ( 'NONE',  ( 0.1250000000000000000, 1.530808498934191509E-17, 2.500000000000000000 ) ) ;
#93 = CARTESIAN_POINT ( 'NONE',  ( 0.0000000000000000000, 0.0000000000000000000, 0.0000000000000000000 ) ) ;
#94 = ADVANCED_FACE ( 'NONE', ( #154 ), #101, .T. ) ;
#95 = VERTEX_POINT ( 'NONE', #234 ) ;
#96 = VERTEX_POINT ( 'NONE', #102 ) ;
#97 = EDGE_LOOP ( 'NONE', ( #162, #75, #227, #50 ) ) ;
#98 =( CONVERSION_BASED_UNIT ( 'INCH', #205 ) LENGTH_UNIT ( ) NAMED_UNIT ( #34 ) );
#99 = UNCERTAINTY_MEASURE_WITH_UNIT (LENGTH_MEASURE( 1.000000000000000082E-05 ), #85, 'distance_accuracy_value', 'NONE');
#100 =( NAMED_UNIT ( * ) SI_UNIT ( $, .STERADIAN. ) SOLID_ANGLE_UNIT ( ) );
#101 = CONICAL_SURFACE ( 'NONE', #204, 0.01000000000000000021, 0.2617993877991502960 ) ;
#102 = CARTESIAN_POINT ( 'NONE',  ( 0.01000000000000000021, 0.0000000000000000000, 0.0000000000000000000 ) ) ;
#103 = DIRECTION ( 'NONE',  ( 0.0000000000000000000, 0.0000000000000000000, -1.000000000000000000 ) ) ;
#104 = CIRCLE ( 'NONE', #107, 0.01000000000000000021 ) ;
#105 = CARTESIAN_POINT ( 'NONE',  ( 0.0000000000000000000, 0.0000000000000000000, 2.500000000000000000 ) ) ;
#106 = CARTESIAN_POINT ( 'NONE',  ( 0.1250000000000000000, 1.530808498934191509E-17, 2.070814157129580835 ) ) ;
#107 = AXIS2_PLACEMENT_3D ( 'NONE', #16, #76, #35 ) ;
#108 = PRODUCT_DEFINITION_FORMATION_WITH_SPECIFIED_SOURCE ( 'ANY', '', #212, .NOT_KNOWN. ) ;
#109 = ORIENTED_EDGE ( 'NONE', *, *, #184, .T. ) ;
#110 = CIRCLE ( 'NONE', #25, 0.1250000000000000000 ) ;
#111 =( LENGTH_UNIT ( ) NAMED_UNIT ( * ) SI_UNIT ( $, .METRE. ) );
#112 = DIRECTION ( 'NONE',  ( -1.000000000000000000, 0.0000000000000000000, 0.0000000000000000000 ) ) ;
#113 = DIRECTION ( 'NONE',  ( -0.0000000000000000000, -0.0000000000000000000, -1.000000000000000000 ) ) ;
#114 =( GEOMETRIC_REPRESENTATION_CONTEXT ( 3 ) GLOBAL_UNCERTAINTY_ASSIGNED_CONTEXT ( ( #225 ) ) GLOBAL_UNIT_ASSIGNED_CONTEXT ( ( #86, #89, #24 ) ) REPRESENTATION_CONTEXT ( 'NONE', 'WORKASPACE' ) );
#115 = CARTESIAN_POINT ( 'NONE',  ( 0.0000000000000000000, 0.0000000000000000000, 0.0000000000000000000 ) ) ;
#116 = ADVANCED_FACE ( 'NONE', ( #170 ), #135, .T. ) ;
#117 = FACE_OUTER_BOUND ( 'NONE', #91, .T. ) ;
#118 = LINE ( 'NONE', #189, #8 ) ;
#119 = CIRCLE ( 'NONE', #165, 0.01000000000000000021 ) ;
#120 = DIRECTION ( 'NONE',  ( -0.0000000000000000000, -0.0000000000000000000, -1.000000000000000000 ) ) ;
#121 = CARTESIAN_POINT ( 'NONE',  ( 0.0000000000000000000, 0.0000000000000000000, 2.500000000000000000 ) ) ;
#122 = DIRECTION ( 'NONE',  ( 1.000000000000000000, 0.0000000000000000000, 0.0000000000000000000 ) ) ;
#123 = AXIS2_PLACEMENT_3D ( 'NONE', #93, #69, #112 ) ;
#124 =( NAMED_UNIT ( * ) SI_UNIT ( $, .STERADIAN. ) SOLID_ANGLE_UNIT ( ) );
#125 = FACE_OUTER_BOUND ( 'NONE', #14, .T. ) ;
#126 = FILL_AREA_STYLE ('',( #160 ) ) ;
#127 = SURFACE_SIDE_STYLE ('',( #198 ) ) ;
#128 = AXIS2_PLACEMENT_3D ( 'NONE', #121, #17, #142 ) ;
#129 = EDGE_LOOP ( 'NONE', ( #222, #185, #109, #71 ) ) ;
#130 = EDGE_LOOP ( 'NONE', ( #37, #72, #150, #146 ) ) ;
#131 = APPLICATION_CONTEXT ( 'automotive_design' ) ;
#132 = PRODUCT_DEFINITION_CONTEXT ( 'detailed design', #141, 'design' ) ;
#133 = VERTEX_POINT ( 'NONE', #62 ) ;
#134 = DIRECTION ( 'NONE',  ( 0.2588190451025216832, 0.0000000000000000000, -0.9659258262890679791 ) ) ;
#135 = CONICAL_SURFACE ( 'NONE', #4, 0.01000000000000000021, 0.2617993877991502960 ) ;
#136 = LINE ( 'NONE', #152, #214 ) ;
#137 = ADVANCED_FACE ( 'NONE', ( #77 ), #153, .T. ) ;
#138 = LINE ( 'NONE', #209, #84 ) ;
#139 = COLOUR_RGB ( '',0.7921568627450980005, 0.8196078431372548767, 0.9333333333333333481 ) ;
#140 = CARTESIAN_POINT ( 'NONE',  ( 0.0000000000000000000, 0.0000000000000000000, 2.500000000000000000 ) ) ;
#141 = APPLICATION_CONTEXT ( 'automotive_design' ) ;
#142 = DIRECTION ( 'NONE',  ( -1.000000000000000000, 0.0000000000000000000, 0.0000000000000000000 ) ) ;
#143 = COLOUR_RGB ( '',0.7921568627450980005, 0.8196078431372548767, 0.9333333333333333481 ) ;
#144 = FACE_OUTER_BOUND ( 'NONE', #180, .T. ) ;
#145 = VERTEX_POINT ( 'NONE', #232 ) ;
#146 = ORIENTED_EDGE ( 'NONE', *, *, #19, .T. ) ;
#147 = CLOSED_SHELL ( 'NONE', ( #156, #116, #137, #191, #94, #56, #238, #233 ) ) ;
#148 = DIRECTION ( 'NONE',  ( -1.000000000000000000, 0.0000000000000000000, 0.0000000000000000000 ) ) ;
#149 = ORIENTED_EDGE ( 'NONE', *, *, #36, .F. ) ;
#150 = ORIENTED_EDGE ( 'NONE', *, *, #151, .T. ) ;
#151 = EDGE_CURVE ( 'NONE', #96, #177, #136, .T. ) ;
#152 = CARTESIAN_POINT ( 'NONE',  ( 0.01000000000000000021, 0.0000000000000000000, 0.0000000000000000000 ) ) ;
#153 = CYLINDRICAL_SURFACE ( 'NONE', #237, 0.1250000000000000000 ) ;
#154 = FACE_OUTER_BOUND ( 'NONE', #130, .T. ) ;
#155 =( GEOMETRIC_REPRESENTATION_CONTEXT ( 3 ) GLOBAL_UNCERTAINTY_ASSIGNED_CONTEXT ( ( #181 ) ) GLOBAL_UNIT_ASSIGNED_CONTEXT ( ( #98, #80, #100 ) ) REPRESENTATION_CONTEXT ( 'NONE', 'WORKASPACE' ) );
#156 = ADVANCED_FACE ( 'NONE', ( #117 ), #218, .T. ) ;
#157 = ORIENTED_EDGE ( 'NONE', *, *, #83, .T. ) ;
#158 = AXIS2_PLACEMENT_3D ( 'NONE', #199, #186, #55 ) ;
#159 = CIRCLE ( 'NONE', #128, 0.01000000000000000021 ) ;
#160 = FILL_AREA_STYLE_COLOUR ( '', #139 ) ;
#161 = CARTESIAN_POINT ( 'NONE',  ( 0.0000000000000000000, 0.0000000000000000000, 0.4291858428704192763 ) ) ;
#162 = ORIENTED_EDGE ( 'NONE', *, *, #173, .F. ) ;
#163 = ORIENTED_EDGE ( 'NONE', *, *, #229, .F. ) ;
#164 = PRESENTATION_LAYER_ASSIGNMENT (  '', '', ( #29 ) ) ;
#165 = AXIS2_PLACEMENT_3D ( 'NONE', #28, #45, #27 ) ;
#166 = ORIENTED_EDGE ( 'NONE', *, *, #184, .F. ) ;
#167 = CARTESIAN_POINT ( 'NONE',  ( 0.1250000000000000000, 1.530808498934191509E-17, 0.4291858428704192763 ) ) ;
#168 = CARTESIAN_POINT ( 'NONE',  ( 0.0000000000000000000, 0.0000000000000000000, 2.070814157129580835 ) ) ;
#169 = AXIS2_PLACEMENT_3D ( 'NONE', #188, #230, #18 ) ;
#170 = FACE_OUTER_BOUND ( 'NONE', #54, .T. ) ;
#171 = DIRECTION ( 'NONE',  ( -0.0000000000000000000, -0.0000000000000000000, -1.000000000000000000 ) ) ;
#172 = CARTESIAN_POINT ( 'NONE',  ( -0.01000000000000000021, 1.224646799147353384E-18, 0.0000000000000000000 ) ) ;
#173 = EDGE_CURVE ( 'NONE', #145, #57, #138, .T. ) ;
#174 = DIRECTION ( 'NONE',  ( -0.2588190451025216832, 3.169619151431776035E-17, 0.9659258262890679791 ) ) ;
#175 = EDGE_CURVE ( 'NONE', #73, #244, #40, .T. ) ;
#176 = DIRECTION ( 'NONE',  ( 0.0000000000000000000, 0.0000000000000000000, -1.000000000000000000 ) ) ;
#177 = VERTEX_POINT ( 'NONE', #167 ) ;
#178 = PRODUCT_RELATED_PRODUCT_CATEGORY ( 'part', '', ( #212 ) ) ;
#179 = AXIS2_PLACEMENT_3D ( 'NONE', #161, #39, #22 ) ;
#180 = EDGE_LOOP ( 'NONE', ( #30, #239 ) ) ;
#181 = UNCERTAINTY_MEASURE_WITH_UNIT (LENGTH_MEASURE( 1.000000000000000082E-05 ), #98, 'distance_accuracy_value', 'NONE');
#182 = ORIENTED_EDGE ( 'NONE', *, *, #173, .T. ) ;
#183 = ORIENTED_EDGE ( 'NONE', *, *, #247, .T. ) ;
#184 = EDGE_CURVE ( 'NONE', #57, #95, #118, .T. ) ;
#185 = ORIENTED_EDGE ( 'NONE', *, *, #194, .T. ) ;
#186 = DIRECTION ( 'NONE',  ( 0.0000000000000000000, 0.0000000000000000000, 1.000000000000000000 ) ) ;
#187 = DIRECTION ( 'NONE',  ( 0.0000000000000000000, 0.0000000000000000000, 1.000000000000000000 ) ) ;
#188 = CARTESIAN_POINT ( 'NONE',  ( 0.0000000000000000000, 0.0000000000000000000, 2.500000000000000000 ) ) ;
#189 = CARTESIAN_POINT ( 'NONE',  ( -0.1250000000000000000, 0.0000000000000000000, 2.500000000000000000 ) ) ;
#190 = DIRECTION ( 'NONE',  ( -1.000000000000000000, 0.0000000000000000000, 0.0000000000000000000 ) ) ;
#191 = ADVANCED_FACE ( 'NONE', ( #248 ), #42, .T. ) ;
#192 = PRESENTATION_STYLE_ASSIGNMENT (( #46 ) ) ;
#193 = MECHANICAL_DESIGN_GEOMETRIC_PRESENTATION_REPRESENTATION (  '', ( #29 ), #155 ) ;
#194 = EDGE_CURVE ( 'NONE', #244, #57, #67, .T. ) ;
#195 = CARTESIAN_POINT ( 'NONE',  ( 0.0000000000000000000, 0.0000000000000000000, 2.500000000000000000 ) ) ;
#196 = ORIENTED_EDGE ( 'NONE', *, *, #175, .F. ) ;
#197 = DIRECTION ( 'NONE',  ( 1.000000000000000000, 0.0000000000000000000, 0.0000000000000000000 ) ) ;
#198 = SURFACE_STYLE_FILL_AREA ( #126 ) ;
#199 = CARTESIAN_POINT ( 'NONE',  ( 0.0000000000000000000, 0.0000000000000000000, 0.0000000000000000000 ) ) ;
#200 = VECTOR ( 'NONE', #174, 39.37007874015748143 ) ;
#201 = ORIENTED_EDGE ( 'NONE', *, *, #219, .F. ) ;
#202 = DIRECTION ( 'NONE',  ( -0.0000000000000000000, -0.0000000000000000000, -1.000000000000000000 ) ) ;
#203 = ORIENTED_EDGE ( 'NONE', *, *, #194, .F. ) ;
#204 = AXIS2_PLACEMENT_3D ( 'NONE', #246, #231, #206 ) ;
#205 = LENGTH_MEASURE_WITH_UNIT ( LENGTH_MEASURE( 0.02539999999999999897 ), #111 );
#206 = DIRECTION ( 'NONE',  ( 1.000000000000000000, 0.0000000000000000000, 0.0000000000000000000 ) ) ;
#207 = DIRECTION ( 'NONE',  ( 0.2588190451025216832, 0.0000000000000000000, 0.9659258262890679791 ) ) ;
#208 = CIRCLE ( 'NONE', #20, 0.1250000000000000000 ) ;
#209 = CARTESIAN_POINT ( 'NONE',  ( -0.01000000000000000021, -1.224646799147353384E-18, 2.500000000000000000 ) ) ;
#210 = AXIS2_PLACEMENT_3D ( 'NONE', #31, #10, #197 ) ;
#211 = CARTESIAN_POINT ( 'NONE',  ( 0.0000000000000000000, 0.0000000000000000000, 2.500000000000000000 ) ) ;
#212 = PRODUCT ( 'Micro_RTC-250-220', 'Micro_RTC-250-220', '', ( #15 ) ) ;
#213 = FACE_OUTER_BOUND ( 'NONE', #97, .T. ) ;
#214 = VECTOR ( 'NONE', #207, 39.37007874015748143 ) ;
#215 =( NAMED_UNIT ( * ) PLANE_ANGLE_UNIT ( ) SI_UNIT ( $, .RADIAN. ) );
#216 = SURFACE_STYLE_FILL_AREA ( #5 ) ;
#217 = SURFACE_SIDE_STYLE ('',( #216 ) ) ;
#218 = CONICAL_SURFACE ( 'NONE', #169, 0.01000000000000000021, 0.2617993877991502960 ) ;
#219 = EDGE_CURVE ( 'NONE', #73, #145, #159, .T. ) ;
#220 = CARTESIAN_POINT ( 'NONE',  ( 0.01000000000000000021, 0.0000000000000000000, 2.500000000000000000 ) ) ;
#221 = EDGE_LOOP ( 'NONE', ( #32, #242, #245, #166 ) ) ;
#222 = ORIENTED_EDGE ( 'NONE', *, *, #66, .F. ) ;
#223 = VECTOR ( 'NONE', #134, 39.37007874015748143 ) ;
#224 = CARTESIAN_POINT ( 'NONE',  ( -0.1250000000000000000, 0.0000000000000000000, 2.070814157129580835 ) ) ;
#225 = UNCERTAINTY_MEASURE_WITH_UNIT (LENGTH_MEASURE( 1.000000000000000082E-05 ), #86, 'distance_accuracy_value', 'NONE');
#226 = ORIENTED_EDGE ( 'NONE', *, *, #151, .F. ) ;
#227 = ORIENTED_EDGE ( 'NONE', *, *, #175, .T. ) ;
#228 = DIRECTION ( 'NONE',  ( -0.2588190451025216832, -3.169619151431776035E-17, -0.9659258262890679791 ) ) ;
#229 = EDGE_CURVE ( 'NONE', #133, #96, #119, .T. ) ;
#230 = DIRECTION ( 'NONE',  ( 0.0000000000000000000, 0.0000000000000000000, -1.000000000000000000 ) ) ;
#231 = DIRECTION ( 'NONE',  ( 0.0000000000000000000, 0.0000000000000000000, 1.000000000000000000 ) ) ;
#232 = CARTESIAN_POINT ( 'NONE',  ( -0.01000000000000000021, -8.266365894244632793E-18, 2.500000000000000000 ) ) ;
#233 = ADVANCED_FACE ( 'NONE', ( #125 ), #7, .T. ) ;
#234 = CARTESIAN_POINT ( 'NONE',  ( -0.1250000000000000000, 0.0000000000000000000, 0.4291858428704192763 ) ) ;
#235 = AXIS2_PLACEMENT_3D ( 'NONE', #23, #103, #43 ) ;
#236 =( LENGTH_UNIT ( ) NAMED_UNIT ( * ) SI_UNIT ( $, .METRE. ) );
#237 = AXIS2_PLACEMENT_3D ( 'NONE', #140, #81, #82 ) ;
#238 = ADVANCED_FACE ( 'NONE', ( #213 ), #59, .T. ) ;
#239 = ORIENTED_EDGE ( 'NONE', *, *, #229, .T. ) ;
#240 = LINE ( 'NONE', #92, #58 ) ;
#241 = SURFACE_STYLE_USAGE ( .BOTH. , #127 ) ;
#242 = ORIENTED_EDGE ( 'NONE', *, *, #66, .T. ) ;
#243 = CIRCLE ( 'NONE', #123, 0.01000000000000000021 ) ;
#244 = VERTEX_POINT ( 'NONE', #106 ) ;
#245 = ORIENTED_EDGE ( 'NONE', *, *, #83, .F. ) ;
#246 = CARTESIAN_POINT ( 'NONE',  ( 0.0000000000000000000, 0.0000000000000000000, 0.0000000000000000000 ) ) ;
#247 = EDGE_CURVE ( 'NONE', #133, #95, #44, .T. ) ;
#248 = FACE_OUTER_BOUND ( 'NONE', #129, .T. ) ;
#249 = STYLED_ITEM ( 'NONE', ( #192 ), #49 ) ;
ENDSEC;
END-ISO-10303-21;
