ISO-10303-21;
HEADER;
FILE_DESCRIPTION (( 'STEP AP214' ),
    '1' );
FILE_NAME ('Micro_SHR-375-4.STEP',
    '2021-09-02T08:48:09',
    ( '' ),
    ( '' ),
    'SwSTEP 2.0',
    'SolidWorks 2020',
    '' );
FILE_SCHEMA (( 'AUTOMOTIVE_DESIGN' ));
ENDSEC;

DATA;
#1 = EDGE_LOOP ( 'NONE', ( #84, #25, #131, #258 ) ) ;
#2 = FILL_AREA_STYLE_COLOUR ( '', #96 ) ;
#3 = ORIENTED_EDGE ( 'NONE', *, *, #240, .F. ) ;
#4 = AXIS2_PLACEMENT_3D ( 'NONE', #203, #37, #196 ) ;
#5 = ORIENTED_EDGE ( 'NONE', *, *, #102, .T. ) ;
#6 = EDGE_LOOP ( 'NONE', ( #281, #24, #204, #185 ) ) ;
#7 = CARTESIAN_POINT ( 'NONE',  ( 0.1873124999999999929, 2.293916535652885596E-17, 0.0000000000000000000 ) ) ;
#8 = AXIS2_PLACEMENT_3D ( 'NONE', #59, #245, #221 ) ;
#9 = CYLINDRICAL_SURFACE ( 'NONE', #278, 0.1875000000000000278 ) ;
#10 = DIRECTION ( 'NONE',  ( -1.224646799147353207E-16, -0.0000000000000000000, -1.000000000000000000 ) ) ;
#11 = CYLINDRICAL_SURFACE ( 'NONE', #56, 0.1873124999999999929 ) ;
#12 = EDGE_CURVE ( 'NONE', #212, #69, #16, .T. ) ;
#13 = CIRCLE ( 'NONE', #126, 0.1873124999999999929 ) ;
#14 =( GEOMETRIC_REPRESENTATION_CONTEXT ( 3 ) GLOBAL_UNCERTAINTY_ASSIGNED_CONTEXT ( ( #26 ) ) GLOBAL_UNIT_ASSIGNED_CONTEXT ( ( #133, #183, #227 ) ) REPRESENTATION_CONTEXT ( 'NONE', 'WORKASPACE' ) );
#15 = LINE ( 'NONE', #144, #262 ) ;
#16 = CIRCLE ( 'NONE', #86, 0.1875000000000000278 ) ;
#17 = CARTESIAN_POINT ( 'NONE',  ( 0.0000000000000000000, 0.0000000000000000000, 2.500000000000000000 ) ) ;
#18 = CARTESIAN_POINT ( 'NONE',  ( -0.1724999999999995981, 0.0000000000000000000, 2.500000000000000000 ) ) ;
#19 = CARTESIAN_POINT ( 'NONE',  ( 1.071565949253934025E-16, 0.0000000000000000000, 0.8750000000000000000 ) ) ;
#20 = ORIENTED_EDGE ( 'NONE', *, *, #38, .F. ) ;
#21 = CIRCLE ( 'NONE', #242, 0.1875000000000000278 ) ;
#22 = FACE_OUTER_BOUND ( 'NONE', #228, .T. ) ;
#23 = PRODUCT_CONTEXT ( 'NONE', #105, 'mechanical' ) ;
#24 = ORIENTED_EDGE ( 'NONE', *, *, #75, .T. ) ;
#25 = ORIENTED_EDGE ( 'NONE', *, *, #233, .T. ) ;
#26 = UNCERTAINTY_MEASURE_WITH_UNIT (LENGTH_MEASURE( 1.000000000000000082E-05 ), #133, 'distance_accuracy_value', 'NONE');
#27 = ORIENTED_EDGE ( 'NONE', *, *, #171, .F. ) ;
#28 = CONICAL_SURFACE ( 'NONE', #192, 0.1873125000000000207, 0.1745329251994338915 ) ;
#29 = ORIENTED_EDGE ( 'NONE', *, *, #143, .F. ) ;
#30 = ADVANCED_FACE ( 'NONE', ( #22 ), #104, .T. ) ;
#31 = FACE_OUTER_BOUND ( 'NONE', #155, .T. ) ;
#32 = DIRECTION ( 'NONE',  ( -1.000000000000000000, 0.0000000000000000000, 0.0000000000000000000 ) ) ;
#33 = DIRECTION ( 'NONE',  ( -1.224646799147353207E-16, -0.0000000000000000000, -1.000000000000000000 ) ) ;
#34 = CARTESIAN_POINT ( 'NONE',  ( -0.1873124999999999929, 0.0000000000000000000, 2.293916535652885596E-17 ) ) ;
#35 = FACE_OUTER_BOUND ( 'NONE', #6, .T. ) ;
#36 = AXIS2_PLACEMENT_3D ( 'NONE', #103, #61, #246 ) ;
#37 = DIRECTION ( 'NONE',  ( 0.0000000000000000000, 0.0000000000000000000, 1.000000000000000000 ) ) ;
#38 = EDGE_CURVE ( 'NONE', #160, #212, #277, .T. ) ;
#39 = PLANE ( 'NONE',  #140 ) ;
#40 = EDGE_CURVE ( 'NONE', #254, #136, #241, .T. ) ;
#41 = PRODUCT_DEFINITION_FORMATION_WITH_SPECIFIED_SOURCE ( 'ANY', '', #145, .NOT_KNOWN. ) ;
#42 = DIRECTION ( 'NONE',  ( -0.0000000000000000000, -0.0000000000000000000, -1.000000000000000000 ) ) ;
#43 = CLOSED_SHELL ( 'NONE', ( #30, #187, #236, #177, #138, #295, #274, #244, #88, #216 ) ) ;
#44 = DIRECTION ( 'NONE',  ( 0.1736481776669313859, 0.0000000000000000000, 0.9848077530122077983 ) ) ;
#45 = ORIENTED_EDGE ( 'NONE', *, *, #202, .F. ) ;
#46 = DIRECTION ( 'NONE',  ( 1.000000000000000000, 0.0000000000000000000, 0.0000000000000000000 ) ) ;
#47 = AXIS2_PLACEMENT_3D ( 'NONE', #17, #128, #176 ) ;
#48 = ORIENTED_EDGE ( 'NONE', *, *, #68, .F. ) ;
#49 = DIRECTION ( 'NONE',  ( 0.0000000000000000000, 0.0000000000000000000, 1.000000000000000000 ) ) ;
#50 = ORIENTED_EDGE ( 'NONE', *, *, #158, .F. ) ;
#51 = ORIENTED_EDGE ( 'NONE', *, *, #197, .T. ) ;
#52 = STYLED_ITEM ( 'NONE', ( #95 ), #94 ) ;
#53 = CARTESIAN_POINT ( 'NONE',  ( 0.1875000000000000278, 2.296212748401287726E-17, 2.484999999999999432 ) ) ;
#54 = LENGTH_MEASURE_WITH_UNIT ( LENGTH_MEASURE( 0.02539999999999999897 ), #120 );
#55 = CARTESIAN_POINT ( 'NONE',  ( -0.1873124999999999096, 2.295064642027087123E-17, 0.8750000000000000000 ) ) ;
#56 = AXIS2_PLACEMENT_3D ( 'NONE', #97, #72, #260 ) ;
#57 = DIRECTION ( 'NONE',  ( -1.000000000000000000, 0.0000000000000000000, 0.0000000000000000000 ) ) ;
#58 = CIRCLE ( 'NONE', #214, 0.1875000000000000278 ) ;
#59 = CARTESIAN_POINT ( 'NONE',  ( 0.0000000000000000000, 0.0000000000000000000, 2.500000000000000000 ) ) ;
#60 = EDGE_CURVE ( 'NONE', #160, #254, #147, .T. ) ;
#61 = DIRECTION ( 'NONE',  ( -1.224646799147353207E-16, -0.0000000000000000000, -1.000000000000000000 ) ) ;
#62 = LINE ( 'NONE', #125, #92 ) ;
#63 = DIRECTION ( 'NONE',  ( 1.000000000000000000, 0.0000000000000000000, -0.0000000000000000000 ) ) ;
#64 = ORIENTED_EDGE ( 'NONE', *, *, #286, .T. ) ;
#65 = CIRCLE ( 'NONE', #273, 0.1873125000000000207 ) ;
#66 = SURFACE_STYLE_USAGE ( .BOTH. , #108 ) ;
#67 = ORIENTED_EDGE ( 'NONE', *, *, #40, .T. ) ;
#68 = EDGE_CURVE ( 'NONE', #113, #90, #15, .T. ) ;
#69 = VERTEX_POINT ( 'NONE', #217 ) ;
#70 = ORIENTED_EDGE ( 'NONE', *, *, #68, .T. ) ;
#71 = AXIS2_PLACEMENT_3D ( 'NONE', #170, #10, #114 ) ;
#72 = DIRECTION ( 'NONE',  ( -1.224646799147353207E-16, -0.0000000000000000000, -1.000000000000000000 ) ) ;
#73 = DIRECTION ( 'NONE',  ( 1.000000000000000000, 0.0000000000000000000, 0.0000000000000000000 ) ) ;
#74 = PRODUCT_DEFINITION_SHAPE ( 'NONE', 'NONE',  #179 ) ;
#75 = EDGE_CURVE ( 'NONE', #254, #160, #65, .T. ) ;
#76 = AXIS2_PLACEMENT_3D ( 'NONE', #124, #224, #57 ) ;
#77 = CARTESIAN_POINT ( 'NONE',  ( 0.0000000000000000000, 0.0000000000000000000, 2.484999999999999432 ) ) ;
#78 = DIRECTION ( 'NONE',  ( 0.0000000000000000000, 0.0000000000000000000, -1.000000000000000000 ) ) ;
#79 = CARTESIAN_POINT ( 'NONE',  ( 1.071565949253934025E-16, 0.0000000000000000000, 0.8750000000000000000 ) ) ;
#80 = CYLINDRICAL_SURFACE ( 'NONE', #174, 0.1875000000000000278 ) ;
#81 = CARTESIAN_POINT ( 'NONE',  ( 0.0000000000000000000, 0.0000000000000000000, 2.500000000000000000 ) ) ;
#82 = VECTOR ( 'NONE', #219, 39.37007874015748143 ) ;
#83 = CARTESIAN_POINT ( 'NONE',  ( 0.0000000000000000000, 0.0000000000000000000, 0.0000000000000000000 ) ) ;
#84 = ORIENTED_EDGE ( 'NONE', *, *, #171, .T. ) ;
#85 = DIRECTION ( 'NONE',  ( -1.000000000000000000, 0.0000000000000000000, 1.224646799147352961E-16 ) ) ;
#86 = AXIS2_PLACEMENT_3D ( 'NONE', #106, #207, #259 ) ;
#87 = ORIENTED_EDGE ( 'NONE', *, *, #202, .T. ) ;
#88 = ADVANCED_FACE ( 'NONE', ( #35 ), #11, .T. ) ;
#89 =( CONVERSION_BASED_UNIT ( 'INCH', #234 ) LENGTH_UNIT ( ) NAMED_UNIT ( #169 ) );
#90 = VERTEX_POINT ( 'NONE', #53 ) ;
#91 = DIRECTION ( 'NONE',  ( -0.0000000000000000000, -0.0000000000000000000, -1.000000000000000000 ) ) ;
#92 = VECTOR ( 'NONE', #44, 39.37007874015748143 ) ;
#93 = DIRECTION ( 'NONE',  ( -1.000000000000000000, 0.0000000000000000000, 0.0000000000000000000 ) ) ;
#94 = MANIFOLD_SOLID_BREP ( 'Cut-Revolve1', #43 ) ;
#95 = PRESENTATION_STYLE_ASSIGNMENT (( #266 ) ) ;
#96 = COLOUR_RGB ( '',0.7921568627450980005, 0.8196078431372548767, 0.9333333333333333481 ) ;
#97 = CARTESIAN_POINT ( 'NONE',  ( 0.0000000000000000000, 0.0000000000000000000, 0.0000000000000000000 ) ) ;
#98 = DIRECTION ( 'NONE',  ( 1.224646799147353207E-16, 0.0000000000000000000, 1.000000000000000000 ) ) ;
#99 = DIRECTION ( 'NONE',  ( -0.0000000000000000000, -0.0000000000000000000, -1.000000000000000000 ) ) ;
#100 = CARTESIAN_POINT ( 'NONE',  ( 0.1873125000000001317, 0.0000000000000000000, 0.8750000000000000000 ) ) ;
#101 = DIRECTION ( 'NONE',  ( -1.000000000000000000, 0.0000000000000000000, 0.0000000000000000000 ) ) ;
#102 = EDGE_CURVE ( 'NONE', #211, #136, #13, .T. ) ;
#103 = CARTESIAN_POINT ( 'NONE',  ( 2.809237542898491532E-33, 0.0000000000000000000, 2.293916535652885596E-17 ) ) ;
#104 = CYLINDRICAL_SURFACE ( 'NONE', #237, 0.1873124999999999929 ) ;
#105 = APPLICATION_CONTEXT ( 'automotive_design' ) ;
#106 = CARTESIAN_POINT ( 'NONE',  ( 1.072868196215332272E-16, 0.0000000000000000000, 0.8760633653411783461 ) ) ;
#107 = UNCERTAINTY_MEASURE_WITH_UNIT (LENGTH_MEASURE( 1.000000000000000082E-05 ), #89, 'distance_accuracy_value', 'NONE');
#108 = SURFACE_SIDE_STYLE ('',( #276 ) ) ;
#109 = ORIENTED_EDGE ( 'NONE', *, *, #253, .F. ) ;
#110 = VECTOR ( 'NONE', #285, 39.37007874015748143 ) ;
#111 =( NAMED_UNIT ( * ) SI_UNIT ( $, .STERADIAN. ) SOLID_ANGLE_UNIT ( ) );
#112 = ORIENTED_EDGE ( 'NONE', *, *, #38, .T. ) ;
#113 = VERTEX_POINT ( 'NONE', #142 ) ;
#114 = DIRECTION ( 'NONE',  ( -1.000000000000000000, 0.0000000000000000000, 0.0000000000000000000 ) ) ;
#115 = SURFACE_STYLE_FILL_AREA ( #117 ) ;
#116 = CIRCLE ( 'NONE', #182, 0.1875000000000000278 ) ;
#117 = FILL_AREA_STYLE ('',( #195 ) ) ;
#118 = EDGE_CURVE ( 'NONE', #256, #212, #165, .T. ) ;
#119 = DIRECTION ( 'NONE',  ( 0.7071067811865385799, 8.659560562354823157E-17, -0.7071067811865563435 ) ) ;
#120 =( LENGTH_UNIT ( ) NAMED_UNIT ( * ) SI_UNIT ( $, .METRE. ) );
#121 = AXIS2_PLACEMENT_3D ( 'NONE', #79, #98, #272 ) ;
#122 = APPLICATION_CONTEXT ( 'automotive_design' ) ;
#123 = CARTESIAN_POINT ( 'NONE',  ( 0.0000000000000000000, 0.0000000000000000000, 0.0000000000000000000 ) ) ;
#124 = CARTESIAN_POINT ( 'NONE',  ( 0.0000000000000000000, 0.0000000000000000000, 2.500000000000000000 ) ) ;
#125 = CARTESIAN_POINT ( 'NONE',  ( 0.1873125000000001317, 0.0000000000000000000, 0.8750000000000000000 ) ) ;
#126 = AXIS2_PLACEMENT_3D ( 'NONE', #213, #168, #264 ) ;
#127 = FACE_OUTER_BOUND ( 'NONE', #1, .T. ) ;
#128 = DIRECTION ( 'NONE',  ( 0.0000000000000000000, 0.0000000000000000000, 1.000000000000000000 ) ) ;
#129 = ORIENTED_EDGE ( 'NONE', *, *, #286, .F. ) ;
#130 = ADVANCED_BREP_SHAPE_REPRESENTATION ( 'Micro_SHR-375-4', ( #94, #263 ), #255 ) ;
#131 = ORIENTED_EDGE ( 'NONE', *, *, #12, .F. ) ;
#132 = CONICAL_SURFACE ( 'NONE', #199, 0.1724999999999995981, 0.7853981633974357335 ) ;
#133 =( CONVERSION_BASED_UNIT ( 'INCH', #299 ) LENGTH_UNIT ( ) NAMED_UNIT ( #265 ) );
#134 = ORIENTED_EDGE ( 'NONE', *, *, #253, .T. ) ;
#135 = COLOUR_RGB ( '',0.7921568627450980005, 0.8196078431372548767, 0.9333333333333333481 ) ;
#136 = VERTEX_POINT ( 'NONE', #7 ) ;
#137 =( NAMED_UNIT ( * ) PLANE_ANGLE_UNIT ( ) SI_UNIT ( $, .RADIAN. ) );
#138 = ADVANCED_FACE ( 'NONE', ( #31 ), #9, .T. ) ;
#139 = PRODUCT_DEFINITION_CONTEXT ( 'detailed design', #122, 'design' ) ;
#140 = AXIS2_PLACEMENT_3D ( 'NONE', #123, #198, #63 ) ;
#141 = CARTESIAN_POINT ( 'NONE',  ( 0.1873124999999999929, 2.293916535652885596E-17, -2.293916535652885596E-17 ) ) ;
#142 = CARTESIAN_POINT ( 'NONE',  ( 0.1724999999999995981, 2.204364238465233357E-17, 2.500000000000000000 ) ) ;
#143 = EDGE_CURVE ( 'NONE', #69, #212, #58, .T. ) ;
#144 = CARTESIAN_POINT ( 'NONE',  ( 0.1724999999999995981, 2.112515728529179297E-17, 2.500000000000000000 ) ) ;
#145 = PRODUCT ( 'Micro_SHR-375-4', 'Micro_SHR-375-4', '', ( #23 ) ) ;
#146 = DIRECTION ( 'NONE',  ( 0.0000000000000000000, 0.0000000000000000000, -1.000000000000000000 ) ) ;
#147 = CIRCLE ( 'NONE', #71, 0.1873125000000000207 ) ;
#148 = DIRECTION ( 'NONE',  ( -0.7071067811865385799, 0.0000000000000000000, -0.7071067811865563435 ) ) ;
#149 = DIRECTION ( 'NONE',  ( -1.000000000000000000, 0.0000000000000000000, 0.0000000000000000000 ) ) ;
#150 = CARTESIAN_POINT ( 'NONE',  ( 0.0000000000000000000, 0.0000000000000000000, 2.484999999999999432 ) ) ;
#151 = ORIENTED_EDGE ( 'NONE', *, *, #60, .T. ) ;
#152 = FACE_OUTER_BOUND ( 'NONE', #154, .T. ) ;
#153 = EDGE_LOOP ( 'NONE', ( #45, #70, #27, #109 ) ) ;
#154 = EDGE_LOOP ( 'NONE', ( #20, #230, #249, #271 ) ) ;
#155 = EDGE_LOOP ( 'NONE', ( #235, #232, #161, #29 ) ) ;
#156 = PRESENTATION_LAYER_ASSIGNMENT (  '', '', ( #291 ) ) ;
#157 = APPLICATION_PROTOCOL_DEFINITION ( 'draft international standard', 'automotive_design', 1998, #105 ) ;
#158 = EDGE_CURVE ( 'NONE', #160, #211, #167, .T. ) ;
#159 =( NAMED_UNIT ( * ) PLANE_ANGLE_UNIT ( ) SI_UNIT ( $, .RADIAN. ) );
#160 = VERTEX_POINT ( 'NONE', #55 ) ;
#161 = ORIENTED_EDGE ( 'NONE', *, *, #118, .T. ) ;
#162 = VECTOR ( 'NONE', #283, 39.37007874015747433 ) ;
#163 = CIRCLE ( 'NONE', #36, 0.1873124999999999929 ) ;
#164 = EDGE_LOOP ( 'NONE', ( #64, #87 ) ) ;
#165 = LINE ( 'NONE', #193, #82 ) ;
#166 = DIMENSIONAL_EXPONENTS ( 1.000000000000000000, 0.0000000000000000000, 0.0000000000000000000, 0.0000000000000000000, 0.0000000000000000000, 0.0000000000000000000, 0.0000000000000000000 ) ;
#167 = LINE ( 'NONE', #34, #223 ) ;
#168 = DIRECTION ( 'NONE',  ( -1.224646799147353207E-16, -0.0000000000000000000, -1.000000000000000000 ) ) ;
#169 = DIMENSIONAL_EXPONENTS ( 1.000000000000000000, 0.0000000000000000000, 0.0000000000000000000, 0.0000000000000000000, 0.0000000000000000000, 0.0000000000000000000, 0.0000000000000000000 ) ;
#170 = CARTESIAN_POINT ( 'NONE',  ( 1.071565949253934025E-16, 0.0000000000000000000, 0.8750000000000000000 ) ) ;
#171 = EDGE_CURVE ( 'NONE', #256, #90, #116, .T. ) ;
#172 = FACE_OUTER_BOUND ( 'NONE', #279, .T. ) ;
#173 = DIRECTION ( 'NONE',  ( 1.000000000000000000, 0.0000000000000000000, 0.0000000000000000000 ) ) ;
#174 = AXIS2_PLACEMENT_3D ( 'NONE', #81, #99, #149 ) ;
#175 = LINE ( 'NONE', #18, #268 ) ;
#176 = DIRECTION ( 'NONE',  ( 1.000000000000000000, 0.0000000000000000000, -0.0000000000000000000 ) ) ;
#177 = ADVANCED_FACE ( 'NONE', ( #127 ), #80, .T. ) ;
#178 = FACE_OUTER_BOUND ( 'NONE', #280, .T. ) ;
#179 = PRODUCT_DEFINITION ( 'UNKNOWN', '', #41, #139 ) ;
#180 = CARTESIAN_POINT ( 'NONE',  ( 0.0000000000000000000, 0.0000000000000000000, 0.0000000000000000000 ) ) ;
#181 = ORIENTED_EDGE ( 'NONE', *, *, #250, .F. ) ;
#182 = AXIS2_PLACEMENT_3D ( 'NONE', #77, #146, #296 ) ;
#183 =( NAMED_UNIT ( * ) PLANE_ANGLE_UNIT ( ) SI_UNIT ( $, .RADIAN. ) );
#184 = ORIENTED_EDGE ( 'NONE', *, *, #60, .F. ) ;
#185 = ORIENTED_EDGE ( 'NONE', *, *, #197, .F. ) ;
#186 = EDGE_LOOP ( 'NONE', ( #48, #129, #134, #3 ) ) ;
#187 = ADVANCED_FACE ( 'NONE', ( #178 ), #229, .T. ) ;
#188 =( GEOMETRIC_REPRESENTATION_CONTEXT ( 3 ) GLOBAL_UNCERTAINTY_ASSIGNED_CONTEXT ( ( #257 ) ) GLOBAL_UNIT_ASSIGNED_CONTEXT ( ( #289, #137, #215 ) ) REPRESENTATION_CONTEXT ( 'NONE', 'WORKASPACE' ) );
#189 = CARTESIAN_POINT ( 'NONE',  ( -0.1873124999999999096, 2.293916535652885904E-17, 0.8750000000000000000 ) ) ;
#190 = CARTESIAN_POINT ( 'NONE',  ( 1.072868196215332272E-16, 0.0000000000000000000, 0.8760633653411783461 ) ) ;
#191 = SURFACE_SIDE_STYLE ('',( #115 ) ) ;
#192 = AXIS2_PLACEMENT_3D ( 'NONE', #19, #251, #173 ) ;
#193 = CARTESIAN_POINT ( 'NONE',  ( -0.1875000000000000278, 0.0000000000000000000, 2.500000000000000000 ) ) ;
#194 = PRODUCT_RELATED_PRODUCT_CATEGORY ( 'part', '', ( #145 ) ) ;
#195 = FILL_AREA_STYLE_COLOUR ( '', #135 ) ;
#196 = DIRECTION ( 'NONE',  ( 1.000000000000000000, 0.0000000000000000000, 0.0000000000000000000 ) ) ;
#197 = EDGE_CURVE ( 'NONE', #136, #211, #163, .T. ) ;
#198 = DIRECTION ( 'NONE',  ( 0.0000000000000000000, 0.0000000000000000000, 1.000000000000000000 ) ) ;
#199 = AXIS2_PLACEMENT_3D ( 'NONE', #294, #247, #101 ) ;
#200 = PLANE ( 'NONE',  #47 ) ;
#201 = CARTESIAN_POINT ( 'NONE',  ( 0.1875000000000000278, 2.296212748401287726E-17, 2.500000000000000000 ) ) ;
#202 = EDGE_CURVE ( 'NONE', #113, #298, #287, .T. ) ;
#203 = CARTESIAN_POINT ( 'NONE',  ( 0.0000000000000000000, 0.0000000000000000000, 2.500000000000000000 ) ) ;
#204 = ORIENTED_EDGE ( 'NONE', *, *, #158, .T. ) ;
#205 = VECTOR ( 'NONE', #42, 39.37007874015748143 ) ;
#206 = SHAPE_DEFINITION_REPRESENTATION ( #74, #130 ) ;
#207 = DIRECTION ( 'NONE',  ( -1.224646799147353207E-16, -0.0000000000000000000, -1.000000000000000000 ) ) ;
#208 = FILL_AREA_STYLE ('',( #2 ) ) ;
#209 = ORIENTED_EDGE ( 'NONE', *, *, #102, .F. ) ;
#210 = PRESENTATION_STYLE_ASSIGNMENT (( #66 ) ) ;
#211 = VERTEX_POINT ( 'NONE', #290 ) ;
#212 = VERTEX_POINT ( 'NONE', #270 ) ;
#213 = CARTESIAN_POINT ( 'NONE',  ( 2.809237542898491532E-33, 0.0000000000000000000, 2.293916535652885596E-17 ) ) ;
#214 = AXIS2_PLACEMENT_3D ( 'NONE', #190, #284, #73 ) ;
#215 =( NAMED_UNIT ( * ) SI_UNIT ( $, .STERADIAN. ) SOLID_ANGLE_UNIT ( ) );
#216 = ADVANCED_FACE ( 'NONE', ( #172 ), #39, .F. ) ;
#217 = CARTESIAN_POINT ( 'NONE',  ( 0.1875000000000000833, 2.296212748401288650E-17, 0.8760633653411783461 ) ) ;
#218 = MECHANICAL_DESIGN_GEOMETRIC_PRESENTATION_REPRESENTATION (  '', ( #52 ), #188 ) ;
#219 = DIRECTION ( 'NONE',  ( -0.0000000000000000000, -0.0000000000000000000, -1.000000000000000000 ) ) ;
#220 = FACE_OUTER_BOUND ( 'NONE', #164, .T. ) ;
#221 = DIRECTION ( 'NONE',  ( 1.000000000000000000, 0.0000000000000000000, 0.0000000000000000000 ) ) ;
#222 = DIRECTION ( 'NONE',  ( 1.000000000000000000, 0.0000000000000000000, 0.0000000000000000000 ) ) ;
#223 = VECTOR ( 'NONE', #261, 39.37007874015748143 ) ;
#224 = DIRECTION ( 'NONE',  ( 0.0000000000000000000, 0.0000000000000000000, -1.000000000000000000 ) ) ;
#225 =( LENGTH_UNIT ( ) NAMED_UNIT ( * ) SI_UNIT ( $, .METRE. ) );
#226 = ORIENTED_EDGE ( 'NONE', *, *, #12, .T. ) ;
#227 =( NAMED_UNIT ( * ) SI_UNIT ( $, .STERADIAN. ) SOLID_ANGLE_UNIT ( ) );
#228 = EDGE_LOOP ( 'NONE', ( #151, #67, #209, #50 ) ) ;
#229 = CONICAL_SURFACE ( 'NONE', #121, 0.1873125000000000207, 0.1745329251994338915 ) ;
#230 = ORIENTED_EDGE ( 'NONE', *, *, #75, .F. ) ;
#231 = APPLICATION_PROTOCOL_DEFINITION ( 'draft international standard', 'automotive_design', 1998, #122 ) ;
#232 = ORIENTED_EDGE ( 'NONE', *, *, #240, .T. ) ;
#233 = EDGE_CURVE ( 'NONE', #90, #69, #292, .T. ) ;
#234 = LENGTH_MEASURE_WITH_UNIT ( LENGTH_MEASURE( 0.02539999999999999897 ), #225 );
#235 = ORIENTED_EDGE ( 'NONE', *, *, #233, .F. ) ;
#236 = ADVANCED_FACE ( 'NONE', ( #267 ), #248, .T. ) ;
#237 = AXIS2_PLACEMENT_3D ( 'NONE', #180, #275, #85 ) ;
#238 = MECHANICAL_DESIGN_GEOMETRIC_PRESENTATION_REPRESENTATION (  '', ( #291 ), #14 ) ;
#239 = CARTESIAN_POINT ( 'NONE',  ( 1.071565949253934025E-16, 0.0000000000000000000, 0.8750000000000000000 ) ) ;
#240 = EDGE_CURVE ( 'NONE', #90, #256, #21, .T. ) ;
#241 = LINE ( 'NONE', #141, #110 ) ;
#242 = AXIS2_PLACEMENT_3D ( 'NONE', #150, #78, #222 ) ;
#243 = CARTESIAN_POINT ( 'NONE',  ( -0.1875000000000000278, 0.0000000000000000000, 2.484999999999999432 ) ) ;
#244 = ADVANCED_FACE ( 'NONE', ( #152 ), #28, .T. ) ;
#245 = DIRECTION ( 'NONE',  ( 0.0000000000000000000, 0.0000000000000000000, 1.000000000000000000 ) ) ;
#246 = DIRECTION ( 'NONE',  ( -1.000000000000000000, 0.0000000000000000000, 1.224646799147352961E-16 ) ) ;
#247 = DIRECTION ( 'NONE',  ( 0.0000000000000000000, 0.0000000000000000000, -1.000000000000000000 ) ) ;
#248 = CONICAL_SURFACE ( 'NONE', #76, 0.1724999999999995981, 0.7853981633974357335 ) ;
#249 = ORIENTED_EDGE ( 'NONE', *, *, #250, .T. ) ;
#250 = EDGE_CURVE ( 'NONE', #254, #69, #62, .T. ) ;
#251 = DIRECTION ( 'NONE',  ( 1.224646799147353207E-16, 0.0000000000000000000, 1.000000000000000000 ) ) ;
#252 =( LENGTH_UNIT ( ) NAMED_UNIT ( * ) SI_UNIT ( $, .METRE. ) );
#253 = EDGE_CURVE ( 'NONE', #298, #256, #175, .T. ) ;
#254 = VERTEX_POINT ( 'NONE', #100 ) ;
#255 =( GEOMETRIC_REPRESENTATION_CONTEXT ( 3 ) GLOBAL_UNCERTAINTY_ASSIGNED_CONTEXT ( ( #107 ) ) GLOBAL_UNIT_ASSIGNED_CONTEXT ( ( #89, #159, #111 ) ) REPRESENTATION_CONTEXT ( 'NONE', 'WORKASPACE' ) );
#256 = VERTEX_POINT ( 'NONE', #243 ) ;
#257 = UNCERTAINTY_MEASURE_WITH_UNIT (LENGTH_MEASURE( 1.000000000000000082E-05 ), #289, 'distance_accuracy_value', 'NONE');
#258 = ORIENTED_EDGE ( 'NONE', *, *, #118, .F. ) ;
#259 = DIRECTION ( 'NONE',  ( 1.000000000000000000, 0.0000000000000000000, 0.0000000000000000000 ) ) ;
#260 = DIRECTION ( 'NONE',  ( -1.000000000000000000, 0.0000000000000000000, 1.224646799147352961E-16 ) ) ;
#261 = DIRECTION ( 'NONE',  ( -1.224646799147353207E-16, -0.0000000000000000000, -1.000000000000000000 ) ) ;
#262 = VECTOR ( 'NONE', #119, 39.37007874015748854 ) ;
#263 = AXIS2_PLACEMENT_3D ( 'NONE', #83, #49, #46 ) ;
#264 = DIRECTION ( 'NONE',  ( -1.000000000000000000, 0.0000000000000000000, 1.224646799147352961E-16 ) ) ;
#265 = DIMENSIONAL_EXPONENTS ( 1.000000000000000000, 0.0000000000000000000, 0.0000000000000000000, 0.0000000000000000000, 0.0000000000000000000, 0.0000000000000000000, 0.0000000000000000000 ) ;
#266 = SURFACE_STYLE_USAGE ( .BOTH. , #191 ) ;
#267 = FACE_OUTER_BOUND ( 'NONE', #153, .T. ) ;
#268 = VECTOR ( 'NONE', #148, 39.37007874015748854 ) ;
#269 = FACE_OUTER_BOUND ( 'NONE', #186, .T. ) ;
#270 = CARTESIAN_POINT ( 'NONE',  ( -0.1874999999999999167, 0.0000000000000000000, 0.8760633653411783461 ) ) ;
#271 = ORIENTED_EDGE ( 'NONE', *, *, #143, .T. ) ;
#272 = DIRECTION ( 'NONE',  ( 1.000000000000000000, 0.0000000000000000000, 0.0000000000000000000 ) ) ;
#273 = AXIS2_PLACEMENT_3D ( 'NONE', #239, #33, #32 ) ;
#274 = ADVANCED_FACE ( 'NONE', ( #269 ), #132, .T. ) ;
#275 = DIRECTION ( 'NONE',  ( -1.224646799147353207E-16, -0.0000000000000000000, -1.000000000000000000 ) ) ;
#276 = SURFACE_STYLE_FILL_AREA ( #208 ) ;
#277 = LINE ( 'NONE', #189, #162 ) ;
#278 = AXIS2_PLACEMENT_3D ( 'NONE', #288, #91, #93 ) ;
#279 = EDGE_LOOP ( 'NONE', ( #5, #51 ) ) ;
#280 = EDGE_LOOP ( 'NONE', ( #184, #112, #226, #181 ) ) ;
#281 = ORIENTED_EDGE ( 'NONE', *, *, #40, .F. ) ;
#282 = CIRCLE ( 'NONE', #8, 0.1724999999999995981 ) ;
#283 = DIRECTION ( 'NONE',  ( -0.1736481776669311916, 2.126576849575783316E-17, 0.9848077530122080203 ) ) ;
#284 = DIRECTION ( 'NONE',  ( -1.224646799147353207E-16, -0.0000000000000000000, -1.000000000000000000 ) ) ;
#285 = DIRECTION ( 'NONE',  ( -1.224646799147353207E-16, -0.0000000000000000000, -1.000000000000000000 ) ) ;
#286 = EDGE_CURVE ( 'NONE', #298, #113, #282, .T. ) ;
#287 = CIRCLE ( 'NONE', #4, 0.1724999999999995981 ) ;
#288 = CARTESIAN_POINT ( 'NONE',  ( 0.0000000000000000000, 0.0000000000000000000, 2.500000000000000000 ) ) ;
#289 =( CONVERSION_BASED_UNIT ( 'INCH', #54 ) LENGTH_UNIT ( ) NAMED_UNIT ( #166 ) );
#290 = CARTESIAN_POINT ( 'NONE',  ( -0.1873124999999999929, 0.0000000000000000000, 4.587833071305771192E-17 ) ) ;
#291 = STYLED_ITEM ( 'NONE', ( #210 ), #130 ) ;
#292 = LINE ( 'NONE', #201, #205 ) ;
#293 = CARTESIAN_POINT ( 'NONE',  ( -0.1724999999999995981, 0.0000000000000000000, 2.500000000000000000 ) ) ;
#294 = CARTESIAN_POINT ( 'NONE',  ( 0.0000000000000000000, 0.0000000000000000000, 2.500000000000000000 ) ) ;
#295 = ADVANCED_FACE ( 'NONE', ( #220 ), #200, .T. ) ;
#296 = DIRECTION ( 'NONE',  ( 1.000000000000000000, 0.0000000000000000000, 0.0000000000000000000 ) ) ;
#297 = PRESENTATION_LAYER_ASSIGNMENT (  '', '', ( #52 ) ) ;
#298 = VERTEX_POINT ( 'NONE', #293 ) ;
#299 = LENGTH_MEASURE_WITH_UNIT ( LENGTH_MEASURE( 0.02539999999999999897 ), #252 );
ENDSEC;
END-ISO-10303-21;
