ISO-10303-21;
HEADER;
FILE_DESCRIPTION (( 'STEP AP214' ),
    '1' );
FILE_NAME ('Micro_SFPM-030-10.STEP',
    '2021-09-02T06:43:19',
    ( '' ),
    ( '' ),
    'SwSTEP 2.0',
    'SolidWorks 2020',
    '' );
FILE_SCHEMA (( 'AUTOMOTIVE_DESIGN' ));
ENDSEC;

DATA;
#1 =( CONVERSION_BASED_UNIT ( 'INCH', #172 ) LENGTH_UNIT ( ) NAMED_UNIT ( #138 ) );
#2 = PRESENTATION_LAYER_ASSIGNMENT (  '', '', ( #142 ) ) ;
#3 = LENGTH_MEASURE_WITH_UNIT ( LENGTH_MEASURE( 0.02539999999999999897 ), #219 );
#4 = DIRECTION ( 'NONE',  ( 1.000000000000000000, 0.0000000000000000000, 0.0000000000000000000 ) ) ;
#5 = EDGE_LOOP ( 'NONE', ( #295, #35 ) ) ;
#6 =( CONVERSION_BASED_UNIT ( 'INCH', #134 ) LENGTH_UNIT ( ) NAMED_UNIT ( #18 ) );
#7 = ORIENTED_EDGE ( 'NONE', *, *, #126, .T. ) ;
#8 = VERTEX_POINT ( 'NONE', #282 ) ;
#9 = APPLICATION_CONTEXT ( 'automotive_design' ) ;
#10 = AXIS2_PLACEMENT_3D ( 'NONE', #249, #248, #170 ) ;
#11 = VERTEX_POINT ( 'NONE', #287 ) ;
#12 = ORIENTED_EDGE ( 'NONE', *, *, #126, .F. ) ;
#13 = ORIENTED_EDGE ( 'NONE', *, *, #299, .F. ) ;
#14 = EDGE_CURVE ( 'NONE', #180, #65, #259, .T. ) ;
#15 = CARTESIAN_POINT ( 'NONE',  ( 3.857159805062494824E-17, 0.0000000000000000000, 0.3149609999999999910 ) ) ;
#16 = CIRCLE ( 'NONE', #147, 0.05899594499999999409 ) ;
#17 = FACE_OUTER_BOUND ( 'NONE', #211, .T. ) ;
#18 = DIMENSIONAL_EXPONENTS ( 1.000000000000000000, 0.0000000000000000000, 0.0000000000000000000, 0.0000000000000000000, 0.0000000000000000000, 0.0000000000000000000, 0.0000000000000000000 ) ;
#19 = EDGE_CURVE ( 'NONE', #180, #252, #103, .T. ) ;
#20 = DIRECTION ( 'NONE',  ( -1.000000000000000000, 0.0000000000000000000, 0.0000000000000000000 ) ) ;
#21 = AXIS2_PLACEMENT_3D ( 'NONE', #264, #139, #164 ) ;
#22 = COLOUR_RGB ( '',0.7921568627450980005, 0.8196078431372548767, 0.9333333333333333481 ) ;
#23 = ORIENTED_EDGE ( 'NONE', *, *, #14, .T. ) ;
#24 = DIRECTION ( 'NONE',  ( -1.000000000000000000, 0.0000000000000000000, 1.224646799147353454E-16 ) ) ;
#25 = DIRECTION ( 'NONE',  ( 0.0000000000000000000, 0.0000000000000000000, -1.000000000000000000 ) ) ;
#26 = AXIS2_PLACEMENT_3D ( 'NONE', #27, #63, #149 ) ;
#27 = CARTESIAN_POINT ( 'NONE',  ( 0.0000000000000000000, 0.0000000000000000000, 2.244094000000000033 ) ) ;
#28 = EDGE_CURVE ( 'NONE', #11, #101, #218, .T. ) ;
#29 = DIRECTION ( 'NONE',  ( -1.224646799147353207E-16, -0.0000000000000000000, -1.000000000000000000 ) ) ;
#30 = AXIS2_PLACEMENT_3D ( 'NONE', #112, #41, #43 ) ;
#31 = UNCERTAINTY_MEASURE_WITH_UNIT (LENGTH_MEASURE( 1.000000000000000082E-05 ), #175, 'distance_accuracy_value', 'NONE');
#32 = ORIENTED_EDGE ( 'NONE', *, *, #152, .F. ) ;
#33 = ADVANCED_FACE ( 'NONE', ( #241 ), #119, .T. ) ;
#34 = FILL_AREA_STYLE_COLOUR ( '', #234 ) ;
#35 = ORIENTED_EDGE ( 'NONE', *, *, #162, .T. ) ;
#36 = PRODUCT_CONTEXT ( 'NONE', #184, 'mechanical' ) ;
#37 = ORIENTED_EDGE ( 'NONE', *, *, #159, .F. ) ;
#38 = CARTESIAN_POINT ( 'NONE',  ( 0.05899594500000004266, 0.0000000000000000000, 0.3149609999999999910 ) ) ;
#39 = CIRCLE ( 'NONE', #79, 0.05899594499999999409 ) ;
#40 = ADVANCED_FACE ( 'NONE', ( #136 ), #284, .T. ) ;
#41 = DIRECTION ( 'NONE',  ( 0.0000000000000000000, 0.0000000000000000000, -1.000000000000000000 ) ) ;
#42 = LINE ( 'NONE', #161, #253 ) ;
#43 = DIRECTION ( 'NONE',  ( -1.000000000000000000, 0.0000000000000000000, 0.0000000000000000000 ) ) ;
#44 = DIRECTION ( 'NONE',  ( -0.1736481776669312471, 2.126576849575783933E-17, 0.9848077530122077983 ) ) ;
#45 = DIRECTION ( 'NONE',  ( 0.0000000000000000000, 0.0000000000000000000, -1.000000000000000000 ) ) ;
#46 = DIRECTION ( 'NONE',  ( -0.0000000000000000000, -0.0000000000000000000, -1.000000000000000000 ) ) ;
#47 = ORIENTED_EDGE ( 'NONE', *, *, #108, .T. ) ;
#48 = DIRECTION ( 'NONE',  ( -1.000000000000000000, 0.0000000000000000000, 0.0000000000000000000 ) ) ;
#49 = PRODUCT_DEFINITION ( 'UNKNOWN', '', #72, #77 ) ;
#50 = ADVANCED_FACE ( 'NONE', ( #178 ), #258, .T. ) ;
#51 = FACE_OUTER_BOUND ( 'NONE', #199, .T. ) ;
#52 = PRESENTATION_STYLE_ASSIGNMENT (( #76 ) ) ;
#53 = DIRECTION ( 'NONE',  ( -1.224646799147353207E-16, -0.0000000000000000000, -1.000000000000000000 ) ) ;
#54 = VECTOR ( 'NONE', #107, 39.37007874015748143 ) ;
#55 = ORIENTED_EDGE ( 'NONE', *, *, #159, .T. ) ;
#56 = FACE_OUTER_BOUND ( 'NONE', #5, .T. ) ;
#57 = ADVANCED_FACE ( 'NONE', ( #17 ), #278, .T. ) ;
#58 = EDGE_LOOP ( 'NONE', ( #132, #120 ) ) ;
#59 = AXIS2_PLACEMENT_3D ( 'NONE', #168, #29, #125 ) ;
#60 = FILL_AREA_STYLE ('',( #34 ) ) ;
#61 = DIRECTION ( 'NONE',  ( -0.7071067811865449082, 0.0000000000000000000, -0.7071067811865501263 ) ) ;
#62 = CARTESIAN_POINT ( 'NONE',  ( 0.0000000000000000000, 0.0000000000000000000, 2.244094000000000033 ) ) ;
#63 = DIRECTION ( 'NONE',  ( 0.0000000000000000000, 0.0000000000000000000, 1.000000000000000000 ) ) ;
#64 = ADVANCED_FACE ( 'NONE', ( #224 ), #205, .T. ) ;
#65 = VERTEX_POINT ( 'NONE', #70 ) ;
#66 = PRESENTATION_LAYER_ASSIGNMENT (  '', '', ( #255 ) ) ;
#67 = ORIENTED_EDGE ( 'NONE', *, *, #250, .T. ) ;
#68 = DIRECTION ( 'NONE',  ( -1.224646799147353207E-16, -0.0000000000000000000, -1.000000000000000000 ) ) ;
#69 = CARTESIAN_POINT ( 'NONE',  ( -0.05899594499999995245, 7.228535596528513326E-18, 0.3149609999999999910 ) ) ;
#70 = CARTESIAN_POINT ( 'NONE',  ( -0.05905500000000001720, 0.0000000000000000000, 2.229093999999999465 ) ) ;
#71 = PLANE ( 'NONE',  #133 ) ;
#72 = PRODUCT_DEFINITION_FORMATION_WITH_SPECIFIED_SOURCE ( 'ANY', '', #113, .NOT_KNOWN. ) ;
#73 = ORIENTED_EDGE ( 'NONE', *, *, #19, .F. ) ;
#74 = DIRECTION ( 'NONE',  ( 1.000000000000000000, 0.0000000000000000000, -0.0000000000000000000 ) ) ;
#75 = FILL_AREA_STYLE_COLOUR ( '', #22 ) ;
#76 = SURFACE_STYLE_USAGE ( .BOTH. , #277 ) ;
#77 = PRODUCT_DEFINITION_CONTEXT ( 'detailed design', #9, 'design' ) ;
#78 = AXIS2_PLACEMENT_3D ( 'NONE', #118, #88, #244 ) ;
#79 = AXIS2_PLACEMENT_3D ( 'NONE', #230, #191, #276 ) ;
#80 = CYLINDRICAL_SURFACE ( 'NONE', #163, 0.05899594499999999409 ) ;
#81 = EDGE_CURVE ( 'NONE', #101, #96, #115, .T. ) ;
#82 = ORIENTED_EDGE ( 'NONE', *, *, #265, .F. ) ;
#83 = VERTEX_POINT ( 'NONE', #69 ) ;
#84 = MECHANICAL_DESIGN_GEOMETRIC_PRESENTATION_REPRESENTATION (  '', ( #255 ), #116 ) ;
#85 = SHAPE_DEFINITION_REPRESENTATION ( #245, #221 ) ;
#86 = EDGE_LOOP ( 'NONE', ( #47, #165, #217, #32 ) ) ;
#87 = EDGE_LOOP ( 'NONE', ( #37, #261, #130, #176 ) ) ;
#88 = DIRECTION ( 'NONE',  ( -1.224646799147353207E-16, -0.0000000000000000000, -1.000000000000000000 ) ) ;
#89 = DIRECTION ( 'NONE',  ( -0.0000000000000000000, -0.0000000000000000000, -1.000000000000000000 ) ) ;
#90 = EDGE_CURVE ( 'NONE', #252, #180, #157, .T. ) ;
#91 = CARTESIAN_POINT ( 'NONE',  ( 3.857159805062494824E-17, 0.0000000000000000000, 0.3149609999999999910 ) ) ;
#92 = CARTESIAN_POINT ( 'NONE',  ( 0.0000000000000000000, 0.0000000000000000000, 2.229093999999999465 ) ) ;
#93 = VECTOR ( 'NONE', #46, 39.37007874015748143 ) ;
#94 = CIRCLE ( 'NONE', #195, 0.05899594499999999409 ) ;
#95 = CARTESIAN_POINT ( 'NONE',  ( 0.0000000000000000000, 0.0000000000000000000, 2.244094000000000033 ) ) ;
#96 = VERTEX_POINT ( 'NONE', #207 ) ;
#97 = DIRECTION ( 'NONE',  ( 1.000000000000000000, 0.0000000000000000000, 0.0000000000000000000 ) ) ;
#98 = DIRECTION ( 'NONE',  ( 1.224646799147353207E-16, 0.0000000000000000000, 1.000000000000000000 ) ) ;
#99 = CARTESIAN_POINT ( 'NONE',  ( 0.04405499999999960142, 5.395181473643616524E-18, 2.244094000000000033 ) ) ;
#100 = AXIS2_PLACEMENT_3D ( 'NONE', #286, #153, #4 ) ;
#101 = VERTEX_POINT ( 'NONE', #242 ) ;
#102 =( NAMED_UNIT ( * ) SI_UNIT ( $, .STERADIAN. ) SOLID_ANGLE_UNIT ( ) );
#103 = CIRCLE ( 'NONE', #177, 0.04405499999999960142 ) ;
#104 =( GEOMETRIC_REPRESENTATION_CONTEXT ( 3 ) GLOBAL_UNCERTAINTY_ASSIGNED_CONTEXT ( ( #298 ) ) GLOBAL_UNIT_ASSIGNED_CONTEXT ( ( #6, #260, #281 ) ) REPRESENTATION_CONTEXT ( 'NONE', 'WORKASPACE' ) );
#105 = EDGE_CURVE ( 'NONE', #11, #65, #194, .T. ) ;
#106 = CARTESIAN_POINT ( 'NONE',  ( 0.05905500000000001720, 7.232151672364695422E-18, 2.244094000000000033 ) ) ;
#107 = DIRECTION ( 'NONE',  ( 0.1736481776669314692, 0.0000000000000000000, 0.9848077530122077983 ) ) ;
#108 = EDGE_CURVE ( 'NONE', #65, #11, #269, .T. ) ;
#109 = ORIENTED_EDGE ( 'NONE', *, *, #105, .F. ) ;
#110 = AXIS2_PLACEMENT_3D ( 'NONE', #271, #98, #117 ) ;
#111 = ORIENTED_EDGE ( 'NONE', *, *, #105, .T. ) ;
#112 = CARTESIAN_POINT ( 'NONE',  ( 0.0000000000000000000, 0.0000000000000000000, 2.244094000000000033 ) ) ;
#113 = PRODUCT ( 'Micro_SFPM-030-10', 'Micro_SFPM-030-10', '', ( #36 ) ) ;
#114 = DIRECTION ( 'NONE',  ( 1.224646799147353207E-16, 0.0000000000000000000, 1.000000000000000000 ) ) ;
#115 = CIRCLE ( 'NONE', #78, 0.05905500000000001720 ) ;
#116 =( GEOMETRIC_REPRESENTATION_CONTEXT ( 3 ) GLOBAL_UNCERTAINTY_ASSIGNED_CONTEXT ( ( #150 ) ) GLOBAL_UNIT_ASSIGNED_CONTEXT ( ( #1, #122, #102 ) ) REPRESENTATION_CONTEXT ( 'NONE', 'WORKASPACE' ) );
#117 = DIRECTION ( 'NONE',  ( 1.000000000000000000, 0.0000000000000000000, 0.0000000000000000000 ) ) ;
#118 = CARTESIAN_POINT ( 'NONE',  ( 3.861261362092115948E-17, 0.0000000000000000000, 0.3152959175478576292 ) ) ;
#119 = CONICAL_SURFACE ( 'NONE', #30, 0.04405499999999960142, 0.7853981633974446153 ) ;
#120 = ORIENTED_EDGE ( 'NONE', *, *, #90, .T. ) ;
#121 = DIRECTION ( 'NONE',  ( -1.224646799147353207E-16, -0.0000000000000000000, -1.000000000000000000 ) ) ;
#122 =( NAMED_UNIT ( * ) PLANE_ANGLE_UNIT ( ) SI_UNIT ( $, .RADIAN. ) );
#123 = FILL_AREA_STYLE ('',( #75 ) ) ;
#124 = FACE_OUTER_BOUND ( 'NONE', #135, .T. ) ;
#125 = DIRECTION ( 'NONE',  ( 1.000000000000000000, 0.0000000000000000000, 0.0000000000000000000 ) ) ;
#126 = EDGE_CURVE ( 'NONE', #83, #8, #16, .T. ) ;
#127 = SURFACE_SIDE_STYLE ('',( #155 ) ) ;
#128 = CIRCLE ( 'NONE', #59, 0.05905500000000001720 ) ;
#129 = DIRECTION ( 'NONE',  ( 1.000000000000000000, 0.0000000000000000000, 0.0000000000000000000 ) ) ;
#130 = ORIENTED_EDGE ( 'NONE', *, *, #299, .T. ) ;
#131 = EDGE_CURVE ( 'NONE', #83, #167, #185, .T. ) ;
#132 = ORIENTED_EDGE ( 'NONE', *, *, #19, .T. ) ;
#133 = AXIS2_PLACEMENT_3D ( 'NONE', #189, #141, #74 ) ;
#134 = LENGTH_MEASURE_WITH_UNIT ( LENGTH_MEASURE( 0.02539999999999999897 ), #239 );
#135 = EDGE_LOOP ( 'NONE', ( #7, #215, #82, #169 ) ) ;
#136 = FACE_OUTER_BOUND ( 'NONE', #87, .T. ) ;
#137 = DIRECTION ( 'NONE',  ( 0.0000000000000000000, 0.0000000000000000000, -1.000000000000000000 ) ) ;
#138 = DIMENSIONAL_EXPONENTS ( 1.000000000000000000, 0.0000000000000000000, 0.0000000000000000000, 0.0000000000000000000, 0.0000000000000000000, 0.0000000000000000000, 0.0000000000000000000 ) ;
#139 = DIRECTION ( 'NONE',  ( 0.0000000000000000000, 0.0000000000000000000, 1.000000000000000000 ) ) ;
#140 = ORIENTED_EDGE ( 'NONE', *, *, #250, .F. ) ;
#141 = DIRECTION ( 'NONE',  ( 0.0000000000000000000, 0.0000000000000000000, 1.000000000000000000 ) ) ;
#142 = STYLED_ITEM ( 'NONE', ( #214 ), #221 ) ;
#143 = LINE ( 'NONE', #99, #173 ) ;
#144 = FACE_OUTER_BOUND ( 'NONE', #188, .T. ) ;
#145 = DIRECTION ( 'NONE',  ( -1.000000000000000000, 0.0000000000000000000, 1.224646799147353454E-16 ) ) ;
#146 = AXIS2_PLACEMENT_3D ( 'NONE', #220, #225, #20 ) ;
#147 = AXIS2_PLACEMENT_3D ( 'NONE', #91, #293, #292 ) ;
#148 = DIRECTION ( 'NONE',  ( -1.224646799147353207E-16, -0.0000000000000000000, -1.000000000000000000 ) ) ;
#149 = DIRECTION ( 'NONE',  ( 1.000000000000000000, 0.0000000000000000000, -0.0000000000000000000 ) ) ;
#150 = UNCERTAINTY_MEASURE_WITH_UNIT (LENGTH_MEASURE( 1.000000000000000082E-05 ), #1, 'distance_accuracy_value', 'NONE');
#151 = ORIENTED_EDGE ( 'NONE', *, *, #187, .F. ) ;
#152 = EDGE_CURVE ( 'NONE', #65, #96, #272, .T. ) ;
#153 = DIRECTION ( 'NONE',  ( 0.0000000000000000000, 0.0000000000000000000, 1.000000000000000000 ) ) ;
#154 = ORIENTED_EDGE ( 'NONE', *, *, #81, .F. ) ;
#155 = SURFACE_STYLE_FILL_AREA ( #60 ) ;
#156 = VERTEX_POINT ( 'NONE', #166 ) ;
#157 = CIRCLE ( 'NONE', #21, 0.04405499999999960142 ) ;
#158 = AXIS2_PLACEMENT_3D ( 'NONE', #208, #45, #97 ) ;
#159 = EDGE_CURVE ( 'NONE', #83, #96, #42, .T. ) ;
#160 = DIRECTION ( 'NONE',  ( -0.0000000000000000000, -0.0000000000000000000, -1.000000000000000000 ) ) ;
#161 = CARTESIAN_POINT ( 'NONE',  ( -0.05899594499999995245, 7.224919520692329689E-18, 0.3149609999999999910 ) ) ;
#162 = EDGE_CURVE ( 'NONE', #156, #167, #94, .T. ) ;
#163 = AXIS2_PLACEMENT_3D ( 'NONE', #213, #53, #145 ) ;
#164 = DIRECTION ( 'NONE',  ( 1.000000000000000000, 0.0000000000000000000, 0.0000000000000000000 ) ) ;
#165 = ORIENTED_EDGE ( 'NONE', *, *, #28, .T. ) ;
#166 = CARTESIAN_POINT ( 'NONE',  ( 0.05899594499999999409, 7.224919520692329689E-18, 0.0000000000000000000 ) ) ;
#167 = VERTEX_POINT ( 'NONE', #210 ) ;
#168 = CARTESIAN_POINT ( 'NONE',  ( 3.861261362092115948E-17, 0.0000000000000000000, 0.3152959175478576292 ) ) ;
#169 = ORIENTED_EDGE ( 'NONE', *, *, #131, .F. ) ;
#170 = DIRECTION ( 'NONE',  ( -1.000000000000000000, 0.0000000000000000000, 0.0000000000000000000 ) ) ;
#171 = SURFACE_STYLE_FILL_AREA ( #123 ) ;
#172 = LENGTH_MEASURE_WITH_UNIT ( LENGTH_MEASURE( 0.02539999999999999897 ), #193 );
#173 = VECTOR ( 'NONE', #275, 39.37007874015748143 ) ;
#174 = APPLICATION_PROTOCOL_DEFINITION ( 'draft international standard', 'automotive_design', 1998, #184 ) ;
#175 =( CONVERSION_BASED_UNIT ( 'INCH', #3 ) LENGTH_UNIT ( ) NAMED_UNIT ( #202 ) );
#176 = ORIENTED_EDGE ( 'NONE', *, *, #81, .T. ) ;
#177 = AXIS2_PLACEMENT_3D ( 'NONE', #62, #240, #129 ) ;
#178 = FACE_OUTER_BOUND ( 'NONE', #197, .T. ) ;
#179 = ORIENTED_EDGE ( 'NONE', *, *, #14, .F. ) ;
#180 = VERTEX_POINT ( 'NONE', #273 ) ;
#181 = ADVANCED_FACE ( 'NONE', ( #124 ), #80, .T. ) ;
#182 = ORIENTED_EDGE ( 'NONE', *, *, #131, .T. ) ;
#183 = MECHANICAL_DESIGN_GEOMETRIC_PRESENTATION_REPRESENTATION (  '', ( #142 ), #198 ) ;
#184 = APPLICATION_CONTEXT ( 'automotive_design' ) ;
#185 = LINE ( 'NONE', #270, #190 ) ;
#186 = DIRECTION ( 'NONE',  ( -1.224646799147353207E-16, -0.0000000000000000000, -1.000000000000000000 ) ) ;
#187 = EDGE_CURVE ( 'NONE', #8, #156, #228, .T. ) ;
#188 = EDGE_LOOP ( 'NONE', ( #285, #67, #192, #179 ) ) ;
#189 = CARTESIAN_POINT ( 'NONE',  ( 0.0000000000000000000, 0.0000000000000000000, 0.0000000000000000000 ) ) ;
#190 = VECTOR ( 'NONE', #68, 39.37007874015748143 ) ;
#191 = DIRECTION ( 'NONE',  ( -1.224646799147353207E-16, -0.0000000000000000000, -1.000000000000000000 ) ) ;
#192 = ORIENTED_EDGE ( 'NONE', *, *, #108, .F. ) ;
#193 =( LENGTH_UNIT ( ) NAMED_UNIT ( * ) SI_UNIT ( $, .METRE. ) );
#194 = CIRCLE ( 'NONE', #279, 0.05905500000000001720 ) ;
#195 = AXIS2_PLACEMENT_3D ( 'NONE', #223, #186, #24 ) ;
#196 =( NAMED_UNIT ( * ) SI_UNIT ( $, .STERADIAN. ) SOLID_ANGLE_UNIT ( ) );
#197 = EDGE_LOOP ( 'NONE', ( #288, #111, #246, #154 ) ) ;
#198 =( GEOMETRIC_REPRESENTATION_CONTEXT ( 3 ) GLOBAL_UNCERTAINTY_ASSIGNED_CONTEXT ( ( #31 ) ) GLOBAL_UNIT_ASSIGNED_CONTEXT ( ( #175, #257, #196 ) ) REPRESENTATION_CONTEXT ( 'NONE', 'WORKASPACE' ) );
#199 = EDGE_LOOP ( 'NONE', ( #151, #238, #182, #280 ) ) ;
#200 = SURFACE_STYLE_USAGE ( .BOTH. , #127 ) ;
#201 = EDGE_LOOP ( 'NONE', ( #140, #73, #23, #109 ) ) ;
#202 = DIMENSIONAL_EXPONENTS ( 1.000000000000000000, 0.0000000000000000000, 0.0000000000000000000, 0.0000000000000000000, 0.0000000000000000000, 0.0000000000000000000, 0.0000000000000000000 ) ;
#203 = VECTOR ( 'NONE', #121, 39.37007874015748143 ) ;
#204 = MANIFOLD_SOLID_BREP ( 'Cut-Revolve1', #209 ) ;
#205 = CYLINDRICAL_SURFACE ( 'NONE', #146, 0.05905500000000001720 ) ;
#206 = ADVANCED_FACE ( 'NONE', ( #56 ), #71, .F. ) ;
#207 = CARTESIAN_POINT ( 'NONE',  ( -0.05905499999999996863, 0.0000000000000000000, 0.3152959175478576292 ) ) ;
#208 = CARTESIAN_POINT ( 'NONE',  ( 0.0000000000000000000, 0.0000000000000000000, 2.229093999999999465 ) ) ;
#209 = CLOSED_SHELL ( 'NONE', ( #181, #57, #232, #64, #50, #289, #33, #40, #212, #206 ) ) ;
#210 = CARTESIAN_POINT ( 'NONE',  ( -0.05899594499999999409, 0.0000000000000000000, 1.444983904138465938E-17 ) ) ;
#211 = EDGE_LOOP ( 'NONE', ( #12, #55, #262, #13 ) ) ;
#212 = ADVANCED_FACE ( 'NONE', ( #51 ), #294, .T. ) ;
#213 = CARTESIAN_POINT ( 'NONE',  ( 0.0000000000000000000, 0.0000000000000000000, 0.0000000000000000000 ) ) ;
#214 = PRESENTATION_STYLE_ASSIGNMENT (( #200 ) ) ;
#215 = ORIENTED_EDGE ( 'NONE', *, *, #187, .T. ) ;
#216 = LINE ( 'NONE', #38, #54 ) ;
#217 = ORIENTED_EDGE ( 'NONE', *, *, #222, .F. ) ;
#218 = LINE ( 'NONE', #106, #226 ) ;
#219 =( LENGTH_UNIT ( ) NAMED_UNIT ( * ) SI_UNIT ( $, .METRE. ) );
#220 = CARTESIAN_POINT ( 'NONE',  ( 0.0000000000000000000, 0.0000000000000000000, 2.244094000000000033 ) ) ;
#221 = ADVANCED_BREP_SHAPE_REPRESENTATION ( 'Micro_SFPM-030-10', ( #204, #100 ), #104 ) ;
#222 = EDGE_CURVE ( 'NONE', #96, #101, #128, .T. ) ;
#223 = CARTESIAN_POINT ( 'NONE',  ( 8.847974565113090185E-34, 0.0000000000000000000, 7.224919520692329689E-18 ) ) ;
#224 = FACE_OUTER_BOUND ( 'NONE', #86, .T. ) ;
#225 = DIRECTION ( 'NONE',  ( -0.0000000000000000000, -0.0000000000000000000, -1.000000000000000000 ) ) ;
#226 = VECTOR ( 'NONE', #160, 39.37007874015748143 ) ;
#227 = AXIS2_PLACEMENT_3D ( 'NONE', #296, #148, #229 ) ;
#228 = LINE ( 'NONE', #254, #203 ) ;
#229 = DIRECTION ( 'NONE',  ( -1.000000000000000000, 0.0000000000000000000, 1.224646799147353454E-16 ) ) ;
#230 = CARTESIAN_POINT ( 'NONE',  ( 8.847974565113090185E-34, 0.0000000000000000000, 7.224919520692329689E-18 ) ) ;
#231 = PLANE ( 'NONE',  #26 ) ;
#232 = ADVANCED_FACE ( 'NONE', ( #144 ), #290, .T. ) ;
#233 = AXIS2_PLACEMENT_3D ( 'NONE', #95, #89, #266 ) ;
#234 = COLOUR_RGB ( '',0.7921568627450980005, 0.8196078431372548767, 0.9333333333333333481 ) ;
#235 = CARTESIAN_POINT ( 'NONE',  ( -0.04405499999999960142, 0.0000000000000000000, 2.244094000000000033 ) ) ;
#236 = VECTOR ( 'NONE', #61, 39.37007874015748143 ) ;
#237 = EDGE_CURVE ( 'NONE', #8, #83, #274, .T. ) ;
#238 = ORIENTED_EDGE ( 'NONE', *, *, #237, .T. ) ;
#239 =( LENGTH_UNIT ( ) NAMED_UNIT ( * ) SI_UNIT ( $, .METRE. ) );
#240 = DIRECTION ( 'NONE',  ( 0.0000000000000000000, 0.0000000000000000000, 1.000000000000000000 ) ) ;
#241 = FACE_OUTER_BOUND ( 'NONE', #201, .T. ) ;
#242 = CARTESIAN_POINT ( 'NONE',  ( 0.05905500000000005884, 7.232151672364700045E-18, 0.3152959175478576292 ) ) ;
#243 = AXIS2_PLACEMENT_3D ( 'NONE', #247, #25, #48 ) ;
#244 = DIRECTION ( 'NONE',  ( 1.000000000000000000, 0.0000000000000000000, 0.0000000000000000000 ) ) ;
#245 = PRODUCT_DEFINITION_SHAPE ( 'NONE', 'NONE',  #49 ) ;
#246 = ORIENTED_EDGE ( 'NONE', *, *, #152, .T. ) ;
#247 = CARTESIAN_POINT ( 'NONE',  ( 0.0000000000000000000, 0.0000000000000000000, 2.244094000000000033 ) ) ;
#248 = DIRECTION ( 'NONE',  ( -1.224646799147353207E-16, -0.0000000000000000000, -1.000000000000000000 ) ) ;
#249 = CARTESIAN_POINT ( 'NONE',  ( 3.857159805062494824E-17, 0.0000000000000000000, 0.3149609999999999910 ) ) ;
#250 = EDGE_CURVE ( 'NONE', #252, #11, #143, .T. ) ;
#251 = FACE_OUTER_BOUND ( 'NONE', #58, .T. ) ;
#252 = VERTEX_POINT ( 'NONE', #297 ) ;
#253 = VECTOR ( 'NONE', #44, 39.37007874015748143 ) ;
#254 = CARTESIAN_POINT ( 'NONE',  ( 0.05899594499999999409, 7.224919520692329689E-18, -7.224919520692329689E-18 ) ) ;
#255 = STYLED_ITEM ( 'NONE', ( #52 ), #204 ) ;
#256 = DIRECTION ( 'NONE',  ( 1.000000000000000000, 0.0000000000000000000, 0.0000000000000000000 ) ) ;
#257 =( NAMED_UNIT ( * ) PLANE_ANGLE_UNIT ( ) SI_UNIT ( $, .RADIAN. ) );
#258 = CYLINDRICAL_SURFACE ( 'NONE', #233, 0.05905500000000001720 ) ;
#259 = LINE ( 'NONE', #235, #236 ) ;
#260 =( NAMED_UNIT ( * ) PLANE_ANGLE_UNIT ( ) SI_UNIT ( $, .RADIAN. ) );
#261 = ORIENTED_EDGE ( 'NONE', *, *, #237, .F. ) ;
#262 = ORIENTED_EDGE ( 'NONE', *, *, #222, .T. ) ;
#263 = PRODUCT_RELATED_PRODUCT_CATEGORY ( 'part', '', ( #113 ) ) ;
#264 = CARTESIAN_POINT ( 'NONE',  ( 0.0000000000000000000, 0.0000000000000000000, 2.244094000000000033 ) ) ;
#265 = EDGE_CURVE ( 'NONE', #167, #156, #39, .T. ) ;
#266 = DIRECTION ( 'NONE',  ( -1.000000000000000000, 0.0000000000000000000, 0.0000000000000000000 ) ) ;
#267 = CARTESIAN_POINT ( 'NONE',  ( -0.05905500000000001720, 0.0000000000000000000, 2.244094000000000033 ) ) ;
#268 = AXIS2_PLACEMENT_3D ( 'NONE', #15, #114, #256 ) ;
#269 = CIRCLE ( 'NONE', #158, 0.05905500000000001720 ) ;
#270 = CARTESIAN_POINT ( 'NONE',  ( -0.05899594499999999409, 0.0000000000000000000, 7.224919520692329689E-18 ) ) ;
#271 = CARTESIAN_POINT ( 'NONE',  ( 3.857159805062494824E-17, 0.0000000000000000000, 0.3149609999999999910 ) ) ;
#272 = LINE ( 'NONE', #267, #93 ) ;
#273 = CARTESIAN_POINT ( 'NONE',  ( -0.04405499999999960142, 0.0000000000000000000, 2.244094000000000033 ) ) ;
#274 = CIRCLE ( 'NONE', #10, 0.05899594499999999409 ) ;
#275 = DIRECTION ( 'NONE',  ( 0.7071067811865449082, 8.659560562354900811E-17, -0.7071067811865501263 ) ) ;
#276 = DIRECTION ( 'NONE',  ( -1.000000000000000000, 0.0000000000000000000, 1.224646799147353454E-16 ) ) ;
#277 = SURFACE_SIDE_STYLE ('',( #171 ) ) ;
#278 = CONICAL_SURFACE ( 'NONE', #110, 0.05899594499999999409, 0.1745329251994339748 ) ;
#279 = AXIS2_PLACEMENT_3D ( 'NONE', #92, #137, #291 ) ;
#280 = ORIENTED_EDGE ( 'NONE', *, *, #162, .F. ) ;
#281 =( NAMED_UNIT ( * ) SI_UNIT ( $, .STERADIAN. ) SOLID_ANGLE_UNIT ( ) );
#282 = CARTESIAN_POINT ( 'NONE',  ( 0.05899594500000004266, 0.0000000000000000000, 0.3149609999999999910 ) ) ;
#283 = APPLICATION_PROTOCOL_DEFINITION ( 'draft international standard', 'automotive_design', 1998, #9 ) ;
#284 = CONICAL_SURFACE ( 'NONE', #268, 0.05899594499999999409, 0.1745329251994339748 ) ;
#285 = ORIENTED_EDGE ( 'NONE', *, *, #90, .F. ) ;
#286 = CARTESIAN_POINT ( 'NONE',  ( 0.0000000000000000000, 0.0000000000000000000, 0.0000000000000000000 ) ) ;
#287 = CARTESIAN_POINT ( 'NONE',  ( 0.05905500000000001720, 7.232151672364695422E-18, 2.229093999999999465 ) ) ;
#288 = ORIENTED_EDGE ( 'NONE', *, *, #28, .F. ) ;
#289 = ADVANCED_FACE ( 'NONE', ( #251 ), #231, .T. ) ;
#290 = CONICAL_SURFACE ( 'NONE', #243, 0.04405499999999960142, 0.7853981633974446153 ) ;
#291 = DIRECTION ( 'NONE',  ( 1.000000000000000000, 0.0000000000000000000, 0.0000000000000000000 ) ) ;
#292 = DIRECTION ( 'NONE',  ( -1.000000000000000000, 0.0000000000000000000, 0.0000000000000000000 ) ) ;
#293 = DIRECTION ( 'NONE',  ( -1.224646799147353207E-16, -0.0000000000000000000, -1.000000000000000000 ) ) ;
#294 = CYLINDRICAL_SURFACE ( 'NONE', #227, 0.05899594499999999409 ) ;
#295 = ORIENTED_EDGE ( 'NONE', *, *, #265, .T. ) ;
#296 = CARTESIAN_POINT ( 'NONE',  ( 0.0000000000000000000, 0.0000000000000000000, 0.0000000000000000000 ) ) ;
#297 = CARTESIAN_POINT ( 'NONE',  ( 0.04405499999999960142, 6.313666573004155588E-18, 2.244094000000000033 ) ) ;
#298 = UNCERTAINTY_MEASURE_WITH_UNIT (LENGTH_MEASURE( 1.000000000000000082E-05 ), #6, 'distance_accuracy_value', 'NONE');
#299 = EDGE_CURVE ( 'NONE', #8, #101, #216, .T. ) ;
ENDSEC;
END-ISO-10303-21;
