ISO-10303-21;
HEADER;
FILE_DESCRIPTION (( 'STEP AP214' ),
    '1' );
FILE_NAME ('Micro_DMM-080-290X.STEP',
    '2021-09-02T16:25:48',
    ( '' ),
    ( '' ),
    'SwSTEP 2.0',
    'SolidWorks 2020',
    '' );
FILE_SCHEMA (( 'AUTOMOTIVE_DESIGN' ));
ENDSEC;

DATA;
#1 = DIRECTION ( 'NONE',  ( 0.0000000000000000000, 0.0000000000000000000, 1.000000000000000000 ) ) ;
#2 = EDGE_CURVE ( 'NONE', #182, #219, #91, .T. ) ;
#3 = DIRECTION ( 'NONE',  ( 1.000000000000000000, 0.0000000000000000000, -0.0000000000000000000 ) ) ;
#4 = VECTOR ( 'NONE', #70, 39.37007874015748143 ) ;
#5 = EDGE_CURVE ( 'NONE', #267, #59, #253, .T. ) ;
#6 = EDGE_LOOP ( 'NONE', ( #281, #179 ) ) ;
#7 = VERTEX_POINT ( 'NONE', #310 ) ;
#8 = CIRCLE ( 'NONE', #296, 0.1574305000000000010 ) ;
#9 = PRESENTATION_STYLE_ASSIGNMENT (( #11 ) ) ;
#10 = CARTESIAN_POINT ( 'NONE',  ( -0.007499999999999999722, 1.009908044533862758E-17, 1.707404996040164512E-17 ) ) ;
#11 = SURFACE_STYLE_USAGE ( .BOTH. , #243 ) ;
#12 = ORIENTED_EDGE ( 'NONE', *, *, #254, .T. ) ;
#13 = VERTEX_POINT ( 'NONE', #10 ) ;
#14 = CARTESIAN_POINT ( 'NONE',  ( -0.1574804999999999955, 0.0000000000000000000, 2.480315000000000047 ) ) ;
#15 = AXIS2_PLACEMENT_3D ( 'NONE', #187, #40, #269 ) ;
#16 = CARTESIAN_POINT ( 'NONE',  ( -0.1574804999999999955, 0.0000000000000000000, 0.8661419999999999675 ) ) ;
#17 = ORIENTED_EDGE ( 'NONE', *, *, #19, .T. ) ;
#18 = ORIENTED_EDGE ( 'NONE', *, *, #173, .T. ) ;
#19 = EDGE_CURVE ( 'NONE', #7, #182, #288, .T. ) ;
#20 = AXIS2_PLACEMENT_3D ( 'NONE', #293, #98, #291 ) ;
#21 = FACE_OUTER_BOUND ( 'NONE', #314, .T. ) ;
#22 = EDGE_CURVE ( 'NONE', #7, #94, #313, .T. ) ;
#23 = DIRECTION ( 'NONE',  ( -0.0000000000000000000, -0.0000000000000000000, -1.000000000000000000 ) ) ;
#24 = AXIS2_PLACEMENT_3D ( 'NONE', #222, #272, #144 ) ;
#25 = DIRECTION ( 'NONE',  ( -1.000000000000000000, 0.0000000000000000000, 0.0000000000000000000 ) ) ;
#26 = DIMENSIONAL_EXPONENTS ( 1.000000000000000000, 0.0000000000000000000, 0.0000000000000000000, 0.0000000000000000000, 0.0000000000000000000, 0.0000000000000000000, 0.0000000000000000000 ) ;
#27 = CARTESIAN_POINT ( 'NONE',  ( 0.1424804999999990940, 1.836731392595189962E-17, 2.480315000000000047 ) ) ;
#28 = CARTESIAN_POINT ( 'NONE',  ( 0.0000000000000000000, 0.0000000000000000000, 0.0000000000000000000 ) ) ;
#29 = LENGTH_MEASURE_WITH_UNIT ( LENGTH_MEASURE( 0.02539999999999999897 ), #238 );
#30 = DIRECTION ( 'NONE',  ( 0.0000000000000000000, 0.0000000000000000000, -1.000000000000000000 ) ) ;
#31 = ADVANCED_FACE ( 'NONE', ( #86, #63 ), #163, .T. ) ;
#32 = UNCERTAINTY_MEASURE_WITH_UNIT (LENGTH_MEASURE( 1.000000000000000082E-05 ), #125, 'distance_accuracy_value', 'NONE');
#33 = ORIENTED_EDGE ( 'NONE', *, *, #204, .T. ) ;
#34 = DIRECTION ( 'NONE',  ( 0.0000000000000000000, 0.0000000000000000000, 1.000000000000000000 ) ) ;
#35 = SURFACE_STYLE_USAGE ( .BOTH. , #38 ) ;
#36 = CARTESIAN_POINT ( 'NONE',  ( 0.1574305000000000565, 0.0000000000000000000, 0.1499304999999994115 ) ) ;
#37 = EDGE_LOOP ( 'NONE', ( #74, #287, #111, #325 ) ) ;
#38 = SURFACE_SIDE_STYLE ('',( #95 ) ) ;
#39 = UNCERTAINTY_MEASURE_WITH_UNIT (LENGTH_MEASURE( 1.000000000000000082E-05 ), #41, 'distance_accuracy_value', 'NONE');
#40 = DIRECTION ( 'NONE',  ( -0.0000000000000000000, -0.0000000000000000000, -1.000000000000000000 ) ) ;
#41 =( CONVERSION_BASED_UNIT ( 'INCH', #188 ) LENGTH_UNIT ( ) NAMED_UNIT ( #147 ) );
#42 = AXIS2_PLACEMENT_3D ( 'NONE', #159, #34, #3 ) ;
#43 = EDGE_CURVE ( 'NONE', #246, #137, #51, .T. ) ;
#44 = ORIENTED_EDGE ( 'NONE', *, *, #43, .T. ) ;
#45 = DIRECTION ( 'NONE',  ( -1.000000000000000000, 0.0000000000000000000, 0.0000000000000000000 ) ) ;
#46 = CIRCLE ( 'NONE', #116, 0.007499999999999999722 ) ;
#47 = FACE_OUTER_BOUND ( 'NONE', #85, .T. ) ;
#48 = ORIENTED_EDGE ( 'NONE', *, *, #212, .T. ) ;
#49 = VERTEX_POINT ( 'NONE', #220 ) ;
#50 = FACE_OUTER_BOUND ( 'NONE', #283, .T. ) ;
#51 = CIRCLE ( 'NONE', #15, 0.1574305000000000010 ) ;
#52 = AXIS2_PLACEMENT_3D ( 'NONE', #278, #58, #199 ) ;
#53 = VECTOR ( 'NONE', #184, 39.37007874015748143 ) ;
#54 = EDGE_CURVE ( 'NONE', #182, #7, #228, .T. ) ;
#55 = FACE_OUTER_BOUND ( 'NONE', #160, .T. ) ;
#56 = CARTESIAN_POINT ( 'NONE',  ( 0.0000000000000000000, 0.0000000000000000000, 0.0000000000000000000 ) ) ;
#57 = DIRECTION ( 'NONE',  ( -0.7071067811865627828, 0.0000000000000000000, -0.7071067811865321406 ) ) ;
#58 = DIRECTION ( 'NONE',  ( 0.0000000000000000000, 0.0000000000000000000, 1.000000000000000000 ) ) ;
#59 = VERTEX_POINT ( 'NONE', #75 ) ;
#60 = PLANE ( 'NONE',  #42 ) ;
#61 = ORIENTED_EDGE ( 'NONE', *, *, #103, .T. ) ;
#62 = FILL_AREA_STYLE ('',( #84 ) ) ;
#63 = FACE_OUTER_BOUND ( 'NONE', #138, .T. ) ;
#64 = PRESENTATION_STYLE_ASSIGNMENT (( #35 ) ) ;
#65 = DIRECTION ( 'NONE',  ( -1.000000000000000000, 0.0000000000000000000, 0.0000000000000000000 ) ) ;
#66 = DIRECTION ( 'NONE',  ( -0.0000000000000000000, -0.0000000000000000000, -1.000000000000000000 ) ) ;
#67 = CLOSED_SHELL ( 'NONE', ( #164, #152, #207, #150, #78, #311, #195, #31, #183, #146, #171 ) ) ;
#68 = STYLED_ITEM ( 'NONE', ( #9 ), #143 ) ;
#69 = CARTESIAN_POINT ( 'NONE',  ( 0.0000000000000000000, 0.0000000000000000000, 0.8661419999999999675 ) ) ;
#70 = DIRECTION ( 'NONE',  ( -0.0000000000000000000, -0.0000000000000000000, -1.000000000000000000 ) ) ;
#71 = ORIENTED_EDGE ( 'NONE', *, *, #190, .F. ) ;
#72 = ORIENTED_EDGE ( 'NONE', *, *, #204, .F. ) ;
#73 = CIRCLE ( 'NONE', #260, 0.1574804999999999955 ) ;
#74 = ORIENTED_EDGE ( 'NONE', *, *, #54, .T. ) ;
#75 = CARTESIAN_POINT ( 'NONE',  ( 0.1574305000000001398, 1.927967579131675462E-17, 0.8661419999999999675 ) ) ;
#76 = VECTOR ( 'NONE', #198, 39.37007874015748854 ) ;
#77 = DIRECTION ( 'NONE',  ( -1.000000000000000000, 0.0000000000000000000, 0.0000000000000000000 ) ) ;
#78 = ADVANCED_FACE ( 'NONE', ( #50 ), #227, .T. ) ;
#79 = AXIS2_PLACEMENT_3D ( 'NONE', #153, #30, #280 ) ;
#80 = DIRECTION ( 'NONE',  ( -0.0000000000000000000, -0.0000000000000000000, -1.000000000000000000 ) ) ;
#81 = CARTESIAN_POINT ( 'NONE',  ( 0.0000000000000000000, 0.0000000000000000000, 0.0000000000000000000 ) ) ;
#82 = APPLICATION_CONTEXT ( 'automotive_design' ) ;
#83 = EDGE_CURVE ( 'NONE', #94, #219, #139, .T. ) ;
#84 = FILL_AREA_STYLE_COLOUR ( '', #239 ) ;
#85 = EDGE_LOOP ( 'NONE', ( #229, #12, #215, #133 ) ) ;
#86 = FACE_BOUND ( 'NONE', #6, .T. ) ;
#87 = ORIENTED_EDGE ( 'NONE', *, *, #173, .F. ) ;
#88 = LINE ( 'NONE', #225, #53 ) ;
#89 = CARTESIAN_POINT ( 'NONE',  ( 0.1574804999999999955, 1.928579902531247412E-17, 2.480315000000000047 ) ) ;
#90 = DIRECTION ( 'NONE',  ( -0.0000000000000000000, -0.0000000000000000000, -1.000000000000000000 ) ) ;
#91 = LINE ( 'NONE', #14, #174 ) ;
#92 = EDGE_LOOP ( 'NONE', ( #165, #33 ) ) ;
#93 = PRODUCT_CONTEXT ( 'NONE', #82, 'mechanical' ) ;
#94 = VERTEX_POINT ( 'NONE', #192 ) ;
#95 = SURFACE_STYLE_FILL_AREA ( #206 ) ;
#96 = VECTOR ( 'NONE', #216, 39.37007874015748143 ) ;
#97 = ORIENTED_EDGE ( 'NONE', *, *, #22, .F. ) ;
#98 = DIRECTION ( 'NONE',  ( -0.0000000000000000000, -0.0000000000000000000, -1.000000000000000000 ) ) ;
#99 = DIMENSIONAL_EXPONENTS ( 1.000000000000000000, 0.0000000000000000000, 0.0000000000000000000, 0.0000000000000000000, 0.0000000000000000000, 0.0000000000000000000, 0.0000000000000000000 ) ;
#100 = CYLINDRICAL_SURFACE ( 'NONE', #155, 0.1574804999999999955 ) ;
#101 = CARTESIAN_POINT ( 'NONE',  ( 0.0000000000000000000, 0.0000000000000000000, 1.707404996040164512E-17 ) ) ;
#102 = AXIS2_PLACEMENT_3D ( 'NONE', #217, #66, #290 ) ;
#103 = EDGE_CURVE ( 'NONE', #249, #49, #149, .T. ) ;
#104 = CARTESIAN_POINT ( 'NONE',  ( -0.007499999999999999722, 9.184850993605147975E-19, 1.707404996040164512E-17 ) ) ;
#105 = ORIENTED_EDGE ( 'NONE', *, *, #305, .F. ) ;
#106 = CARTESIAN_POINT ( 'NONE',  ( 0.0000000000000000000, 0.0000000000000000000, 2.465314999999999923 ) ) ;
#107 =( GEOMETRIC_REPRESENTATION_CONTEXT ( 3 ) GLOBAL_UNCERTAINTY_ASSIGNED_CONTEXT ( ( #39 ) ) GLOBAL_UNIT_ASSIGNED_CONTEXT ( ( #41, #134, #223 ) ) REPRESENTATION_CONTEXT ( 'NONE', 'WORKASPACE' ) );
#108 = DIRECTION ( 'NONE',  ( 1.000000000000000000, 0.0000000000000000000, 0.0000000000000000000 ) ) ;
#109 =( LENGTH_UNIT ( ) NAMED_UNIT ( * ) SI_UNIT ( $, .METRE. ) );
#110 = LINE ( 'NONE', #114, #221 ) ;
#111 = ORIENTED_EDGE ( 'NONE', *, *, #214, .F. ) ;
#112 = DIRECTION ( 'NONE',  ( -0.0000000000000000000, 0.0000000000000000000, -1.000000000000000000 ) ) ;
#113 = AXIS2_PLACEMENT_3D ( 'NONE', #250, #189, #324 ) ;
#114 = CARTESIAN_POINT ( 'NONE',  ( 0.1574305000000000843, 1.927967579131674846E-17, 0.0000000000000000000 ) ) ;
#115 = CARTESIAN_POINT ( 'NONE',  ( -0.1574305000000000565, 1.927967579131674230E-17, 0.1499304999999994115 ) ) ;
#116 = AXIS2_PLACEMENT_3D ( 'NONE', #302, #329, #277 ) ;
#117 = DIRECTION ( 'NONE',  ( -1.000000000000000000, 0.0000000000000000000, 0.0000000000000000000 ) ) ;
#118 = EDGE_LOOP ( 'NONE', ( #18, #61 ) ) ;
#119 = DIRECTION ( 'NONE',  ( 1.000000000000000000, 0.0000000000000000000, 0.0000000000000000000 ) ) ;
#120 = AXIS2_PLACEMENT_3D ( 'NONE', #81, #203, #256 ) ;
#121 = CYLINDRICAL_SURFACE ( 'NONE', #120, 0.1574305000000000843 ) ;
#122 = CARTESIAN_POINT ( 'NONE',  ( 0.007499999999999999722, 0.0000000000000000000, 1.707404996040164512E-17 ) ) ;
#123 = APPLICATION_CONTEXT ( 'automotive_design' ) ;
#124 = DIRECTION ( 'NONE',  ( 0.0000000000000000000, 0.0000000000000000000, 1.000000000000000000 ) ) ;
#125 =( CONVERSION_BASED_UNIT ( 'INCH', #29 ) LENGTH_UNIT ( ) NAMED_UNIT ( #26 ) );
#126 = COLOUR_RGB ( '',0.7921568627450980005, 0.8196078431372548767, 0.9333333333333333481 ) ;
#127 = ORIENTED_EDGE ( 'NONE', *, *, #214, .T. ) ;
#128 = ORIENTED_EDGE ( 'NONE', *, *, #317, .F. ) ;
#129 = CONICAL_SURFACE ( 'NONE', #79, 0.1424804999999990940, 0.7853981633974699283 ) ;
#130 = DIRECTION ( 'NONE',  ( 0.0000000000000000000, 0.0000000000000000000, -1.000000000000000000 ) ) ;
#131 = PRESENTATION_LAYER_ASSIGNMENT (  '', '', ( #307 ) ) ;
#132 =( NAMED_UNIT ( * ) PLANE_ANGLE_UNIT ( ) SI_UNIT ( $, .RADIAN. ) );
#133 = ORIENTED_EDGE ( 'NONE', *, *, #292, .F. ) ;
#134 =( NAMED_UNIT ( * ) PLANE_ANGLE_UNIT ( ) SI_UNIT ( $, .RADIAN. ) );
#135 = EDGE_CURVE ( 'NONE', #137, #246, #8, .T. ) ;
#136 = DIRECTION ( 'NONE',  ( -0.0000000000000000000, -0.0000000000000000000, -1.000000000000000000 ) ) ;
#137 = VERTEX_POINT ( 'NONE', #36 ) ;
#138 = EDGE_LOOP ( 'NONE', ( #127, #273 ) ) ;
#139 = CIRCLE ( 'NONE', #20, 0.1574804999999999955 ) ;
#140 = VECTOR ( 'NONE', #57, 39.37007874015748854 ) ;
#141 = CARTESIAN_POINT ( 'NONE',  ( 0.0000000000000000000, 0.0000000000000000000, 0.8661419999999999675 ) ) ;
#142 = ORIENTED_EDGE ( 'NONE', *, *, #5, .T. ) ;
#143 = MANIFOLD_SOLID_BREP ( 'Cut-Revolve4', #67 ) ;
#144 = DIRECTION ( 'NONE',  ( -1.000000000000000000, 0.0000000000000000000, 0.0000000000000000000 ) ) ;
#145 = AXIS2_PLACEMENT_3D ( 'NONE', #106, #213, #161 ) ;
#146 = ADVANCED_FACE ( 'NONE', ( #55 ), #309, .T. ) ;
#147 = DIMENSIONAL_EXPONENTS ( 1.000000000000000000, 0.0000000000000000000, 0.0000000000000000000, 0.0000000000000000000, 0.0000000000000000000, 0.0000000000000000000, 0.0000000000000000000 ) ;
#148 =( NAMED_UNIT ( * ) PLANE_ANGLE_UNIT ( ) SI_UNIT ( $, .RADIAN. ) );
#149 = CIRCLE ( 'NONE', #202, 0.1424804999999990940 ) ;
#150 = ADVANCED_FACE ( 'NONE', ( #279 ), #100, .T. ) ;
#151 = DIRECTION ( 'NONE',  ( 1.000000000000000000, 0.0000000000000000000, -0.0000000000000000000 ) ) ;
#152 = ADVANCED_FACE ( 'NONE', ( #259 ), #186, .T. ) ;
#153 = CARTESIAN_POINT ( 'NONE',  ( 0.0000000000000000000, 0.0000000000000000000, 2.480315000000000047 ) ) ;
#154 = DIRECTION ( 'NONE',  ( 1.000000000000000000, 0.0000000000000000000, 0.0000000000000000000 ) ) ;
#155 = AXIS2_PLACEMENT_3D ( 'NONE', #304, #23, #77 ) ;
#156 = UNCERTAINTY_MEASURE_WITH_UNIT (LENGTH_MEASURE( 1.000000000000000082E-05 ), #286, 'distance_accuracy_value', 'NONE');
#157 = SURFACE_STYLE_FILL_AREA ( #62 ) ;
#158 = ORIENTED_EDGE ( 'NONE', *, *, #234, .T. ) ;
#159 = CARTESIAN_POINT ( 'NONE',  ( 0.0000000000000000000, 0.0000000000000000000, 2.480315000000000047 ) ) ;
#160 = EDGE_LOOP ( 'NONE', ( #209, #48, #298, #275 ) ) ;
#161 = DIRECTION ( 'NONE',  ( 1.000000000000000000, 0.0000000000000000000, 0.0000000000000000000 ) ) ;
#162 = ORIENTED_EDGE ( 'NONE', *, *, #43, .F. ) ;
#163 = PLANE ( 'NONE',  #185 ) ;
#164 = ADVANCED_FACE ( 'NONE', ( #21 ), #121, .T. ) ;
#165 = ORIENTED_EDGE ( 'NONE', *, *, #190, .T. ) ;
#166 = CIRCLE ( 'NONE', #211, 0.1574305000000001398 ) ;
#167 = PRODUCT_DEFINITION_FORMATION_WITH_SPECIFIED_SOURCE ( 'ANY', '', #274, .NOT_KNOWN. ) ;
#168 = ORIENTED_EDGE ( 'NONE', *, *, #254, .F. ) ;
#169 = EDGE_LOOP ( 'NONE', ( #105, #71, #158, #320 ) ) ;
#170 =( NAMED_UNIT ( * ) SI_UNIT ( $, .STERADIAN. ) SOLID_ANGLE_UNIT ( ) );
#171 = ADVANCED_FACE ( 'NONE', ( #235 ), #200, .F. ) ;
#172 = DIRECTION ( 'NONE',  ( 0.0000000000000000000, 0.0000000000000000000, 1.000000000000000000 ) ) ;
#173 = EDGE_CURVE ( 'NONE', #49, #249, #218, .T. ) ;
#174 = VECTOR ( 'NONE', #241, 39.37007874015748143 ) ;
#175 = CONICAL_SURFACE ( 'NONE', #24, 0.1424804999999990940, 0.7853981633974699283 ) ;
#176 = FACE_OUTER_BOUND ( 'NONE', #315, .T. ) ;
#177 = CARTESIAN_POINT ( 'NONE',  ( 0.0000000000000000000, 0.0000000000000000000, 2.480315000000000047 ) ) ;
#178 = AXIS2_PLACEMENT_3D ( 'NONE', #101, #201, #306 ) ;
#179 = ORIENTED_EDGE ( 'NONE', *, *, #212, .F. ) ;
#180 = LENGTH_MEASURE_WITH_UNIT ( LENGTH_MEASURE( 0.02539999999999999897 ), #109 );
#181 =( LENGTH_UNIT ( ) NAMED_UNIT ( * ) SI_UNIT ( $, .METRE. ) );
#182 = VERTEX_POINT ( 'NONE', #230 ) ;
#183 = ADVANCED_FACE ( 'NONE', ( #262 ), #242, .T. ) ;
#184 = DIRECTION ( 'NONE',  ( 0.7071067811865490160, 0.0000000000000000000, 0.7071067811865460184 ) ) ;
#185 = AXIS2_PLACEMENT_3D ( 'NONE', #285, #112, #45 ) ;
#186 = CONICAL_SURFACE ( 'NONE', #52, 0.007499999999999999722, 0.7853981633974503884 ) ;
#187 = CARTESIAN_POINT ( 'NONE',  ( 0.0000000000000000000, 0.0000000000000000000, 0.1499304999999994115 ) ) ;
#188 = LENGTH_MEASURE_WITH_UNIT ( LENGTH_MEASURE( 0.02539999999999999897 ), #181 );
#189 = DIRECTION ( 'NONE',  ( -0.0000000000000000000, -0.0000000000000000000, -1.000000000000000000 ) ) ;
#190 = EDGE_CURVE ( 'NONE', #252, #13, #282, .T. ) ;
#191 = EDGE_LOOP ( 'NONE', ( #72, #247, #44, #326 ) ) ;
#192 = CARTESIAN_POINT ( 'NONE',  ( 0.1574804999999999955, 1.928579902531247412E-17, 0.8661419999999999675 ) ) ;
#193 =( GEOMETRIC_REPRESENTATION_CONTEXT ( 3 ) GLOBAL_UNCERTAINTY_ASSIGNED_CONTEXT ( ( #32 ) ) GLOBAL_UNIT_ASSIGNED_CONTEXT ( ( #125, #148, #170 ) ) REPRESENTATION_CONTEXT ( 'NONE', 'WORKASPACE' ) );
#194 = ORIENTED_EDGE ( 'NONE', *, *, #271, .T. ) ;
#195 = ADVANCED_FACE ( 'NONE', ( #176 ), #129, .T. ) ;
#196 = MECHANICAL_DESIGN_GEOMETRIC_PRESENTATION_REPRESENTATION (  '', ( #68 ), #193 ) ;
#197 =( GEOMETRIC_REPRESENTATION_CONTEXT ( 3 ) GLOBAL_UNCERTAINTY_ASSIGNED_CONTEXT ( ( #156 ) ) GLOBAL_UNIT_ASSIGNED_CONTEXT ( ( #286, #132, #231 ) ) REPRESENTATION_CONTEXT ( 'NONE', 'WORKASPACE' ) );
#198 = DIRECTION ( 'NONE',  ( 0.7071067811865627828, 8.659560562355118980E-17, -0.7071067811865321406 ) ) ;
#199 = DIRECTION ( 'NONE',  ( 1.000000000000000000, 0.0000000000000000000, 0.0000000000000000000 ) ) ;
#200 = PLANE ( 'NONE',  #248 ) ;
#201 = DIRECTION ( 'NONE',  ( -0.0000000000000000000, -0.0000000000000000000, -1.000000000000000000 ) ) ;
#202 = AXIS2_PLACEMENT_3D ( 'NONE', #299, #172, #154 ) ;
#203 = DIRECTION ( 'NONE',  ( -0.0000000000000000000, -0.0000000000000000000, -1.000000000000000000 ) ) ;
#204 = EDGE_CURVE ( 'NONE', #13, #252, #46, .T. ) ;
#205 = FACE_OUTER_BOUND ( 'NONE', #118, .T. ) ;
#206 = FILL_AREA_STYLE ('',( #303 ) ) ;
#207 = ADVANCED_FACE ( 'NONE', ( #47 ), #175, .T. ) ;
#208 = CARTESIAN_POINT ( 'NONE',  ( 0.0000000000000000000, 0.0000000000000000000, 0.1499304999999994115 ) ) ;
#209 = ORIENTED_EDGE ( 'NONE', *, *, #271, .F. ) ;
#210 = LINE ( 'NONE', #312, #96 ) ;
#211 = AXIS2_PLACEMENT_3D ( 'NONE', #69, #136, #117 ) ;
#212 = EDGE_CURVE ( 'NONE', #59, #267, #166, .T. ) ;
#213 = DIRECTION ( 'NONE',  ( 0.0000000000000000000, 0.0000000000000000000, -1.000000000000000000 ) ) ;
#214 = EDGE_CURVE ( 'NONE', #219, #94, #73, .T. ) ;
#215 = ORIENTED_EDGE ( 'NONE', *, *, #54, .F. ) ;
#216 = DIRECTION ( 'NONE',  ( -0.0000000000000000000, -0.0000000000000000000, -1.000000000000000000 ) ) ;
#217 = CARTESIAN_POINT ( 'NONE',  ( 0.0000000000000000000, 0.0000000000000000000, 0.8661419999999999675 ) ) ;
#218 = CIRCLE ( 'NONE', #300, 0.1424804999999990940 ) ;
#219 = VERTEX_POINT ( 'NONE', #16 ) ;
#220 = CARTESIAN_POINT ( 'NONE',  ( -0.1424804999999990940, 0.0000000000000000000, 2.480315000000000047 ) ) ;
#221 = VECTOR ( 'NONE', #90, 39.37007874015748143 ) ;
#222 = CARTESIAN_POINT ( 'NONE',  ( 0.0000000000000000000, 0.0000000000000000000, 2.480315000000000047 ) ) ;
#223 =( NAMED_UNIT ( * ) SI_UNIT ( $, .STERADIAN. ) SOLID_ANGLE_UNIT ( ) );
#224 = LINE ( 'NONE', #255, #140 ) ;
#225 = CARTESIAN_POINT ( 'NONE',  ( 0.007499999999999999722, 0.0000000000000000000, 1.707404996040164512E-17 ) ) ;
#226 = APPLICATION_PROTOCOL_DEFINITION ( 'draft international standard', 'automotive_design', 1998, #82 ) ;
#227 = CYLINDRICAL_SURFACE ( 'NONE', #113, 0.1574804999999999955 ) ;
#228 = CIRCLE ( 'NONE', #276, 0.1574804999999999955 ) ;
#229 = ORIENTED_EDGE ( 'NONE', *, *, #103, .F. ) ;
#230 = CARTESIAN_POINT ( 'NONE',  ( -0.1574804999999999955, 0.0000000000000000000, 2.465314999999999923 ) ) ;
#231 =( NAMED_UNIT ( * ) SI_UNIT ( $, .STERADIAN. ) SOLID_ANGLE_UNIT ( ) );
#232 = DIRECTION ( 'NONE',  ( 0.0000000000000000000, 0.0000000000000000000, 1.000000000000000000 ) ) ;
#233 = PRODUCT_DEFINITION_CONTEXT ( 'detailed design', #123, 'design' ) ;
#234 = EDGE_CURVE ( 'NONE', #252, #137, #88, .T. ) ;
#235 = FACE_OUTER_BOUND ( 'NONE', #92, .T. ) ;
#236 = CARTESIAN_POINT ( 'NONE',  ( 0.0000000000000000000, 0.0000000000000000000, 1.707404996040164512E-17 ) ) ;
#237 = DIRECTION ( 'NONE',  ( -0.7071067811865490160, 8.659560562354951347E-17, 0.7071067811865460184 ) ) ;
#238 =( LENGTH_UNIT ( ) NAMED_UNIT ( * ) SI_UNIT ( $, .METRE. ) );
#239 = COLOUR_RGB ( '',0.7921568627450980005, 0.8196078431372548767, 0.9333333333333333481 ) ;
#240 = CARTESIAN_POINT ( 'NONE',  ( -0.1574305000000001398, 0.0000000000000000000, 0.8661419999999999675 ) ) ;
#241 = DIRECTION ( 'NONE',  ( -0.0000000000000000000, -0.0000000000000000000, -1.000000000000000000 ) ) ;
#242 = CONICAL_SURFACE ( 'NONE', #328, 0.007499999999999999722, 0.7853981633974503884 ) ;
#243 = SURFACE_SIDE_STYLE ('',( #157 ) ) ;
#244 = ORIENTED_EDGE ( 'NONE', *, *, #83, .F. ) ;
#245 = DIRECTION ( 'NONE',  ( 0.0000000000000000000, 0.0000000000000000000, 1.000000000000000000 ) ) ;
#246 = VERTEX_POINT ( 'NONE', #115 ) ;
#247 = ORIENTED_EDGE ( 'NONE', *, *, #305, .T. ) ;
#248 = AXIS2_PLACEMENT_3D ( 'NONE', #56, #232, #151 ) ;
#249 = VERTEX_POINT ( 'NONE', #27 ) ;
#250 = CARTESIAN_POINT ( 'NONE',  ( 0.0000000000000000000, 0.0000000000000000000, 2.480315000000000047 ) ) ;
#251 = DIRECTION ( 'NONE',  ( -1.000000000000000000, 0.0000000000000000000, 0.0000000000000000000 ) ) ;
#252 = VERTEX_POINT ( 'NONE', #122 ) ;
#253 = CIRCLE ( 'NONE', #102, 0.1574305000000001398 ) ;
#254 = EDGE_CURVE ( 'NONE', #249, #7, #297, .T. ) ;
#255 = CARTESIAN_POINT ( 'NONE',  ( -0.1424804999999990940, 0.0000000000000000000, 2.480315000000000047 ) ) ;
#256 = DIRECTION ( 'NONE',  ( -1.000000000000000000, 0.0000000000000000000, 0.0000000000000000000 ) ) ;
#257 = ADVANCED_BREP_SHAPE_REPRESENTATION ( 'Micro_DMM-080-290X', ( #143, #318 ), #197 ) ;
#258 = CARTESIAN_POINT ( 'NONE',  ( 0.1424804999999990940, 1.744882882659133128E-17, 2.480315000000000047 ) ) ;
#259 = FACE_OUTER_BOUND ( 'NONE', #191, .T. ) ;
#260 = AXIS2_PLACEMENT_3D ( 'NONE', #141, #268, #251 ) ;
#261 = MECHANICAL_DESIGN_GEOMETRIC_PRESENTATION_REPRESENTATION (  '', ( #307 ), #107 ) ;
#262 = FACE_OUTER_BOUND ( 'NONE', #169, .T. ) ;
#263 = LINE ( 'NONE', #104, #301 ) ;
#264 = ORIENTED_EDGE ( 'NONE', *, *, #292, .T. ) ;
#265 = ORIENTED_EDGE ( 'NONE', *, *, #19, .F. ) ;
#266 = ORIENTED_EDGE ( 'NONE', *, *, #2, .T. ) ;
#267 = VERTEX_POINT ( 'NONE', #240 ) ;
#268 = DIRECTION ( 'NONE',  ( -0.0000000000000000000, -0.0000000000000000000, -1.000000000000000000 ) ) ;
#269 = DIRECTION ( 'NONE',  ( -1.000000000000000000, 0.0000000000000000000, 0.0000000000000000000 ) ) ;
#270 = APPLICATION_PROTOCOL_DEFINITION ( 'draft international standard', 'automotive_design', 1998, #123 ) ;
#271 = EDGE_CURVE ( 'NONE', #59, #137, #110, .T. ) ;
#272 = DIRECTION ( 'NONE',  ( 0.0000000000000000000, 0.0000000000000000000, -1.000000000000000000 ) ) ;
#273 = ORIENTED_EDGE ( 'NONE', *, *, #83, .T. ) ;
#274 = PRODUCT ( 'Micro_DMM-080-290X', 'Micro_DMM-080-290X', '', ( #93 ) ) ;
#275 = ORIENTED_EDGE ( 'NONE', *, *, #135, .F. ) ;
#276 = AXIS2_PLACEMENT_3D ( 'NONE', #321, #130, #108 ) ;
#277 = DIRECTION ( 'NONE',  ( -1.000000000000000000, 0.0000000000000000000, 0.0000000000000000000 ) ) ;
#278 = CARTESIAN_POINT ( 'NONE',  ( 0.0000000000000000000, 0.0000000000000000000, 1.707404996040164512E-17 ) ) ;
#279 = FACE_OUTER_BOUND ( 'NONE', #37, .T. ) ;
#280 = DIRECTION ( 'NONE',  ( -1.000000000000000000, 0.0000000000000000000, 0.0000000000000000000 ) ) ;
#281 = ORIENTED_EDGE ( 'NONE', *, *, #5, .F. ) ;
#282 = CIRCLE ( 'NONE', #178, 0.007499999999999999722 ) ;
#283 = EDGE_LOOP ( 'NONE', ( #97, #17, #266, #244 ) ) ;
#284 = DIRECTION ( 'NONE',  ( -0.0000000000000000000, -0.0000000000000000000, -1.000000000000000000 ) ) ;
#285 = CARTESIAN_POINT ( 'NONE',  ( 0.1574305000000001398, 0.0000000000000000000, 0.8661419999999999675 ) ) ;
#286 =( CONVERSION_BASED_UNIT ( 'INCH', #180 ) LENGTH_UNIT ( ) NAMED_UNIT ( #99 ) );
#287 = ORIENTED_EDGE ( 'NONE', *, *, #22, .T. ) ;
#288 = CIRCLE ( 'NONE', #145, 0.1574804999999999955 ) ;
#289 = PRESENTATION_LAYER_ASSIGNMENT (  '', '', ( #68 ) ) ;
#290 = DIRECTION ( 'NONE',  ( -1.000000000000000000, 0.0000000000000000000, 0.0000000000000000000 ) ) ;
#291 = DIRECTION ( 'NONE',  ( -1.000000000000000000, 0.0000000000000000000, 0.0000000000000000000 ) ) ;
#292 = EDGE_CURVE ( 'NONE', #49, #182, #224, .T. ) ;
#293 = CARTESIAN_POINT ( 'NONE',  ( 0.0000000000000000000, 0.0000000000000000000, 0.8661419999999999675 ) ) ;
#294 = DIRECTION ( 'NONE',  ( 1.000000000000000000, 0.0000000000000000000, 0.0000000000000000000 ) ) ;
#295 = PRODUCT_RELATED_PRODUCT_CATEGORY ( 'part', '', ( #274 ) ) ;
#296 = AXIS2_PLACEMENT_3D ( 'NONE', #208, #284, #65 ) ;
#297 = LINE ( 'NONE', #258, #76 ) ;
#298 = ORIENTED_EDGE ( 'NONE', *, *, #317, .T. ) ;
#299 = CARTESIAN_POINT ( 'NONE',  ( 0.0000000000000000000, 0.0000000000000000000, 2.480315000000000047 ) ) ;
#300 = AXIS2_PLACEMENT_3D ( 'NONE', #177, #124, #119 ) ;
#301 = VECTOR ( 'NONE', #237, 39.37007874015748143 ) ;
#302 = CARTESIAN_POINT ( 'NONE',  ( 0.0000000000000000000, 0.0000000000000000000, 1.707404996040164512E-17 ) ) ;
#303 = FILL_AREA_STYLE_COLOUR ( '', #126 ) ;
#304 = CARTESIAN_POINT ( 'NONE',  ( 0.0000000000000000000, 0.0000000000000000000, 2.480315000000000047 ) ) ;
#305 = EDGE_CURVE ( 'NONE', #13, #246, #263, .T. ) ;
#306 = DIRECTION ( 'NONE',  ( -1.000000000000000000, 0.0000000000000000000, 0.0000000000000000000 ) ) ;
#307 = STYLED_ITEM ( 'NONE', ( #64 ), #257 ) ;
#308 = PRODUCT_DEFINITION ( 'UNKNOWN', '', #167, #233 ) ;
#309 = CYLINDRICAL_SURFACE ( 'NONE', #316, 0.1574305000000000843 ) ;
#310 = CARTESIAN_POINT ( 'NONE',  ( 0.1574804999999999955, 1.928579902531247412E-17, 2.465314999999999923 ) ) ;
#311 = ADVANCED_FACE ( 'NONE', ( #205 ), #60, .T. ) ;
#312 = CARTESIAN_POINT ( 'NONE',  ( -0.1574305000000000843, 0.0000000000000000000, 0.0000000000000000000 ) ) ;
#313 = LINE ( 'NONE', #89, #4 ) ;
#314 = EDGE_LOOP ( 'NONE', ( #142, #194, #162, #128 ) ) ;
#315 = EDGE_LOOP ( 'NONE', ( #168, #87, #264, #265 ) ) ;
#316 = AXIS2_PLACEMENT_3D ( 'NONE', #28, #80, #25 ) ;
#317 = EDGE_CURVE ( 'NONE', #267, #246, #210, .T. ) ;
#318 = AXIS2_PLACEMENT_3D ( 'NONE', #322, #245, #294 ) ;
#319 = PRODUCT_DEFINITION_SHAPE ( 'NONE', 'NONE',  #308 ) ;
#320 = ORIENTED_EDGE ( 'NONE', *, *, #135, .T. ) ;
#321 = CARTESIAN_POINT ( 'NONE',  ( 0.0000000000000000000, 0.0000000000000000000, 2.465314999999999923 ) ) ;
#322 = CARTESIAN_POINT ( 'NONE',  ( 0.0000000000000000000, 0.0000000000000000000, 0.0000000000000000000 ) ) ;
#323 = SHAPE_DEFINITION_REPRESENTATION ( #319, #257 ) ;
#324 = DIRECTION ( 'NONE',  ( -1.000000000000000000, 0.0000000000000000000, 0.0000000000000000000 ) ) ;
#325 = ORIENTED_EDGE ( 'NONE', *, *, #2, .F. ) ;
#326 = ORIENTED_EDGE ( 'NONE', *, *, #234, .F. ) ;
#327 = DIRECTION ( 'NONE',  ( 1.000000000000000000, 0.0000000000000000000, 0.0000000000000000000 ) ) ;
#328 = AXIS2_PLACEMENT_3D ( 'NONE', #236, #1, #327 ) ;
#329 = DIRECTION ( 'NONE',  ( -0.0000000000000000000, -0.0000000000000000000, -1.000000000000000000 ) ) ;
ENDSEC;
END-ISO-10303-21;
