ISO-10303-21;
HEADER;
FILE_DESCRIPTION (( 'STEP AP214' ),
    '1' );
FILE_NAME ('Micro_AECM-0605-4X.STEP',
    '2021-09-03T16:57:50',
    ( '' ),
    ( '' ),
    'SwSTEP 2.0',
    'SolidWorks 2020',
    '' );
FILE_SCHEMA (( 'AUTOMOTIVE_DESIGN' ));
ENDSEC;

DATA;
#1 = DIRECTION ( 'NONE',  ( 0.0000000000000000000, 0.0000000000000000000, -1.000000000000000000 ) ) ;
#2 = EDGE_LOOP ( 'NONE', ( #342, #188, #220, #349 ) ) ;
#3 = CARTESIAN_POINT ( 'NONE',  ( -0.1179918899999999049, 1.445707119305702357E-17, 0.6299209999999999532 ) ) ;
#4 = FILL_AREA_STYLE_COLOUR ( '', #339 ) ;
#5 = AXIS2_PLACEMENT_3D ( 'NONE', #57, #166, #255 ) ;
#6 = FACE_OUTER_BOUND ( 'NONE', #189, .T. ) ;
#7 = CARTESIAN_POINT ( 'NONE',  ( -0.1181100000000000066, 0.0000000000000000000, 2.229093999999999465 ) ) ;
#8 = PRODUCT ( 'Micro_AECM-0605-4X', 'Micro_AECM-0605-4X', '', ( #15 ) ) ;
#9 = DIRECTION ( 'NONE',  ( 0.0000000000000000000, 0.0000000000000000000, -1.000000000000000000 ) ) ;
#10 = DIRECTION ( 'NONE',  ( 1.000000000000000000, 0.0000000000000000000, -0.0000000000000000000 ) ) ;
#11 = DIRECTION ( 'NONE',  ( 0.0000000000000000000, 0.0000000000000000000, -1.000000000000000000 ) ) ;
#12 = CARTESIAN_POINT ( 'NONE',  ( 0.09830688999999999400, 0.0000000000000000000, 0.01968500000000000111 ) ) ;
#13 = STYLED_ITEM ( 'NONE', ( #224 ), #184 ) ;
#14 = CARTESIAN_POINT ( 'NONE',  ( 7.722510477716240475E-17, 0.0000000000000000000, 0.6305908350957151187 ) ) ;
#15 = PRODUCT_CONTEXT ( 'NONE', #99, 'mechanical' ) ;
#16 = EDGE_LOOP ( 'NONE', ( #218, #213, #25, #69 ) ) ;
#17 = VECTOR ( 'NONE', #290, 39.37007874015748854 ) ;
#18 = AXIS2_PLACEMENT_3D ( 'NONE', #284, #330, #302 ) ;
#19 = ORIENTED_EDGE ( 'NONE', *, *, #48, .F. ) ;
#20 =( LENGTH_UNIT ( ) NAMED_UNIT ( * ) SI_UNIT ( $, .METRE. ) );
#21 = DIRECTION ( 'NONE',  ( 1.000000000000000000, 0.0000000000000000000, 0.0000000000000000000 ) ) ;
#22 = AXIS2_PLACEMENT_3D ( 'NONE', #79, #74, #21 ) ;
#23 = FACE_OUTER_BOUND ( 'NONE', #164, .T. ) ;
#24 = CYLINDRICAL_SURFACE ( 'NONE', #327, 0.1179918899999999882 ) ;
#25 = ORIENTED_EDGE ( 'NONE', *, *, #48, .T. ) ;
#26 = CARTESIAN_POINT ( 'NONE',  ( 0.0000000000000000000, 0.0000000000000000000, 0.0000000000000000000 ) ) ;
#27 = ORIENTED_EDGE ( 'NONE', *, *, #264, .F. ) ;
#28 = EDGE_CURVE ( 'NONE', #269, #113, #295, .T. ) ;
#29 = EDGE_LOOP ( 'NONE', ( #215, #318 ) ) ;
#30 = DIRECTION ( 'NONE',  ( 0.0000000000000000000, 0.0000000000000000000, 1.000000000000000000 ) ) ;
#31 = ORIENTED_EDGE ( 'NONE', *, *, #28, .F. ) ;
#32 = DIRECTION ( 'NONE',  ( 1.000000000000000000, 0.0000000000000000000, -0.0000000000000000000 ) ) ;
#33 = ADVANCED_FACE ( 'NONE', ( #247 ), #351, .T. ) ;
#34 = AXIS2_PLACEMENT_3D ( 'NONE', #90, #333, #253 ) ;
#35 = LINE ( 'NONE', #116, #217 ) ;
#36 = FACE_OUTER_BOUND ( 'NONE', #16, .T. ) ;
#37 = CARTESIAN_POINT ( 'NONE',  ( 2.410717224121564627E-18, 0.0000000000000000000, 0.0000000000000000000 ) ) ;
#38 = DIRECTION ( 'NONE',  ( 1.000000000000000000, 0.0000000000000000000, 0.0000000000000000000 ) ) ;
#39 = DIRECTION ( 'NONE',  ( 1.000000000000000000, 0.0000000000000000000, 0.0000000000000000000 ) ) ;
#40 = CARTESIAN_POINT ( 'NONE',  ( 7.714307363656999460E-17, 0.0000000000000000000, 0.6299209999999999532 ) ) ;
#41 = CARTESIAN_POINT ( 'NONE',  ( 0.0000000000000000000, 0.0000000000000000000, 2.244094000000000033 ) ) ;
#42 = ADVANCED_FACE ( 'NONE', ( #23 ), #122, .T. ) ;
#43 =( NAMED_UNIT ( * ) PLANE_ANGLE_UNIT ( ) SI_UNIT ( $, .RADIAN. ) );
#44 = LENGTH_MEASURE_WITH_UNIT ( LENGTH_MEASURE( 0.02539999999999999897 ), #20 );
#45 = LENGTH_MEASURE_WITH_UNIT ( LENGTH_MEASURE( 0.02539999999999999897 ), #210 );
#46 = AXIS2_PLACEMENT_3D ( 'NONE', #273, #298, #303 ) ;
#47 = DIRECTION ( 'NONE',  ( -0.1736481776669312471, 2.126576849575783933E-17, 0.9848077530122077983 ) ) ;
#48 = EDGE_CURVE ( 'NONE', #221, #73, #235, .T. ) ;
#49 = ORIENTED_EDGE ( 'NONE', *, *, #129, .T. ) ;
#50 = AXIS2_PLACEMENT_3D ( 'NONE', #331, #223, #328 ) ;
#51 = EDGE_LOOP ( 'NONE', ( #244, #49, #19, #193 ) ) ;
#52 = ORIENTED_EDGE ( 'NONE', *, *, #28, .T. ) ;
#53 = EDGE_LOOP ( 'NONE', ( #108, #324, #128, #323 ) ) ;
#54 = CIRCLE ( 'NONE', #84, 0.1031100000000002570 ) ;
#55 =( CONVERSION_BASED_UNIT ( 'INCH', #125 ) LENGTH_UNIT ( ) NAMED_UNIT ( #63 ) );
#56 = VERTEX_POINT ( 'NONE', #65 ) ;
#57 = CARTESIAN_POINT ( 'NONE',  ( 7.714307363656999460E-17, 0.0000000000000000000, 0.6299209999999999532 ) ) ;
#58 = CARTESIAN_POINT ( 'NONE',  ( 0.0000000000000000000, 0.0000000000000000000, 2.244094000000000033 ) ) ;
#59 = CARTESIAN_POINT ( 'NONE',  ( 0.1181100000000000066, 1.446430334472939084E-17, 2.244094000000000033 ) ) ;
#60 = CIRCLE ( 'NONE', #178, 0.1179918899999999882 ) ;
#61 = DIRECTION ( 'NONE',  ( -1.000000000000000000, 0.0000000000000000000, 0.0000000000000000000 ) ) ;
#62 = LINE ( 'NONE', #66, #162 ) ;
#63 = DIMENSIONAL_EXPONENTS ( 1.000000000000000000, 0.0000000000000000000, 0.0000000000000000000, 0.0000000000000000000, 0.0000000000000000000, 0.0000000000000000000, 0.0000000000000000000 ) ;
#64 = DIRECTION ( 'NONE',  ( -0.0000000000000000000, -0.0000000000000000000, -1.000000000000000000 ) ) ;
#65 = CARTESIAN_POINT ( 'NONE',  ( 0.1031100000000002570, 1.354581824536888722E-17, 2.244094000000000033 ) ) ;
#66 = CARTESIAN_POINT ( 'NONE',  ( 0.1179918899999999882, 1.444983904138465938E-17, -1.444983904138465938E-17 ) ) ;
#67 = AXIS2_PLACEMENT_3D ( 'NONE', #175, #280, #334 ) ;
#68 = PRESENTATION_STYLE_ASSIGNMENT (( #130 ) ) ;
#69 = ORIENTED_EDGE ( 'NONE', *, *, #239, .F. ) ;
#70 = VECTOR ( 'NONE', #172, 39.37007874015748854 ) ;
#71 = ADVANCED_FACE ( 'NONE', ( #144 ), #315, .T. ) ;
#72 =( NAMED_UNIT ( * ) SI_UNIT ( $, .STERADIAN. ) SOLID_ANGLE_UNIT ( ) );
#73 = VERTEX_POINT ( 'NONE', #306 ) ;
#74 = DIRECTION ( 'NONE',  ( -0.0000000000000000000, -0.0000000000000000000, -1.000000000000000000 ) ) ;
#75 = CARTESIAN_POINT ( 'NONE',  ( 0.0000000000000000000, 0.0000000000000000000, 2.244094000000000033 ) ) ;
#76 = ORIENTED_EDGE ( 'NONE', *, *, #246, .T. ) ;
#77 = VECTOR ( 'NONE', #91, 39.37007874015748143 ) ;
#78 = AXIS2_PLACEMENT_3D ( 'NONE', #343, #338, #340 ) ;
#79 = CARTESIAN_POINT ( 'NONE',  ( 2.410717224121564627E-18, 0.0000000000000000000, 0.0000000000000000000 ) ) ;
#80 = EDGE_LOOP ( 'NONE', ( #294, #142, #289, #271 ) ) ;
#81 = ORIENTED_EDGE ( 'NONE', *, *, #252, .T. ) ;
#82 = DIRECTION ( 'NONE',  ( -1.000000000000000000, 0.0000000000000000000, 0.0000000000000000000 ) ) ;
#83 = ORIENTED_EDGE ( 'NONE', *, *, #287, .F. ) ;
#84 = AXIS2_PLACEMENT_3D ( 'NONE', #228, #198, #120 ) ;
#85 = CONICAL_SURFACE ( 'NONE', #101, 0.1031100000000002570, 0.7853981633974318477 ) ;
#86 = CARTESIAN_POINT ( 'NONE',  ( 0.1181100000000000066, 1.446430334472939084E-17, 2.229093999999999465 ) ) ;
#87 = DIRECTION ( 'NONE',  ( -1.224646799147353207E-16, -0.0000000000000000000, -1.000000000000000000 ) ) ;
#88 = CARTESIAN_POINT ( 'NONE',  ( 0.0000000000000000000, 0.0000000000000000000, 2.244094000000000033 ) ) ;
#89 = DIRECTION ( 'NONE',  ( 1.000000000000000000, 0.0000000000000000000, 0.0000000000000000000 ) ) ;
#90 = CARTESIAN_POINT ( 'NONE',  ( 0.0000000000000000000, 0.0000000000000000000, 2.244094000000000033 ) ) ;
#91 = DIRECTION ( 'NONE',  ( -0.0000000000000000000, -0.0000000000000000000, -1.000000000000000000 ) ) ;
#92 = PRODUCT_DEFINITION_SHAPE ( 'NONE', 'NONE',  #248 ) ;
#93 = AXIS2_PLACEMENT_3D ( 'NONE', #37, #64, #230 ) ;
#94 = COLOUR_RGB ( '',0.7921568627450980005, 0.8196078431372548767, 0.9333333333333333481 ) ;
#95 =( NAMED_UNIT ( * ) SI_UNIT ( $, .STERADIAN. ) SOLID_ANGLE_UNIT ( ) );
#96 = SURFACE_STYLE_FILL_AREA ( #123 ) ;
#97 =( LENGTH_UNIT ( ) NAMED_UNIT ( * ) SI_UNIT ( $, .METRE. ) );
#98 = ADVANCED_FACE ( 'NONE', ( #36 ), #154, .T. ) ;
#99 = APPLICATION_CONTEXT ( 'automotive_design' ) ;
#100 = VECTOR ( 'NONE', #168, 39.37007874015748143 ) ;
#101 = AXIS2_PLACEMENT_3D ( 'NONE', #88, #11, #61 ) ;
#102 = ORIENTED_EDGE ( 'NONE', *, *, #287, .T. ) ;
#103 = ORIENTED_EDGE ( 'NONE', *, *, #206, .F. ) ;
#104 = ADVANCED_FACE ( 'NONE', ( #226 ), #124, .T. ) ;
#105 = CARTESIAN_POINT ( 'NONE',  ( -0.1031100000000002570, 0.0000000000000000000, 2.244094000000000033 ) ) ;
#106 = DIRECTION ( 'NONE',  ( 0.0000000000000000000, 0.0000000000000000000, -1.000000000000000000 ) ) ;
#107 = LINE ( 'NONE', #192, #270 ) ;
#108 = ORIENTED_EDGE ( 'NONE', *, *, #171, .F. ) ;
#109 = DIRECTION ( 'NONE',  ( -1.224646799147353207E-16, -0.0000000000000000000, -1.000000000000000000 ) ) ;
#110 = CIRCLE ( 'NONE', #229, 0.01968500000000000458 ) ;
#111 = ORIENTED_EDGE ( 'NONE', *, *, #182, .F. ) ;
#112 = FACE_OUTER_BOUND ( 'NONE', #293, .T. ) ;
#113 = VERTEX_POINT ( 'NONE', #7 ) ;
#114 = VERTEX_POINT ( 'NONE', #225 ) ;
#115 = EDGE_CURVE ( 'NONE', #56, #114, #54, .T. ) ;
#116 = CARTESIAN_POINT ( 'NONE',  ( -0.1179918899999999882, 0.0000000000000000000, 1.444983904138465938E-17 ) ) ;
#117 = SURFACE_SIDE_STYLE ('',( #96 ) ) ;
#118 = AXIS2_PLACEMENT_3D ( 'NONE', #150, #281, #335 ) ;
#119 = UNCERTAINTY_MEASURE_WITH_UNIT (LENGTH_MEASURE( 1.000000000000000082E-05 ), #55, 'distance_accuracy_value', 'NONE');
#120 = DIRECTION ( 'NONE',  ( 1.000000000000000000, 0.0000000000000000000, 0.0000000000000000000 ) ) ;
#121 = DIRECTION ( 'NONE',  ( -1.000000000000000000, 0.0000000000000000000, 0.0000000000000000000 ) ) ;
#122 = PLANE ( 'NONE',  #158 ) ;
#123 = FILL_AREA_STYLE ('',( #4 ) ) ;
#124 = CONICAL_SURFACE ( 'NONE', #254, 0.1179918899999999882, 0.1745329251994339748 ) ;
#125 = LENGTH_MEASURE_WITH_UNIT ( LENGTH_MEASURE( 0.02539999999999999897 ), #97 );
#126 = LINE ( 'NONE', #231, #77 ) ;
#127 = ADVANCED_FACE ( 'NONE', ( #153 ), #134, .T. ) ;
#128 = ORIENTED_EDGE ( 'NONE', *, *, #264, .T. ) ;
#129 = EDGE_CURVE ( 'NONE', #269, #73, #274, .T. ) ;
#130 = SURFACE_STYLE_USAGE ( .BOTH. , #232 ) ;
#131 = CIRCLE ( 'NONE', #285, 0.01968500000000000111 ) ;
#132 = PRODUCT_DEFINITION_CONTEXT ( 'detailed design', #186, 'design' ) ;
#133 = VERTEX_POINT ( 'NONE', #311 ) ;
#134 = TOROIDAL_SURFACE ( 'NONE', #18, 0.09830688999999999400, 0.01968500000000000111 ) ;
#135 = LINE ( 'NONE', #241, #240 ) ;
#136 = CIRCLE ( 'NONE', #118, 0.1181100000000000066 ) ;
#137 = ORIENTED_EDGE ( 'NONE', *, *, #171, .T. ) ;
#138 = ORIENTED_EDGE ( 'NONE', *, *, #115, .T. ) ;
#139 = ORIENTED_EDGE ( 'NONE', *, *, #222, .F. ) ;
#140 = VERTEX_POINT ( 'NONE', #282 ) ;
#141 = ADVANCED_FACE ( 'NONE', ( #277 ), #148, .F. ) ;
#142 = ORIENTED_EDGE ( 'NONE', *, *, #312, .F. ) ;
#143 = PRODUCT_RELATED_PRODUCT_CATEGORY ( 'part', '', ( #8 ) ) ;
#144 = FACE_OUTER_BOUND ( 'NONE', #243, .T. ) ;
#145 = AXIS2_PLACEMENT_3D ( 'NONE', #151, #258, #251 ) ;
#146 = STYLED_ITEM ( 'NONE', ( #68 ), #181 ) ;
#147 = APPLICATION_PROTOCOL_DEFINITION ( 'draft international standard', 'automotive_design', 1998, #99 ) ;
#148 = PLANE ( 'NONE',  #207 ) ;
#149 = EDGE_CURVE ( 'NONE', #113, #221, #126, .T. ) ;
#150 = CARTESIAN_POINT ( 'NONE',  ( 0.0000000000000000000, 0.0000000000000000000, 2.229093999999999465 ) ) ;
#151 = CARTESIAN_POINT ( 'NONE',  ( 7.722510477716240475E-17, 0.0000000000000000000, 0.6305908350957151187 ) ) ;
#152 = CYLINDRICAL_SURFACE ( 'NONE', #50, 0.1179918899999999882 ) ;
#153 = FACE_OUTER_BOUND ( 'NONE', #80, .T. ) ;
#154 = CONICAL_SURFACE ( 'NONE', #5, 0.1179918899999999882, 0.1745329251994339748 ) ;
#155 = AXIS2_PLACEMENT_3D ( 'NONE', #14, #87, #205 ) ;
#156 =( NAMED_UNIT ( * ) SI_UNIT ( $, .STERADIAN. ) SOLID_ANGLE_UNIT ( ) );
#157 = PRESENTATION_LAYER_ASSIGNMENT (  '', '', ( #146 ) ) ;
#158 = AXIS2_PLACEMENT_3D ( 'NONE', #195, #300, #32 ) ;
#159 = VERTEX_POINT ( 'NONE', #257 ) ;
#160 = VERTEX_POINT ( 'NONE', #336 ) ;
#161 = ORIENTED_EDGE ( 'NONE', *, *, #129, .F. ) ;
#162 = VECTOR ( 'NONE', #177, 39.37007874015748143 ) ;
#163 = EDGE_LOOP ( 'NONE', ( #161, #52, #348, #111 ) ) ;
#164 = EDGE_LOOP ( 'NONE', ( #185, #138 ) ) ;
#165 = CARTESIAN_POINT ( 'NONE',  ( 2.410717224121565012E-18, 0.0000000000000000000, 0.01968500000000000458 ) ) ;
#166 = DIRECTION ( 'NONE',  ( 1.224646799147353207E-16, 0.0000000000000000000, 1.000000000000000000 ) ) ;
#167 = FACE_OUTER_BOUND ( 'NONE', #2, .T. ) ;
#168 = DIRECTION ( 'NONE',  ( -0.0000000000000000000, -0.0000000000000000000, -1.000000000000000000 ) ) ;
#169 = CIRCLE ( 'NONE', #22, 0.09830688999999999400 ) ;
#170 = CIRCLE ( 'NONE', #145, 0.1181100000000000066 ) ;
#171 = EDGE_CURVE ( 'NONE', #160, #267, #62, .T. ) ;
#172 = DIRECTION ( 'NONE',  ( 0.7071067811865358044, 8.659560562354788645E-17, -0.7071067811865590080 ) ) ;
#173 = DIRECTION ( 'NONE',  ( 0.0000000000000000000, 0.0000000000000000000, 1.000000000000000000 ) ) ;
#174 = CARTESIAN_POINT ( 'NONE',  ( 0.1179918899999999882, 1.444983904138465938E-17, 0.01968500000000000458 ) ) ;
#175 = CARTESIAN_POINT ( 'NONE',  ( 2.410717224121564627E-18, 0.0000000000000000000, 0.01968500000000000111 ) ) ;
#176 = EDGE_CURVE ( 'NONE', #114, #56, #286, .T. ) ;
#177 = DIRECTION ( 'NONE',  ( -1.224646799147353207E-16, -0.0000000000000000000, -1.000000000000000000 ) ) ;
#178 = AXIS2_PLACEMENT_3D ( 'NONE', #329, #30, #201 ) ;
#179 = SHAPE_DEFINITION_REPRESENTATION ( #92, #181 ) ;
#180 = UNCERTAINTY_MEASURE_WITH_UNIT (LENGTH_MEASURE( 1.000000000000000082E-05 ), #211, 'distance_accuracy_value', 'NONE');
#181 = ADVANCED_BREP_SHAPE_REPRESENTATION ( 'Micro_AECM-0605-4X', ( #184, #78 ), #256 ) ;
#182 = EDGE_CURVE ( 'NONE', #73, #221, #170, .T. ) ;
#183 = AXIS2_PLACEMENT_3D ( 'NONE', #268, #322, #82 ) ;
#184 = MANIFOLD_SOLID_BREP ( 'Fillet1', #259 ) ;
#185 = ORIENTED_EDGE ( 'NONE', *, *, #176, .T. ) ;
#186 = APPLICATION_CONTEXT ( 'automotive_design' ) ;
#187 = DIRECTION ( 'NONE',  ( -0.0000000000000000000, -0.0000000000000000000, -1.000000000000000000 ) ) ;
#188 = ORIENTED_EDGE ( 'NONE', *, *, #297, .T. ) ;
#189 = EDGE_LOOP ( 'NONE', ( #326, #272, #76, #31 ) ) ;
#190 = ORIENTED_EDGE ( 'NONE', *, *, #182, .T. ) ;
#191 = EDGE_CURVE ( 'NONE', #133, #267, #131, .T. ) ;
#192 = CARTESIAN_POINT ( 'NONE',  ( -0.1179918899999999049, 1.444983904138465938E-17, 0.6299209999999999532 ) ) ;
#193 = ORIENTED_EDGE ( 'NONE', *, *, #149, .F. ) ;
#194 = LINE ( 'NONE', #227, #70 ) ;
#195 = CARTESIAN_POINT ( 'NONE',  ( 0.0000000000000000000, 0.0000000000000000000, 2.244094000000000033 ) ) ;
#196 =( NAMED_UNIT ( * ) PLANE_ANGLE_UNIT ( ) SI_UNIT ( $, .RADIAN. ) );
#197 = FACE_OUTER_BOUND ( 'NONE', #163, .T. ) ;
#198 = DIRECTION ( 'NONE',  ( 0.0000000000000000000, 0.0000000000000000000, 1.000000000000000000 ) ) ;
#199 = CIRCLE ( 'NONE', #46, 0.1179918899999999882 ) ;
#200 = ADVANCED_FACE ( 'NONE', ( #112 ), #24, .T. ) ;
#201 = DIRECTION ( 'NONE',  ( 1.000000000000000000, 0.0000000000000000000, 0.0000000000000000000 ) ) ;
#202 = SURFACE_STYLE_USAGE ( .BOTH. , #117 ) ;
#203 = EDGE_CURVE ( 'NONE', #160, #320, #261, .T. ) ;
#204 = FILL_AREA_STYLE ('',( #233 ) ) ;
#205 = DIRECTION ( 'NONE',  ( 1.000000000000000000, 0.0000000000000000000, 0.0000000000000000000 ) ) ;
#206 = EDGE_CURVE ( 'NONE', #320, #221, #107, .T. ) ;
#207 = AXIS2_PLACEMENT_3D ( 'NONE', #332, #260, #10 ) ;
#208 = AXIS2_PLACEMENT_3D ( 'NONE', #58, #9, #121 ) ;
#209 = SURFACE_STYLE_FILL_AREA ( #204 ) ;
#210 =( LENGTH_UNIT ( ) NAMED_UNIT ( * ) SI_UNIT ( $, .METRE. ) );
#211 =( CONVERSION_BASED_UNIT ( 'INCH', #44 ) LENGTH_UNIT ( ) NAMED_UNIT ( #301 ) );
#212 = MECHANICAL_DESIGN_GEOMETRIC_PRESENTATION_REPRESENTATION (  '', ( #146 ), #236 ) ;
#213 = ORIENTED_EDGE ( 'NONE', *, *, #206, .T. ) ;
#214 = DIRECTION ( 'NONE',  ( 1.224646799147353207E-16, 1.000000000000000000, -0.0000000000000000000 ) ) ;
#215 = ORIENTED_EDGE ( 'NONE', *, *, #312, .T. ) ;
#216 = CARTESIAN_POINT ( 'NONE',  ( 0.0000000000000000000, 0.0000000000000000000, 2.229093999999999465 ) ) ;
#217 = VECTOR ( 'NONE', #279, 39.37007874015748143 ) ;
#218 = ORIENTED_EDGE ( 'NONE', *, *, #310, .F. ) ;
#219 = CARTESIAN_POINT ( 'NONE',  ( -0.09830688999999999400, 1.203912181726309167E-17, 0.01968500000000000111 ) ) ;
#220 = ORIENTED_EDGE ( 'NONE', *, *, #319, .F. ) ;
#221 = VERTEX_POINT ( 'NONE', #265 ) ;
#222 = EDGE_CURVE ( 'NONE', #140, #133, #169, .T. ) ;
#223 = DIRECTION ( 'NONE',  ( -1.224646799147353207E-16, -0.0000000000000000000, -1.000000000000000000 ) ) ;
#224 = PRESENTATION_STYLE_ASSIGNMENT (( #202 ) ) ;
#225 = CARTESIAN_POINT ( 'NONE',  ( -0.1031100000000002570, 0.0000000000000000000, 2.244094000000000033 ) ) ;
#226 = FACE_OUTER_BOUND ( 'NONE', #237, .T. ) ;
#227 = CARTESIAN_POINT ( 'NONE',  ( 0.1031100000000002570, 1.262733314600838667E-17, 2.244094000000000033 ) ) ;
#228 = CARTESIAN_POINT ( 'NONE',  ( 0.0000000000000000000, 0.0000000000000000000, 2.244094000000000033 ) ) ;
#229 = AXIS2_PLACEMENT_3D ( 'NONE', #219, #214, #317 ) ;
#230 = DIRECTION ( 'NONE',  ( 1.000000000000000000, 0.0000000000000000000, 0.0000000000000000000 ) ) ;
#231 = CARTESIAN_POINT ( 'NONE',  ( -0.1181100000000000066, 0.0000000000000000000, 2.244094000000000033 ) ) ;
#232 = SURFACE_SIDE_STYLE ('',( #209 ) ) ;
#233 = FILL_AREA_STYLE_COLOUR ( '', #94 ) ;
#234 = UNCERTAINTY_MEASURE_WITH_UNIT (LENGTH_MEASURE( 1.000000000000000082E-05 ), #238, 'distance_accuracy_value', 'NONE');
#235 = CIRCLE ( 'NONE', #155, 0.1181100000000000066 ) ;
#236 =( GEOMETRIC_REPRESENTATION_CONTEXT ( 3 ) GLOBAL_UNCERTAINTY_ASSIGNED_CONTEXT ( ( #180 ) ) GLOBAL_UNIT_ASSIGNED_CONTEXT ( ( #211, #43, #156 ) ) REPRESENTATION_CONTEXT ( 'NONE', 'WORKASPACE' ) );
#237 = EDGE_LOOP ( 'NONE', ( #103, #249, #263, #190 ) ) ;
#238 =( CONVERSION_BASED_UNIT ( 'INCH', #45 ) LENGTH_UNIT ( ) NAMED_UNIT ( #283 ) );
#239 = EDGE_CURVE ( 'NONE', #160, #73, #135, .T. ) ;
#240 = VECTOR ( 'NONE', #345, 39.37007874015748143 ) ;
#241 = CARTESIAN_POINT ( 'NONE',  ( 0.1179918900000000853, 0.0000000000000000000, 0.6299209999999999532 ) ) ;
#242 = DIRECTION ( 'NONE',  ( -1.000000000000000000, 0.0000000000000000000, 1.224646799147353454E-16 ) ) ;
#243 = EDGE_LOOP ( 'NONE', ( #139, #81, #83, #299 ) ) ;
#244 = ORIENTED_EDGE ( 'NONE', *, *, #319, .T. ) ;
#245 = CIRCLE ( 'NONE', #93, 0.09830688999999999400 ) ;
#246 = EDGE_CURVE ( 'NONE', #114, #113, #292, .T. ) ;
#247 = FACE_OUTER_BOUND ( 'NONE', #51, .T. ) ;
#248 = PRODUCT_DEFINITION ( 'UNKNOWN', '', #278, #132 ) ;
#249 = ORIENTED_EDGE ( 'NONE', *, *, #203, .F. ) ;
#250 = FACE_OUTER_BOUND ( 'NONE', #53, .T. ) ;
#251 = DIRECTION ( 'NONE',  ( 1.000000000000000000, 0.0000000000000000000, 0.0000000000000000000 ) ) ;
#252 = EDGE_CURVE ( 'NONE', #140, #159, #110, .T. ) ;
#253 = DIRECTION ( 'NONE',  ( -1.000000000000000000, 0.0000000000000000000, 0.0000000000000000000 ) ) ;
#254 = AXIS2_PLACEMENT_3D ( 'NONE', #40, #309, #89 ) ;
#255 = DIRECTION ( 'NONE',  ( 1.000000000000000000, 0.0000000000000000000, 0.0000000000000000000 ) ) ;
#256 =( GEOMETRIC_REPRESENTATION_CONTEXT ( 3 ) GLOBAL_UNCERTAINTY_ASSIGNED_CONTEXT ( ( #119 ) ) GLOBAL_UNIT_ASSIGNED_CONTEXT ( ( #55, #196, #95 ) ) REPRESENTATION_CONTEXT ( 'NONE', 'WORKASPACE' ) );
#257 = CARTESIAN_POINT ( 'NONE',  ( -0.1179918899999999882, 0.0000000000000000000, 0.01968500000000000458 ) ) ;
#258 = DIRECTION ( 'NONE',  ( -1.224646799147353207E-16, -0.0000000000000000000, -1.000000000000000000 ) ) ;
#259 = CLOSED_SHELL ( 'NONE', ( #71, #200, #98, #337, #33, #347, #42, #316, #104, #325, #141, #127 ) ) ;
#260 = DIRECTION ( 'NONE',  ( 0.0000000000000000000, 0.0000000000000000000, 1.000000000000000000 ) ) ;
#261 = CIRCLE ( 'NONE', #183, 0.1179918899999999882 ) ;
#262 = AXIS2_PLACEMENT_3D ( 'NONE', #216, #106, #291 ) ;
#263 = ORIENTED_EDGE ( 'NONE', *, *, #239, .T. ) ;
#264 = EDGE_CURVE ( 'NONE', #320, #159, #35, .T. ) ;
#265 = CARTESIAN_POINT ( 'NONE',  ( -0.1181099999999999234, 0.0000000000000000000, 0.6305908350957151187 ) ) ;
#266 = DIRECTION ( 'NONE',  ( -1.000000000000000000, 0.0000000000000000000, 0.0000000000000000000 ) ) ;
#267 = VERTEX_POINT ( 'NONE', #174 ) ;
#268 = CARTESIAN_POINT ( 'NONE',  ( 7.714307363656999460E-17, 0.0000000000000000000, 0.6299209999999999532 ) ) ;
#269 = VERTEX_POINT ( 'NONE', #86 ) ;
#270 = VECTOR ( 'NONE', #47, 39.37007874015748143 ) ;
#271 = ORIENTED_EDGE ( 'NONE', *, *, #307, .F. ) ;
#272 = ORIENTED_EDGE ( 'NONE', *, *, #176, .F. ) ;
#273 = CARTESIAN_POINT ( 'NONE',  ( 7.714307363656999460E-17, 0.0000000000000000000, 0.6299209999999999532 ) ) ;
#274 = LINE ( 'NONE', #59, #100 ) ;
#275 = CYLINDRICAL_SURFACE ( 'NONE', #34, 0.1181100000000000066 ) ;
#276 =( GEOMETRIC_REPRESENTATION_CONTEXT ( 3 ) GLOBAL_UNCERTAINTY_ASSIGNED_CONTEXT ( ( #234 ) ) GLOBAL_UNIT_ASSIGNED_CONTEXT ( ( #238, #341, #72 ) ) REPRESENTATION_CONTEXT ( 'NONE', 'WORKASPACE' ) );
#277 = FACE_OUTER_BOUND ( 'NONE', #29, .T. ) ;
#278 = PRODUCT_DEFINITION_FORMATION_WITH_SPECIFIED_SOURCE ( 'ANY', '', #8, .NOT_KNOWN. ) ;
#279 = DIRECTION ( 'NONE',  ( -1.224646799147353207E-16, -0.0000000000000000000, -1.000000000000000000 ) ) ;
#280 = DIRECTION ( 'NONE',  ( 0.0000000000000000000, 0.0000000000000000000, 1.000000000000000000 ) ) ;
#281 = DIRECTION ( 'NONE',  ( 0.0000000000000000000, 0.0000000000000000000, -1.000000000000000000 ) ) ;
#282 = CARTESIAN_POINT ( 'NONE',  ( -0.09830688999999999400, 1.324448042932387475E-17, 0.0000000000000000000 ) ) ;
#283 = DIMENSIONAL_EXPONENTS ( 1.000000000000000000, 0.0000000000000000000, 0.0000000000000000000, 0.0000000000000000000, 0.0000000000000000000, 0.0000000000000000000, 0.0000000000000000000 ) ;
#284 = CARTESIAN_POINT ( 'NONE',  ( 2.410717224121564627E-18, 0.0000000000000000000, 0.01968500000000000111 ) ) ;
#285 = AXIS2_PLACEMENT_3D ( 'NONE', #12, #288, #1 ) ;
#286 = CIRCLE ( 'NONE', #321, 0.1031100000000002570 ) ;
#287 = EDGE_CURVE ( 'NONE', #267, #159, #60, .T. ) ;
#288 = DIRECTION ( 'NONE',  ( 0.0000000000000000000, -1.000000000000000000, 0.0000000000000000000 ) ) ;
#289 = ORIENTED_EDGE ( 'NONE', *, *, #191, .T. ) ;
#290 = DIRECTION ( 'NONE',  ( -0.7071067811865358044, 0.0000000000000000000, -0.7071067811865590080 ) ) ;
#291 = DIRECTION ( 'NONE',  ( 1.000000000000000000, 0.0000000000000000000, 0.0000000000000000000 ) ) ;
#292 = LINE ( 'NONE', #105, #17 ) ;
#293 = EDGE_LOOP ( 'NONE', ( #346, #137, #102, #27 ) ) ;
#294 = ORIENTED_EDGE ( 'NONE', *, *, #252, .F. ) ;
#295 = CIRCLE ( 'NONE', #262, 0.1181100000000000066 ) ;
#296 = AXIS2_PLACEMENT_3D ( 'NONE', #75, #187, #266 ) ;
#297 = EDGE_CURVE ( 'NONE', #56, #269, #194, .T. ) ;
#298 = DIRECTION ( 'NONE',  ( -1.224646799147353207E-16, -0.0000000000000000000, -1.000000000000000000 ) ) ;
#299 = ORIENTED_EDGE ( 'NONE', *, *, #191, .F. ) ;
#300 = DIRECTION ( 'NONE',  ( 0.0000000000000000000, 0.0000000000000000000, 1.000000000000000000 ) ) ;
#301 = DIMENSIONAL_EXPONENTS ( 1.000000000000000000, 0.0000000000000000000, 0.0000000000000000000, 0.0000000000000000000, 0.0000000000000000000, 0.0000000000000000000, 0.0000000000000000000 ) ;
#302 = DIRECTION ( 'NONE',  ( 1.000000000000000000, 0.0000000000000000000, 0.0000000000000000000 ) ) ;
#303 = DIRECTION ( 'NONE',  ( -1.000000000000000000, 0.0000000000000000000, 0.0000000000000000000 ) ) ;
#304 = CIRCLE ( 'NONE', #350, 0.1179918899999999882 ) ;
#305 = CONICAL_SURFACE ( 'NONE', #208, 0.1031100000000002570, 0.7853981633974318477 ) ;
#306 = CARTESIAN_POINT ( 'NONE',  ( 0.1181100000000000899, 1.446430334472940009E-17, 0.6305908350957151187 ) ) ;
#307 = EDGE_CURVE ( 'NONE', #159, #267, #304, .T. ) ;
#308 = DIRECTION ( 'NONE',  ( 0.0000000000000000000, 0.0000000000000000000, 1.000000000000000000 ) ) ;
#309 = DIRECTION ( 'NONE',  ( 1.224646799147353207E-16, 0.0000000000000000000, 1.000000000000000000 ) ) ;
#310 = EDGE_CURVE ( 'NONE', #320, #160, #199, .T. ) ;
#311 = CARTESIAN_POINT ( 'NONE',  ( 0.09830688999999999400, 0.0000000000000000000, 0.0000000000000000000 ) ) ;
#312 = EDGE_CURVE ( 'NONE', #133, #140, #245, .T. ) ;
#313 = PRESENTATION_LAYER_ASSIGNMENT (  '', '', ( #13 ) ) ;
#314 = APPLICATION_PROTOCOL_DEFINITION ( 'draft international standard', 'automotive_design', 1998, #186 ) ;
#315 = TOROIDAL_SURFACE ( 'NONE', #67, 0.09830688999999999400, 0.01968500000000000111 ) ;
#316 = ADVANCED_FACE ( 'NONE', ( #6 ), #85, .T. ) ;
#317 = DIRECTION ( 'NONE',  ( -1.000000000000000000, 1.224646799147352468E-16, 0.0000000000000000000 ) ) ;
#318 = ORIENTED_EDGE ( 'NONE', *, *, #222, .T. ) ;
#319 = EDGE_CURVE ( 'NONE', #113, #269, #136, .T. ) ;
#320 = VERTEX_POINT ( 'NONE', #3 ) ;
#321 = AXIS2_PLACEMENT_3D ( 'NONE', #41, #173, #38 ) ;
#322 = DIRECTION ( 'NONE',  ( -1.224646799147353207E-16, -0.0000000000000000000, -1.000000000000000000 ) ) ;
#323 = ORIENTED_EDGE ( 'NONE', *, *, #307, .T. ) ;
#324 = ORIENTED_EDGE ( 'NONE', *, *, #203, .T. ) ;
#325 = ADVANCED_FACE ( 'NONE', ( #250 ), #152, .T. ) ;
#326 = ORIENTED_EDGE ( 'NONE', *, *, #297, .F. ) ;
#327 = AXIS2_PLACEMENT_3D ( 'NONE', #26, #109, #242 ) ;
#328 = DIRECTION ( 'NONE',  ( -1.000000000000000000, 0.0000000000000000000, 1.224646799147353454E-16 ) ) ;
#329 = CARTESIAN_POINT ( 'NONE',  ( 2.410717224121565012E-18, 0.0000000000000000000, 0.01968500000000000458 ) ) ;
#330 = DIRECTION ( 'NONE',  ( 0.0000000000000000000, 0.0000000000000000000, 1.000000000000000000 ) ) ;
#331 = CARTESIAN_POINT ( 'NONE',  ( 0.0000000000000000000, 0.0000000000000000000, 0.0000000000000000000 ) ) ;
#332 = CARTESIAN_POINT ( 'NONE',  ( 0.0000000000000000000, 0.0000000000000000000, 0.0000000000000000000 ) ) ;
#333 = DIRECTION ( 'NONE',  ( -0.0000000000000000000, -0.0000000000000000000, -1.000000000000000000 ) ) ;
#334 = DIRECTION ( 'NONE',  ( 1.000000000000000000, 0.0000000000000000000, 0.0000000000000000000 ) ) ;
#335 = DIRECTION ( 'NONE',  ( 1.000000000000000000, 0.0000000000000000000, 0.0000000000000000000 ) ) ;
#336 = CARTESIAN_POINT ( 'NONE',  ( 0.1179918900000000853, 0.0000000000000000000, 0.6299209999999999532 ) ) ;
#337 = ADVANCED_FACE ( 'NONE', ( #167 ), #305, .T. ) ;
#338 = DIRECTION ( 'NONE',  ( 0.0000000000000000000, 0.0000000000000000000, 1.000000000000000000 ) ) ;
#339 = COLOUR_RGB ( '',0.7921568627450980005, 0.8196078431372548767, 0.9333333333333333481 ) ;
#340 = DIRECTION ( 'NONE',  ( 1.000000000000000000, 0.0000000000000000000, 0.0000000000000000000 ) ) ;
#341 =( NAMED_UNIT ( * ) PLANE_ANGLE_UNIT ( ) SI_UNIT ( $, .RADIAN. ) );
#342 = ORIENTED_EDGE ( 'NONE', *, *, #115, .F. ) ;
#343 = CARTESIAN_POINT ( 'NONE',  ( 0.0000000000000000000, 0.0000000000000000000, 0.0000000000000000000 ) ) ;
#344 = MECHANICAL_DESIGN_GEOMETRIC_PRESENTATION_REPRESENTATION (  '', ( #13 ), #276 ) ;
#345 = DIRECTION ( 'NONE',  ( 0.1736481776669314692, 0.0000000000000000000, 0.9848077530122077983 ) ) ;
#346 = ORIENTED_EDGE ( 'NONE', *, *, #310, .T. ) ;
#347 = ADVANCED_FACE ( 'NONE', ( #197 ), #275, .T. ) ;
#348 = ORIENTED_EDGE ( 'NONE', *, *, #149, .T. ) ;
#349 = ORIENTED_EDGE ( 'NONE', *, *, #246, .F. ) ;
#350 = AXIS2_PLACEMENT_3D ( 'NONE', #165, #308, #39 ) ;
#351 = CYLINDRICAL_SURFACE ( 'NONE', #296, 0.1181100000000000066 ) ;
ENDSEC;
END-ISO-10303-21;
