ISO-10303-21;
HEADER;
FILE_DESCRIPTION (( 'STEP AP214' ),
    '1' );
FILE_NAME ('83281.STEP',
    '2023-06-30T22:53:29',
    ( '' ),
    ( '' ),
    'SwSTEP 2.0',
    'SolidWorks 2023',
    '' );
FILE_SCHEMA (( 'AUTOMOTIVE_DESIGN' ));
ENDSEC;

DATA;
#1 = ORIENTED_EDGE ( 'NONE', *, *, #142, .T. ) ;
#2 = PRODUCT ( '83281', '83281', '', ( #113 ) ) ;
#3 = AXIS2_PLACEMENT_3D ( 'NONE', #360, #222, #216 ) ;
#4 = EDGE_LOOP ( 'NONE', ( #165, #183, #205, #125, #356 ) ) ;
#5 = CIRCLE ( 'NONE', #135, 0.09374999999999997224 ) ;
#6 = VERTEX_POINT ( 'NONE', #16 ) ;
#7 = ADVANCED_FACE ( 'NONE', ( #108 ), #306, .T. ) ;
#8 = UNCERTAINTY_MEASURE_WITH_UNIT (LENGTH_MEASURE( 1.000000000000000082E-05 ), #332, 'distance_accuracy_value', 'NONE');
#9 = ORIENTED_EDGE ( 'NONE', *, *, #88, .F. ) ;
#10 = CARTESIAN_POINT ( 'NONE',  ( -1.148106374200643401E-17, 0.09374999999999998612, 0.000000000000000000 ) ) ;
#11 = ORIENTED_EDGE ( 'NONE', *, *, #132, .T. ) ;
#12 = CIRCLE ( 'NONE', #149, 0.09375000000000001388 ) ;
#13 = PRODUCT_DEFINITION_SHAPE ( 'NONE', 'NONE',  #236 ) ;
#14 = FILL_AREA_STYLE ('',( #220 ) ) ;
#15 = DIRECTION ( 'NONE',  ( -1.632862398863137774E-16, 1.000000000000000000, -0.000000000000000000 ) ) ;
#16 = CARTESIAN_POINT ( 'NONE',  ( -5.740531871003217003E-18, 0.000000000000000000, 0.000000000000000000 ) ) ;
#17 = FILL_AREA_STYLE_COLOUR ( '', #215 ) ;
#18 = DIMENSIONAL_EXPONENTS ( 1.000000000000000000, 0.000000000000000000, 0.000000000000000000, 0.000000000000000000, 0.000000000000000000, 0.000000000000000000, 0.000000000000000000 ) ;
#19 = PLANE ( 'NONE',  #40 ) ;
#20 = EDGE_CURVE ( 'NONE', #348, #317, #84, .T. ) ;
#21 =( NAMED_UNIT ( * ) PLANE_ANGLE_UNIT ( ) SI_UNIT ( $, .RADIAN. ) );
#22 =( NAMED_UNIT ( * ) SI_UNIT ( $, .STERADIAN. ) SOLID_ANGLE_UNIT ( ) );
#23 = LINE ( 'NONE', #27, #128 ) ;
#24 = MECHANICAL_DESIGN_GEOMETRIC_PRESENTATION_REPRESENTATION (  '', ( #265 ), #336 ) ;
#25 = CARTESIAN_POINT ( 'NONE',  ( 0.000000000000000000, 0.000000000000000000, 0.000000000000000000 ) ) ;
#26 =( LENGTH_UNIT ( ) NAMED_UNIT ( * ) SI_UNIT ( $, .METRE. ) );
#27 = CARTESIAN_POINT ( 'NONE',  ( 0.09374999999999979183, 2.500000000000000000, 1.148106374200641860E-17 ) ) ;
#28 = DIRECTION ( 'NONE',  ( -1.000000000000000000, 0.000000000000000000, 0.000000000000000000 ) ) ;
#29 = CIRCLE ( 'NONE', #307, 0.09375000000000001388 ) ;
#30 = PRESENTATION_STYLE_ASSIGNMENT (( #126 ) ) ;
#31 = UNCERTAINTY_MEASURE_WITH_UNIT (LENGTH_MEASURE( 1.000000000000000082E-05 ), #76, 'distance_accuracy_value', 'NONE');
#32 = CARTESIAN_POINT ( 'NONE',  ( 1.836970198721030181E-16, 1.000000000000000000, 0.000000000000000000 ) ) ;
#33 = ORIENTED_EDGE ( 'NONE', *, *, #132, .F. ) ;
#34 = VERTEX_POINT ( 'NONE', #192 ) ;
#35 = COLOUR_RGB ( '',0.7921568627450980005, 0.8196078431372548767, 0.9333333333333333481 ) ;
#36 = SURFACE_STYLE_USAGE ( .BOTH. , #206 ) ;
#37 = EDGE_LOOP ( 'NONE', ( #345, #185, #267, #299 ) ) ;
#38 = SURFACE_SIDE_STYLE ('',( #157 ) ) ;
#39 = PRESENTATION_STYLE_ASSIGNMENT (( #199 ) ) ;
#40 = AXIS2_PLACEMENT_3D ( 'NONE', #337, #42, #45 ) ;
#41 =( NAMED_UNIT ( * ) PLANE_ANGLE_UNIT ( ) SI_UNIT ( $, .RADIAN. ) );
#42 = DIRECTION ( 'NONE',  ( 1.632862398863137774E-16, -1.000000000000000000, 0.000000000000000000 ) ) ;
#43 = CARTESIAN_POINT ( 'NONE',  ( 0.000000000000000000, 1.000000000000000000, 0.000000000000000000 ) ) ;
#44 = LENGTH_MEASURE_WITH_UNIT ( LENGTH_MEASURE( 0.02539999999999999897 ), #274 );
#45 = DIRECTION ( 'NONE',  ( 1.000000000000000000, 1.632862398863137774E-16, 0.000000000000000000 ) ) ;
#46 = STYLED_ITEM ( 'NONE', ( #83 ), #214 ) ;
#47 = FILL_AREA_STYLE ('',( #17 ) ) ;
#48 = FILL_AREA_STYLE_COLOUR ( '', #209 ) ;
#49 = SURFACE_SIDE_STYLE ('',( #339 ) ) ;
#50 = PRESENTATION_LAYER_ASSIGNMENT (  '', '', ( #217 ) ) ;
#51 = DIRECTION ( 'NONE',  ( 1.000000000000000000, 0.000000000000000000, 0.000000000000000000 ) ) ;
#52 =( GEOMETRIC_REPRESENTATION_CONTEXT ( 3 ) GLOBAL_UNCERTAINTY_ASSIGNED_CONTEXT ( ( #213 ) ) GLOBAL_UNIT_ASSIGNED_CONTEXT ( ( #134, #70, #22 ) ) REPRESENTATION_CONTEXT ( 'NONE', 'WORKASPACE' ) );
#53 = CARTESIAN_POINT ( 'NONE',  ( 0.000000000000000000, 1.000000000000000000, -0.09374999999999988898 ) ) ;
#54 = CARTESIAN_POINT ( 'NONE',  ( -1.148106374200643401E-17, 0.09374999999999998612, 0.000000000000000000 ) ) ;
#55 =( NAMED_UNIT ( * ) SI_UNIT ( $, .STERADIAN. ) SOLID_ANGLE_UNIT ( ) );
#56 = AXIS2_PLACEMENT_3D ( 'NONE', #144, #373, #117 ) ;
#57 =( LENGTH_UNIT ( ) NAMED_UNIT ( * ) SI_UNIT ( $, .METRE. ) );
#58 = EDGE_LOOP ( 'NONE', ( #211, #181, #9, #264 ) ) ;
#59 = EDGE_CURVE ( 'NONE', #154, #203, #77, .T. ) ;
#60 = DIRECTION ( 'NONE',  ( 0.000000000000000000, -0.000000000000000000, 1.000000000000000000 ) ) ;
#61 = ORIENTED_EDGE ( 'NONE', *, *, #100, .T. ) ;
#62 = ORIENTED_EDGE ( 'NONE', *, *, #176, .F. ) ;
#63 = EDGE_LOOP ( 'NONE', ( #241, #61, #269, #62, #354 ) ) ;
#64 = CIRCLE ( 'NONE', #235, 0.09374999999999997224 ) ;
#65 = FACE_OUTER_BOUND ( 'NONE', #58, .T. ) ;
#66 = UNCERTAINTY_MEASURE_WITH_UNIT (LENGTH_MEASURE( 1.000000000000000082E-05 ), #226, 'distance_accuracy_value', 'NONE');
#67 = ORIENTED_EDGE ( 'NONE', *, *, #20, .F. ) ;
#68 = FACE_OUTER_BOUND ( 'NONE', #63, .T. ) ;
#69 = MANIFOLD_SOLID_BREP ( 'Revolve - Tool Body (Straight Shanked)', #233 ) ;
#70 =( NAMED_UNIT ( * ) PLANE_ANGLE_UNIT ( ) SI_UNIT ( $, .RADIAN. ) );
#71 = AXIS2_PLACEMENT_3D ( 'NONE', #314, #347, #266 ) ;
#72 =( LENGTH_UNIT ( ) NAMED_UNIT ( * ) SI_UNIT ( $, .METRE. ) );
#73 = ADVANCED_FACE ( 'NONE', ( #223 ), #19, .F. ) ;
#74 = PRESENTATION_STYLE_ASSIGNMENT (( #164 ) ) ;
#75 = FACE_OUTER_BOUND ( 'NONE', #4, .T. ) ;
#76 =( CONVERSION_BASED_UNIT ( 'INCH', #102 ) LENGTH_UNIT ( ) NAMED_UNIT ( #221 ) );
#77 = LINE ( 'NONE', #137, #263 ) ;
#78 = SPHERICAL_SURFACE ( 'NONE', #304, 0.09374999999999998612 ) ;
#79 = DIRECTION ( 'NONE',  ( 0.000000000000000000, 0.000000000000000000, -1.000000000000000000 ) ) ;
#80 = EDGE_CURVE ( 'NONE', #154, #352, #198, .T. ) ;
#81 = APPLICATION_PROTOCOL_DEFINITION ( 'draft international standard', 'automotive_design', 1998, #349 ) ;
#82 = DIRECTION ( 'NONE',  ( -1.000000000000000000, 0.000000000000000000, 0.000000000000000000 ) ) ;
#83 = PRESENTATION_STYLE_ASSIGNMENT (( #340 ) ) ;
#84 = CIRCLE ( 'NONE', #201, 0.09374999999999972244 ) ;
#85 = CIRCLE ( 'NONE', #257, 0.09374999999999998612 ) ;
#86 =( CONVERSION_BASED_UNIT ( 'INCH', #114 ) LENGTH_UNIT ( ) NAMED_UNIT ( #276 ) );
#87 =( CONVERSION_BASED_UNIT ( 'INCH', #140 ) LENGTH_UNIT ( ) NAMED_UNIT ( #308 ) );
#88 = EDGE_CURVE ( 'NONE', #152, #6, #85, .T. ) ;
#89 = CARTESIAN_POINT ( 'NONE',  ( -1.148106374200643401E-17, 0.09374999999999998612, 0.000000000000000000 ) ) ;
#90 =( LENGTH_UNIT ( ) NAMED_UNIT ( * ) SI_UNIT ( $, .METRE. ) );
#91 = ORIENTED_EDGE ( 'NONE', *, *, #109, .T. ) ;
#92 = EDGE_LOOP ( 'NONE', ( #67, #127 ) ) ;
#93 = STYLED_ITEM ( 'NONE', ( #107 ), #353 ) ;
#94 = DIRECTION ( 'NONE',  ( -1.000000000000000000, -1.632862398863137774E-16, 0.000000000000000000 ) ) ;
#95 = ORIENTED_EDGE ( 'NONE', *, *, #142, .F. ) ;
#96 = EDGE_LOOP ( 'NONE', ( #319, #1 ) ) ;
#97 = VECTOR ( 'NONE', #362, 39.37007874015748143 ) ;
#98 = ORIENTED_EDGE ( 'NONE', *, *, #80, .F. ) ;
#99 = STYLED_ITEM ( 'NONE', ( #74 ), #341 ) ;
#100 = EDGE_CURVE ( 'NONE', #352, #151, #275, .T. ) ;
#101 = PRESENTATION_STYLE_ASSIGNMENT (( #334 ) ) ;
#102 = LENGTH_MEASURE_WITH_UNIT ( LENGTH_MEASURE( 0.02539999999999999897 ), #72 );
#103 = AXIS2_PLACEMENT_3D ( 'NONE', #25, #290, #313 ) ;
#104 = ADVANCED_FACE ( 'NONE', ( #75 ), #195, .T. ) ;
#105 =( NAMED_UNIT ( * ) SI_UNIT ( $, .STERADIAN. ) SOLID_ANGLE_UNIT ( ) );
#106 = SURFACE_STYLE_FILL_AREA ( #158 ) ;
#107 = PRESENTATION_STYLE_ASSIGNMENT (( #194 ) ) ;
#108 = FACE_OUTER_BOUND ( 'NONE', #147, .T. ) ;
#109 = EDGE_CURVE ( 'NONE', #317, #297, #23, .T. ) ;
#110 = COLOUR_RGB ( '',1.000000000000000000, 0.000000000000000000, 0.000000000000000000 ) ;
#111 = DIRECTION ( 'NONE',  ( 0.000000000000000000, 0.000000000000000000, -1.000000000000000000 ) ) ;
#112 = DIRECTION ( 'NONE',  ( 0.000000000000000000, 0.000000000000000000, -1.000000000000000000 ) ) ;
#113 = PRODUCT_CONTEXT ( 'NONE', #349, 'mechanical' ) ;
#114 = LENGTH_MEASURE_WITH_UNIT ( LENGTH_MEASURE( 0.02539999999999999897 ), #26 );
#115 =( GEOMETRIC_REPRESENTATION_CONTEXT ( 3 ) GLOBAL_UNCERTAINTY_ASSIGNED_CONTEXT ( ( #8 ) ) GLOBAL_UNIT_ASSIGNED_CONTEXT ( ( #332, #21, #131 ) ) REPRESENTATION_CONTEXT ( 'NONE', 'WORKASPACE' ) );
#116 = CARTESIAN_POINT ( 'NONE',  ( -6.123233995736766036E-17, 2.500000000000000000, 0.000000000000000000 ) ) ;
#117 = DIRECTION ( 'NONE',  ( 0.000000000000000000, 0.000000000000000000, -1.000000000000000000 ) ) ;
#118 =( NAMED_UNIT ( * ) PLANE_ANGLE_UNIT ( ) SI_UNIT ( $, .RADIAN. ) );
#119 =( NAMED_UNIT ( * ) SI_UNIT ( $, .STERADIAN. ) SOLID_ANGLE_UNIT ( ) );
#120 = EDGE_LOOP ( 'NONE', ( #335, #321, #11, #95 ) ) ;
#121 = FILL_AREA_STYLE_COLOUR ( '', #35 ) ;
#122 = UNCERTAINTY_MEASURE_WITH_UNIT (LENGTH_MEASURE( 1.000000000000000082E-05 ), #124, 'distance_accuracy_value', 'NONE');
#123 = ORIENTED_EDGE ( 'NONE', *, *, #171, .F. ) ;
#124 =( CONVERSION_BASED_UNIT ( 'INCH', #240 ) LENGTH_UNIT ( ) NAMED_UNIT ( #18 ) );
#125 = ORIENTED_EDGE ( 'NONE', *, *, #324, .F. ) ;
#126 = SURFACE_STYLE_USAGE ( .BOTH. , #293 ) ;
#127 = ORIENTED_EDGE ( 'NONE', *, *, #145, .F. ) ;
#128 = VECTOR ( 'NONE', #259, 39.37007874015748143 ) ;
#129 =( LENGTH_UNIT ( ) NAMED_UNIT ( * ) SI_UNIT ( $, .METRE. ) );
#130 =( GEOMETRIC_REPRESENTATION_CONTEXT ( 3 ) GLOBAL_UNCERTAINTY_ASSIGNED_CONTEXT ( ( #31 ) ) GLOBAL_UNIT_ASSIGNED_CONTEXT ( ( #76, #41, #105 ) ) REPRESENTATION_CONTEXT ( 'NONE', 'WORKASPACE' ) );
#131 =( NAMED_UNIT ( * ) SI_UNIT ( $, .STERADIAN. ) SOLID_ANGLE_UNIT ( ) );
#132 = EDGE_CURVE ( 'NONE', #348, #34, #172, .T. ) ;
#133 = DIRECTION ( 'NONE',  ( 0.000000000000000000, 0.000000000000000000, -1.000000000000000000 ) ) ;
#134 =( CONVERSION_BASED_UNIT ( 'INCH', #219 ) LENGTH_UNIT ( ) NAMED_UNIT ( #363 ) );
#135 = AXIS2_PLACEMENT_3D ( 'NONE', #292, #230, #111 ) ;
#136 = SURFACE_STYLE_FILL_AREA ( #47 ) ;
#137 = CARTESIAN_POINT ( 'NONE',  ( 0.000000000000000000, 0.000000000000000000, -0.09374999999999991673 ) ) ;
#138 = AXIS2_PLACEMENT_3D ( 'NONE', #254, #338, #51 ) ;
#139 = DIRECTION ( 'NONE',  ( -1.000000000000000000, 0.000000000000000000, 0.000000000000000000 ) ) ;
#140 = LENGTH_MEASURE_WITH_UNIT ( LENGTH_MEASURE( 0.02539999999999999897 ), #370 );
#141 = DIRECTION ( 'NONE',  ( -1.632862398863137774E-16, 1.000000000000000000, -0.000000000000000000 ) ) ;
#142 = EDGE_CURVE ( 'NONE', #297, #34, #29, .T. ) ;
#143 = CIRCLE ( 'NONE', #156, 0.09374999999999972244 ) ;
#144 = CARTESIAN_POINT ( 'NONE',  ( 0.000000000000000000, 0.09375000000000001388, 0.000000000000000000 ) ) ;
#145 = EDGE_CURVE ( 'NONE', #317, #348, #143, .T. ) ;
#146 =( GEOMETRIC_REPRESENTATION_CONTEXT ( 3 ) GLOBAL_UNCERTAINTY_ASSIGNED_CONTEXT ( ( #238 ) ) GLOBAL_UNIT_ASSIGNED_CONTEXT ( ( #187, #280, #212 ) ) REPRESENTATION_CONTEXT ( 'NONE', 'WORKASPACE' ) );
#147 = EDGE_LOOP ( 'NONE', ( #300, #91, #207, #33 ) ) ;
#148 = MECHANICAL_DESIGN_GEOMETRIC_PRESENTATION_REPRESENTATION (  '', ( #217 ), #52 ) ;
#149 = AXIS2_PLACEMENT_3D ( 'NONE', #116, #231, #139 ) ;
#150 = CARTESIAN_POINT ( 'NONE',  ( 0.09374999999999988898, 1.000000000000000000, 1.148106374200642476E-17 ) ) ;
#151 = VERTEX_POINT ( 'NONE', #175 ) ;
#152 = VERTEX_POINT ( 'NONE', #371 ) ;
#153 = EDGE_CURVE ( 'NONE', #151, #327, #5, .T. ) ;
#154 = VERTEX_POINT ( 'NONE', #53 ) ;
#155 = PRODUCT_DEFINITION_CONTEXT ( 'detailed design', #248, 'design' ) ;
#156 = AXIS2_PLACEMENT_3D ( 'NONE', #174, #141, #82 ) ;
#157 = SURFACE_STYLE_FILL_AREA ( #14 ) ;
#158 = FILL_AREA_STYLE ('',( #305 ) ) ;
#159 = SURFACE_SIDE_STYLE ('',( #136 ) ) ;
#160 = CARTESIAN_POINT ( 'NONE',  ( -1.148106374200643401E-17, 0.09374999999999998612, 0.000000000000000000 ) ) ;
#161 = ADVANCED_BREP_SHAPE_REPRESENTATION ( '83281', ( #320, #69, #138 ), #333 ) ;
#162 = CARTESIAN_POINT ( 'NONE',  ( 0.000000000000000000, 0.000000000000000000, 0.000000000000000000 ) ) ;
#163 = FILL_AREA_STYLE_COLOUR ( '', #355 ) ;
#164 = SURFACE_STYLE_USAGE ( .BOTH. , #159 ) ;
#165 = ORIENTED_EDGE ( 'NONE', *, *, #100, .F. ) ;
#166 = LENGTH_MEASURE_WITH_UNIT ( LENGTH_MEASURE( 0.02539999999999999897 ), #129 );
#167 = EDGE_CURVE ( 'NONE', #152, #151, #239, .T. ) ;
#168 = DIRECTION ( 'NONE',  ( -1.632862398863137774E-16, 1.000000000000000000, -0.000000000000000000 ) ) ;
#169 = AXIS2_PLACEMENT_3D ( 'NONE', #10, #204, #294 ) ;
#170 = MECHANICAL_DESIGN_GEOMETRIC_PRESENTATION_REPRESENTATION (  '', ( #46 ), #229 ) ;
#171 = EDGE_CURVE ( 'NONE', #352, #154, #312, .T. ) ;
#172 = LINE ( 'NONE', #286, #253 ) ;
#173 = SHAPE_DEFINITION_REPRESENTATION ( #13, #161 ) ;
#174 = CARTESIAN_POINT ( 'NONE',  ( 1.836970198721030427E-16, 1.000000000000000000, 0.000000000000000000 ) ) ;
#175 = CARTESIAN_POINT ( 'NONE',  ( 1.148106374200643247E-17, 0.09375000000000001388, 0.09374999999999995837 ) ) ;
#176 = EDGE_CURVE ( 'NONE', #203, #152, #366, .T. ) ;
#177 = AXIS2_PLACEMENT_3D ( 'NONE', #252, #228, #112 ) ;
#178 = FILL_AREA_STYLE ('',( #121 ) ) ;
#179 = UNCERTAINTY_MEASURE_WITH_UNIT (LENGTH_MEASURE( 1.000000000000000082E-05 ), #86, 'distance_accuracy_value', 'NONE');
#180 = SURFACE_STYLE_FILL_AREA ( #178 ) ;
#181 = ORIENTED_EDGE ( 'NONE', *, *, #208, .T. ) ;
#182 = DIRECTION ( 'NONE',  ( -1.632862398863137774E-16, 1.000000000000000000, 0.000000000000000000 ) ) ;
#183 = ORIENTED_EDGE ( 'NONE', *, *, #171, .T. ) ;
#184 = FACE_OUTER_BOUND ( 'NONE', #37, .T. ) ;
#185 = ORIENTED_EDGE ( 'NONE', *, *, #324, .T. ) ;
#186 =( NAMED_UNIT ( * ) PLANE_ANGLE_UNIT ( ) SI_UNIT ( $, .RADIAN. ) );
#187 =( CONVERSION_BASED_UNIT ( 'INCH', #44 ) LENGTH_UNIT ( ) NAMED_UNIT ( #193 ) );
#188 = DIMENSIONAL_EXPONENTS ( 1.000000000000000000, 0.000000000000000000, 0.000000000000000000, 0.000000000000000000, 0.000000000000000000, 0.000000000000000000, 0.000000000000000000 ) ;
#189 = EDGE_LOOP ( 'NONE', ( #98, #123 ) ) ;
#190 = CARTESIAN_POINT ( 'NONE',  ( 1.836970198721030427E-16, 1.000000000000000000, 0.000000000000000000 ) ) ;
#191 = PRESENTATION_LAYER_ASSIGNMENT (  '', '', ( #265 ) ) ;
#192 = CARTESIAN_POINT ( 'NONE',  ( -0.09375000000000006939, 2.500000000000000000, 0.000000000000000000 ) ) ;
#193 = DIMENSIONAL_EXPONENTS ( 1.000000000000000000, 0.000000000000000000, 0.000000000000000000, 0.000000000000000000, 0.000000000000000000, 0.000000000000000000, 0.000000000000000000 ) ;
#194 = SURFACE_STYLE_USAGE ( .BOTH. , #38 ) ;
#195 = CYLINDRICAL_SURFACE ( 'NONE', #103, 0.09374999999999991673 ) ;
#196 = EDGE_CURVE ( 'NONE', #34, #297, #12, .T. ) ;
#197 = DIRECTION ( 'NONE',  ( -1.000000000000000000, 0.000000000000000000, 0.000000000000000000 ) ) ;
#198 = CIRCLE ( 'NONE', #330, 0.09374999999999988898 ) ;
#199 = SURFACE_STYLE_USAGE ( .BOTH. , #279 ) ;
#200 = CARTESIAN_POINT ( 'NONE',  ( -6.123233995736766036E-17, 2.500000000000000000, 0.000000000000000000 ) ) ;
#201 = AXIS2_PLACEMENT_3D ( 'NONE', #190, #15, #197 ) ;
#202 =( NAMED_UNIT ( * ) PLANE_ANGLE_UNIT ( ) SI_UNIT ( $, .RADIAN. ) );
#203 = VERTEX_POINT ( 'NONE', #342 ) ;
#204 = DIRECTION ( 'NONE',  ( 0.000000000000000000, 0.000000000000000000, 1.000000000000000000 ) ) ;
#205 = ORIENTED_EDGE ( 'NONE', *, *, #59, .T. ) ;
#206 = SURFACE_SIDE_STYLE ('',( #234 ) ) ;
#207 = ORIENTED_EDGE ( 'NONE', *, *, #196, .F. ) ;
#208 = EDGE_CURVE ( 'NONE', #327, #6, #322, .T. ) ;
#209 = COLOUR_RGB ( '',1.000000000000000000, 0.000000000000000000, 0.000000000000000000 ) ;
#210 = FILL_AREA_STYLE ('',( #316 ) ) ;
#211 = ORIENTED_EDGE ( 'NONE', *, *, #153, .T. ) ;
#212 =( NAMED_UNIT ( * ) SI_UNIT ( $, .STERADIAN. ) SOLID_ANGLE_UNIT ( ) );
#213 = UNCERTAINTY_MEASURE_WITH_UNIT (LENGTH_MEASURE( 1.000000000000000082E-05 ), #134, 'distance_accuracy_value', 'NONE');
#214 = ADVANCED_FACE ( 'NONE', ( #367 ), #288, .T. ) ;
#215 = COLOUR_RGB ( '',1.000000000000000000, 0.000000000000000000, 0.000000000000000000 ) ;
#216 = DIRECTION ( 'NONE',  ( -1.000000000000000000, 0.000000000000000000, 0.000000000000000000 ) ) ;
#217 = STYLED_ITEM ( 'NONE', ( #101 ), #69 ) ;
#218 = AXIS2_PLACEMENT_3D ( 'NONE', #255, #227, #311 ) ;
#219 = LENGTH_MEASURE_WITH_UNIT ( LENGTH_MEASURE( 0.02539999999999999897 ), #251 );
#220 = FILL_AREA_STYLE_COLOUR ( '', #350 ) ;
#221 = DIMENSIONAL_EXPONENTS ( 1.000000000000000000, 0.000000000000000000, 0.000000000000000000, 0.000000000000000000, 0.000000000000000000, 0.000000000000000000, 0.000000000000000000 ) ;
#222 = DIRECTION ( 'NONE',  ( -1.632862398863137774E-16, 1.000000000000000000, -0.000000000000000000 ) ) ;
#223 = FACE_OUTER_BOUND ( 'NONE', #96, .T. ) ;
#224 = DIRECTION ( 'NONE',  ( 0.000000000000000000, 0.000000000000000000, 1.000000000000000000 ) ) ;
#225 =( NAMED_UNIT ( * ) PLANE_ANGLE_UNIT ( ) SI_UNIT ( $, .RADIAN. ) );
#226 =( CONVERSION_BASED_UNIT ( 'INCH', #166 ) LENGTH_UNIT ( ) NAMED_UNIT ( #188 ) );
#227 = DIRECTION ( 'NONE',  ( -0.000000000000000000, -1.000000000000000000, -0.000000000000000000 ) ) ;
#228 = DIRECTION ( 'NONE',  ( -0.000000000000000000, -1.000000000000000000, -0.000000000000000000 ) ) ;
#229 =( GEOMETRIC_REPRESENTATION_CONTEXT ( 3 ) GLOBAL_UNCERTAINTY_ASSIGNED_CONTEXT ( ( #179 ) ) GLOBAL_UNIT_ASSIGNED_CONTEXT ( ( #86, #186, #268 ) ) REPRESENTATION_CONTEXT ( 'NONE', 'WORKASPACE' ) );
#230 = DIRECTION ( 'NONE',  ( -0.000000000000000000, -1.000000000000000000, -0.000000000000000000 ) ) ;
#231 = DIRECTION ( 'NONE',  ( -1.632862398863137774E-16, 1.000000000000000000, -0.000000000000000000 ) ) ;
#232 = SPHERICAL_SURFACE ( 'NONE', #169, 0.09374999999999998612 ) ;
#233 = CLOSED_SHELL ( 'NONE', ( #7, #291, #258, #73 ) ) ;
#234 = SURFACE_STYLE_FILL_AREA ( #210 ) ;
#235 = AXIS2_PLACEMENT_3D ( 'NONE', #237, #328, #245 ) ;
#236 = PRODUCT_DEFINITION ( 'UNKNOWN', '', #283, #155 ) ;
#237 = CARTESIAN_POINT ( 'NONE',  ( 0.000000000000000000, 0.09375000000000001388, 0.000000000000000000 ) ) ;
#238 = UNCERTAINTY_MEASURE_WITH_UNIT (LENGTH_MEASURE( 1.000000000000000082E-05 ), #187, 'distance_accuracy_value', 'NONE');
#239 = CIRCLE ( 'NONE', #56, 0.09374999999999997224 ) ;
#240 = LENGTH_MEASURE_WITH_UNIT ( LENGTH_MEASURE( 0.02539999999999999897 ), #57 );
#241 = ORIENTED_EDGE ( 'NONE', *, *, #80, .T. ) ;
#242 = CYLINDRICAL_SURFACE ( 'NONE', #357, 0.09374999999999991673 ) ;
#243 = PRESENTATION_LAYER_ASSIGNMENT (  '', '', ( #93 ) ) ;
#244 = DIRECTION ( 'NONE',  ( -0.000000000000000000, -1.000000000000000000, -0.000000000000000000 ) ) ;
#245 = DIRECTION ( 'NONE',  ( 0.000000000000000000, 0.000000000000000000, -1.000000000000000000 ) ) ;
#246 = STYLED_ITEM ( 'NONE', ( #30 ), #320 ) ;
#247 = DIRECTION ( 'NONE',  ( -1.000000000000000000, 0.000000000000000000, 0.000000000000000000 ) ) ;
#248 = APPLICATION_CONTEXT ( 'automotive_design' ) ;
#249 = CARTESIAN_POINT ( 'NONE',  ( 1.148106374200642630E-17, 0.000000000000000000, 0.09374999999999991673 ) ) ;
#250 = MECHANICAL_DESIGN_GEOMETRIC_PRESENTATION_REPRESENTATION (  '', ( #99 ), #146 ) ;
#251 =( LENGTH_UNIT ( ) NAMED_UNIT ( * ) SI_UNIT ( $, .METRE. ) );
#252 = CARTESIAN_POINT ( 'NONE',  ( 0.000000000000000000, 1.000000000000000000, 0.000000000000000000 ) ) ;
#253 = VECTOR ( 'NONE', #256, 39.37007874015748143 ) ;
#254 = CARTESIAN_POINT ( 'NONE',  ( 0.000000000000000000, 0.000000000000000000, 0.000000000000000000 ) ) ;
#255 = CARTESIAN_POINT ( 'NONE',  ( 0.000000000000000000, 0.09375000000000001388, 0.000000000000000000 ) ) ;
#256 = DIRECTION ( 'NONE',  ( -1.632862398863137774E-16, 1.000000000000000000, -0.000000000000000000 ) ) ;
#257 = AXIS2_PLACEMENT_3D ( 'NONE', #160, #133, #247 ) ;
#258 = ADVANCED_FACE ( 'NONE', ( #351 ), #260, .T. ) ;
#259 = DIRECTION ( 'NONE',  ( -1.632862398863137774E-16, 1.000000000000000000, -0.000000000000000000 ) ) ;
#260 = CYLINDRICAL_SURFACE ( 'NONE', #71, 0.09374999999999984734 ) ;
#261 = UNCERTAINTY_MEASURE_WITH_UNIT (LENGTH_MEASURE( 1.000000000000000082E-05 ), #87, 'distance_accuracy_value', 'NONE');
#262 = PRESENTATION_STYLE_ASSIGNMENT (( #36 ) ) ;
#263 = VECTOR ( 'NONE', #329, 39.37007874015748143 ) ;
#264 = ORIENTED_EDGE ( 'NONE', *, *, #167, .T. ) ;
#265 = STYLED_ITEM ( 'NONE', ( #39 ), #104 ) ;
#266 = DIRECTION ( 'NONE',  ( -1.000000000000000000, 0.000000000000000000, 0.000000000000000000 ) ) ;
#267 = ORIENTED_EDGE ( 'NONE', *, *, #176, .T. ) ;
#268 =( NAMED_UNIT ( * ) SI_UNIT ( $, .STERADIAN. ) SOLID_ANGLE_UNIT ( ) );
#269 = ORIENTED_EDGE ( 'NONE', *, *, #167, .F. ) ;
#270 = CARTESIAN_POINT ( 'NONE',  ( 0.09374999999999994449, 2.500000000000000000, 1.148106374200642938E-17 ) ) ;
#271 = AXIS2_PLACEMENT_3D ( 'NONE', #32, #182, #94 ) ;
#272 = DIRECTION ( 'NONE',  ( -0.000000000000000000, -1.000000000000000000, -0.000000000000000000 ) ) ;
#273 = PRESENTATION_LAYER_ASSIGNMENT (  '', '', ( #99 ) ) ;
#274 =( LENGTH_UNIT ( ) NAMED_UNIT ( * ) SI_UNIT ( $, .METRE. ) );
#275 = LINE ( 'NONE', #249, #97 ) ;
#276 = DIMENSIONAL_EXPONENTS ( 1.000000000000000000, 0.000000000000000000, 0.000000000000000000, 0.000000000000000000, 0.000000000000000000, 0.000000000000000000, 0.000000000000000000 ) ;
#277 = LENGTH_MEASURE_WITH_UNIT ( LENGTH_MEASURE( 0.02539999999999999897 ), #90 );
#278 = AXIS2_PLACEMENT_3D ( 'NONE', #298, #296, #60 ) ;
#279 = SURFACE_SIDE_STYLE ('',( #364 ) ) ;
#280 =( NAMED_UNIT ( * ) PLANE_ANGLE_UNIT ( ) SI_UNIT ( $, .RADIAN. ) );
#281 = SURFACE_SIDE_STYLE ('',( #106 ) ) ;
#282 = DIRECTION ( 'NONE',  ( 1.000000000000000000, 0.000000000000000000, 0.000000000000000000 ) ) ;
#283 = PRODUCT_DEFINITION_FORMATION_WITH_SPECIFIED_SOURCE ( 'ANY', '', #2, .NOT_KNOWN. ) ;
#284 = COLOUR_RGB ( '',0.7921568627450980005, 0.8196078431372548767, 0.9333333333333333481 ) ;
#285 = APPLICATION_PROTOCOL_DEFINITION ( 'draft international standard', 'automotive_design', 1998, #248 ) ;
#286 = CARTESIAN_POINT ( 'NONE',  ( -0.09374999999999991673, 2.500000000000000000, 0.000000000000000000 ) ) ;
#287 = MECHANICAL_DESIGN_GEOMETRIC_PRESENTATION_REPRESENTATION (  '', ( #315 ), #346 ) ;
#288 = PLANE ( 'NONE',  #278 ) ;
#289 = MECHANICAL_DESIGN_GEOMETRIC_PRESENTATION_REPRESENTATION (  '', ( #93 ), #130 ) ;
#290 = DIRECTION ( 'NONE',  ( -0.000000000000000000, -1.000000000000000000, -0.000000000000000000 ) ) ;
#291 = ADVANCED_FACE ( 'NONE', ( #323 ), #318, .F. ) ;
#292 = CARTESIAN_POINT ( 'NONE',  ( 0.000000000000000000, 0.09375000000000001388, 0.000000000000000000 ) ) ;
#293 = SURFACE_SIDE_STYLE ('',( #180 ) ) ;
#294 = DIRECTION ( 'NONE',  ( 1.000000000000000000, 0.000000000000000000, 0.000000000000000000 ) ) ;
#295 = PRESENTATION_LAYER_ASSIGNMENT (  '', '', ( #246 ) ) ;
#296 = DIRECTION ( 'NONE',  ( 0.000000000000000000, 1.000000000000000000, 0.000000000000000000 ) ) ;
#297 = VERTEX_POINT ( 'NONE', #270 ) ;
#298 = CARTESIAN_POINT ( 'NONE',  ( 0.000000000000000000, 1.000000000000000000, 0.000000000000000000 ) ) ;
#299 = ORIENTED_EDGE ( 'NONE', *, *, #88, .T. ) ;
#300 = ORIENTED_EDGE ( 'NONE', *, *, #20, .T. ) ;
#301 = PRESENTATION_LAYER_ASSIGNMENT (  '', '', ( #315 ) ) ;
#302 = ADVANCED_FACE ( 'NONE', ( #184 ), #232, .T. ) ;
#303 = CARTESIAN_POINT ( 'NONE',  ( -0.09374999999999998612, 0.09375000000000001388, 1.148106374200643247E-17 ) ) ;
#304 = AXIS2_PLACEMENT_3D ( 'NONE', #54, #224, #282 ) ;
#305 = FILL_AREA_STYLE_COLOUR ( '', #284 ) ;
#306 = CYLINDRICAL_SURFACE ( 'NONE', #3, 0.09374999999999984734 ) ;
#307 = AXIS2_PLACEMENT_3D ( 'NONE', #200, #168, #28 ) ;
#308 = DIMENSIONAL_EXPONENTS ( 1.000000000000000000, 0.000000000000000000, 0.000000000000000000, 0.000000000000000000, 0.000000000000000000, 0.000000000000000000, 0.000000000000000000 ) ;
#309 = DIRECTION ( 'NONE',  ( 1.224646799147353207E-16, -0.000000000000000000, 1.000000000000000000 ) ) ;
#310 =( NAMED_UNIT ( * ) SI_UNIT ( $, .STERADIAN. ) SOLID_ANGLE_UNIT ( ) );
#311 = DIRECTION ( 'NONE',  ( 0.000000000000000000, 0.000000000000000000, -1.000000000000000000 ) ) ;
#312 = CIRCLE ( 'NONE', #177, 0.09374999999999988898 ) ;
#313 = DIRECTION ( 'NONE',  ( 0.000000000000000000, 0.000000000000000000, -1.000000000000000000 ) ) ;
#314 = CARTESIAN_POINT ( 'NONE',  ( -6.123233995736766036E-17, 2.500000000000000000, 0.000000000000000000 ) ) ;
#315 = STYLED_ITEM ( 'NONE', ( #262 ), #302 ) ;
#316 = FILL_AREA_STYLE_COLOUR ( '', #110 ) ;
#317 = VERTEX_POINT ( 'NONE', #150 ) ;
#318 = PLANE ( 'NONE',  #271 ) ;
#319 = ORIENTED_EDGE ( 'NONE', *, *, #196, .T. ) ;
#320 = MANIFOLD_SOLID_BREP ( 'Revolve - Cutting Edge', #344 ) ;
#321 = ORIENTED_EDGE ( 'NONE', *, *, #145, .T. ) ;
#322 = CIRCLE ( 'NONE', #372, 0.09374999999999998612 ) ;
#323 = FACE_OUTER_BOUND ( 'NONE', #92, .T. ) ;
#324 = EDGE_CURVE ( 'NONE', #327, #203, #64, .T. ) ;
#325 = DIMENSIONAL_EXPONENTS ( 1.000000000000000000, 0.000000000000000000, 0.000000000000000000, 0.000000000000000000, 0.000000000000000000, 0.000000000000000000, 0.000000000000000000 ) ;
#326 = DIRECTION ( 'NONE',  ( 0.000000000000000000, 0.000000000000000000, -1.000000000000000000 ) ) ;
#327 = VERTEX_POINT ( 'NONE', #303 ) ;
#328 = DIRECTION ( 'NONE',  ( -0.000000000000000000, -1.000000000000000000, -0.000000000000000000 ) ) ;
#329 = DIRECTION ( 'NONE',  ( -0.000000000000000000, -1.000000000000000000, -0.000000000000000000 ) ) ;
#330 = AXIS2_PLACEMENT_3D ( 'NONE', #43, #272, #79 ) ;
#331 = CARTESIAN_POINT ( 'NONE',  ( -0.09374999999999952816, 1.000000000000000000, 0.000000000000000000 ) ) ;
#332 =( CONVERSION_BASED_UNIT ( 'INCH', #277 ) LENGTH_UNIT ( ) NAMED_UNIT ( #325 ) );
#333 =( GEOMETRIC_REPRESENTATION_CONTEXT ( 3 ) GLOBAL_UNCERTAINTY_ASSIGNED_CONTEXT ( ( #261 ) ) GLOBAL_UNIT_ASSIGNED_CONTEXT ( ( #87, #225, #310 ) ) REPRESENTATION_CONTEXT ( 'NONE', 'WORKASPACE' ) );
#334 = SURFACE_STYLE_USAGE ( .BOTH. , #281 ) ;
#335 = ORIENTED_EDGE ( 'NONE', *, *, #109, .F. ) ;
#336 =( GEOMETRIC_REPRESENTATION_CONTEXT ( 3 ) GLOBAL_UNCERTAINTY_ASSIGNED_CONTEXT ( ( #66 ) ) GLOBAL_UNIT_ASSIGNED_CONTEXT ( ( #226, #202, #55 ) ) REPRESENTATION_CONTEXT ( 'NONE', 'WORKASPACE' ) );
#337 = CARTESIAN_POINT ( 'NONE',  ( 0.09374999999999994449, 2.500000000000000000, 0.000000000000000000 ) ) ;
#338 = DIRECTION ( 'NONE',  ( 0.000000000000000000, 0.000000000000000000, 1.000000000000000000 ) ) ;
#339 = SURFACE_STYLE_FILL_AREA ( #369 ) ;
#340 = SURFACE_STYLE_USAGE ( .BOTH. , #49 ) ;
#341 = ADVANCED_FACE ( 'NONE', ( #68 ), #242, .T. ) ;
#342 = CARTESIAN_POINT ( 'NONE',  ( 0.000000000000000000, 0.09375000000000001388, -0.09374999999999997224 ) ) ;
#343 = MECHANICAL_DESIGN_GEOMETRIC_PRESENTATION_REPRESENTATION (  '', ( #246 ), #115 ) ;
#344 = CLOSED_SHELL ( 'NONE', ( #353, #341, #214, #104, #302 ) ) ;
#345 = ORIENTED_EDGE ( 'NONE', *, *, #208, .F. ) ;
#346 =( GEOMETRIC_REPRESENTATION_CONTEXT ( 3 ) GLOBAL_UNCERTAINTY_ASSIGNED_CONTEXT ( ( #122 ) ) GLOBAL_UNIT_ASSIGNED_CONTEXT ( ( #124, #118, #119 ) ) REPRESENTATION_CONTEXT ( 'NONE', 'WORKASPACE' ) );
#347 = DIRECTION ( 'NONE',  ( -1.632862398863137774E-16, 1.000000000000000000, -0.000000000000000000 ) ) ;
#348 = VERTEX_POINT ( 'NONE', #331 ) ;
#349 = APPLICATION_CONTEXT ( 'automotive_design' ) ;
#350 = COLOUR_RGB ( '',1.000000000000000000, 0.000000000000000000, 0.000000000000000000 ) ;
#351 = FACE_OUTER_BOUND ( 'NONE', #120, .T. ) ;
#352 = VERTEX_POINT ( 'NONE', #358 ) ;
#353 = ADVANCED_FACE ( 'NONE', ( #65 ), #78, .T. ) ;
#354 = ORIENTED_EDGE ( 'NONE', *, *, #59, .F. ) ;
#355 = COLOUR_RGB ( '',1.000000000000000000, 0.000000000000000000, 0.000000000000000000 ) ;
#356 = ORIENTED_EDGE ( 'NONE', *, *, #153, .F. ) ;
#357 = AXIS2_PLACEMENT_3D ( 'NONE', #162, #244, #326 ) ;
#358 = CARTESIAN_POINT ( 'NONE',  ( 1.148106374200642476E-17, 1.000000000000000000, 0.09374999999999988898 ) ) ;
#359 = FILL_AREA_STYLE ('',( #163 ) ) ;
#360 = CARTESIAN_POINT ( 'NONE',  ( -6.123233995736766036E-17, 2.500000000000000000, 0.000000000000000000 ) ) ;
#361 = PRESENTATION_LAYER_ASSIGNMENT (  '', '', ( #46 ) ) ;
#362 = DIRECTION ( 'NONE',  ( -0.000000000000000000, -1.000000000000000000, -0.000000000000000000 ) ) ;
#363 = DIMENSIONAL_EXPONENTS ( 1.000000000000000000, 0.000000000000000000, 0.000000000000000000, 0.000000000000000000, 0.000000000000000000, 0.000000000000000000, 0.000000000000000000 ) ;
#364 = SURFACE_STYLE_FILL_AREA ( #359 ) ;
#365 = PRODUCT_RELATED_PRODUCT_CATEGORY ( 'part', '', ( #2 ) ) ;
#366 = CIRCLE ( 'NONE', #218, 0.09374999999999997224 ) ;
#367 = FACE_OUTER_BOUND ( 'NONE', #189, .T. ) ;
#368 = DIRECTION ( 'NONE',  ( 1.000000000000000000, 0.000000000000000000, -1.224646799147353207E-16 ) ) ;
#369 = FILL_AREA_STYLE ('',( #48 ) ) ;
#370 =( LENGTH_UNIT ( ) NAMED_UNIT ( * ) SI_UNIT ( $, .METRE. ) );
#371 = CARTESIAN_POINT ( 'NONE',  ( 0.09374999999999997224, 0.09375000000000001388, 0.000000000000000000 ) ) ;
#372 = AXIS2_PLACEMENT_3D ( 'NONE', #89, #309, #368 ) ;
#373 = DIRECTION ( 'NONE',  ( -0.000000000000000000, -1.000000000000000000, -0.000000000000000000 ) ) ;
ENDSEC;
END-ISO-10303-21;
