ISO-10303-21;
HEADER;
FILE_DESCRIPTION (( 'STEP AP214' ),
    '1' );
FILE_NAME ('59521.STEP',
    '2023-07-24T15:08:55',
    ( '' ),
    ( '' ),
    'SwSTEP 2.0',
    'SolidWorks 2023',
    '' );
FILE_SCHEMA (( 'AUTOMOTIVE_DESIGN' ));
ENDSEC;

DATA;
#1 = CARTESIAN_POINT ( 'NONE',  ( 0.000000000000000000, 12.00000000000000000, 0.000000000000000000 ) ) ;
#2 = DIRECTION ( 'NONE',  ( -0.000000000000000000, -1.000000000000000000, -0.000000000000000000 ) ) ;
#3 = AXIS2_PLACEMENT_3D ( 'NONE', #160, #266, #7 ) ;
#4 = DIRECTION ( 'NONE',  ( -9.448620473410002383E-17, 1.000000000000000000, -0.000000000000000000 ) ) ;
#5 = CARTESIAN_POINT ( 'NONE',  ( 0.000000000000000000, 0.000000000000000000, 0.000000000000000000 ) ) ;
#6 = EDGE_CURVE ( 'NONE', #344, #315, #209, .T. ) ;
#7 = DIRECTION ( 'NONE',  ( 0.000000000000000000, 0.000000000000000000, -1.000000000000000000 ) ) ;
#8 = CARTESIAN_POINT ( 'NONE',  ( 4.898587196589412829E-16, 1.000000000000000000, 4.000000000000000000 ) ) ;
#9 = AXIS2_PLACEMENT_3D ( 'NONE', #291, #90, #210 ) ;
#10 = CARTESIAN_POINT ( 'NONE',  ( 1.469576158976823750E-15, 63.00000000000000000, 0.000000000000000000 ) ) ;
#11 = AXIS2_PLACEMENT_3D ( 'NONE', #29, #62, #238 ) ;
#12 = UNCERTAINTY_MEASURE_WITH_UNIT (LENGTH_MEASURE( 1.000000000000000082E-05 ), #368, 'distance_accuracy_value', 'NONE');
#13 =( NAMED_UNIT ( * ) PLANE_ANGLE_UNIT ( ) SI_UNIT ( $, .RADIAN. ) );
#14 = VERTEX_POINT ( 'NONE', #226 ) ;
#15 = PRODUCT ( '59521', '59521', '', ( #132 ) ) ;
#16 = PRESENTATION_STYLE_ASSIGNMENT (( #333 ) ) ;
#17 = AXIS2_PLACEMENT_3D ( 'NONE', #161, #302, #365 ) ;
#18 = ORIENTED_EDGE ( 'NONE', *, *, #197, .F. ) ;
#19 = COLOUR_RGB ( '',1.000000000000000000, 0.000000000000000000, 0.000000000000000000 ) ;
#20 = PRESENTATION_STYLE_ASSIGNMENT (( #275 ) ) ;
#21 = ORIENTED_EDGE ( 'NONE', *, *, #180, .T. ) ;
#22 = FILL_AREA_STYLE_COLOUR ( '', #196 ) ;
#23 = ORIENTED_EDGE ( 'NONE', *, *, #89, .F. ) ;
#24 = EDGE_CURVE ( 'NONE', #227, #268, #84, .T. ) ;
#25 = ORIENTED_EDGE ( 'NONE', *, *, #236, .F. ) ;
#26 = PRESENTATION_LAYER_ASSIGNMENT (  '', '', ( #235 ) ) ;
#27 =( GEOMETRIC_REPRESENTATION_CONTEXT ( 3 ) GLOBAL_UNCERTAINTY_ASSIGNED_CONTEXT ( ( #360 ) ) GLOBAL_UNIT_ASSIGNED_CONTEXT ( ( #310, #141, #104 ) ) REPRESENTATION_CONTEXT ( 'NONE', 'WORKASPACE' ) );
#28 = PLANE ( 'NONE',  #148 ) ;
#29 = CARTESIAN_POINT ( 'NONE',  ( 0.000000000000000000, 0.000000000000000000, 0.000000000000000000 ) ) ;
#30 = CARTESIAN_POINT ( 'NONE',  ( 0.000000000000000000, 1.000000000000000000, 0.000000000000000000 ) ) ;
#31 =( GEOMETRIC_REPRESENTATION_CONTEXT ( 3 ) GLOBAL_UNCERTAINTY_ASSIGNED_CONTEXT ( ( #233 ) ) GLOBAL_UNIT_ASSIGNED_CONTEXT ( ( #350, #92, #322 ) ) REPRESENTATION_CONTEXT ( 'NONE', 'WORKASPACE' ) );
#32 =( LENGTH_UNIT ( ) NAMED_UNIT ( * ) SI_UNIT ( .MILLI., .METRE. ) );
#33 = DIRECTION ( 'NONE',  ( 0.000000000000000000, 0.000000000000000000, -1.000000000000000000 ) ) ;
#34 = VECTOR ( 'NONE', #67, 1000.000000000000000 ) ;
#35 = FILL_AREA_STYLE_COLOUR ( '', #269 ) ;
#36 = CARTESIAN_POINT ( 'NONE',  ( 3.999999999999999112, 11.99999999999999645, 4.898587196589409870E-16 ) ) ;
#37 = PRESENTATION_STYLE_ASSIGNMENT (( #294 ) ) ;
#38 = AXIS2_PLACEMENT_3D ( 'NONE', #313, #247, #142 ) ;
#39 =( NAMED_UNIT ( * ) PLANE_ANGLE_UNIT ( ) SI_UNIT ( $, .RADIAN. ) );
#40 =( NAMED_UNIT ( * ) SI_UNIT ( $, .STERADIAN. ) SOLID_ANGLE_UNIT ( ) );
#41 =( NAMED_UNIT ( * ) PLANE_ANGLE_UNIT ( ) SI_UNIT ( $, .RADIAN. ) );
#42 = ORIENTED_EDGE ( 'NONE', *, *, #331, .F. ) ;
#43 = SURFACE_STYLE_FILL_AREA ( #358 ) ;
#44 = APPLICATION_PROTOCOL_DEFINITION ( 'draft international standard', 'automotive_design', 1998, #250 ) ;
#45 = VERTEX_POINT ( 'NONE', #174 ) ;
#46 = DIRECTION ( 'NONE',  ( 0.000000000000000000, -0.000000000000000000, 1.000000000000000000 ) ) ;
#47 = FILL_AREA_STYLE ('',( #51 ) ) ;
#48 = ORIENTED_EDGE ( 'NONE', *, *, #137, .T. ) ;
#49 = CYLINDRICAL_SURFACE ( 'NONE', #146, 3.999999999999996447 ) ;
#50 = ADVANCED_FACE ( 'NONE', ( #249 ), #370, .T. ) ;
#51 = FILL_AREA_STYLE_COLOUR ( '', #75 ) ;
#52 = CIRCLE ( 'NONE', #115, 3.999999999999998224 ) ;
#53 = VERTEX_POINT ( 'NONE', #282 ) ;
#54 = DIRECTION ( 'NONE',  ( -0.000000000000000000, -1.000000000000000000, -0.000000000000000000 ) ) ;
#55 = AXIS2_PLACEMENT_3D ( 'NONE', #334, #276, #46 ) ;
#56 = UNCERTAINTY_MEASURE_WITH_UNIT (LENGTH_MEASURE( 1.000000000000000082E-05 ), #345, 'distance_accuracy_value', 'NONE');
#57 = DIRECTION ( 'NONE',  ( -1.000000000000000000, 0.000000000000000000, 0.000000000000000000 ) ) ;
#58 = SURFACE_SIDE_STYLE ('',( #288 ) ) ;
#59 = DIRECTION ( 'NONE',  ( -0.000000000000000000, -1.000000000000000000, -0.000000000000000000 ) ) ;
#60 = CIRCLE ( 'NONE', #124, 3.000000000000000000 ) ;
#61 = SURFACE_STYLE_USAGE ( .BOTH. , #106 ) ;
#62 = DIRECTION ( 'NONE',  ( -0.000000000000000000, -1.000000000000000000, -0.000000000000000000 ) ) ;
#63 =( GEOMETRIC_REPRESENTATION_CONTEXT ( 3 ) GLOBAL_UNCERTAINTY_ASSIGNED_CONTEXT ( ( #56 ) ) GLOBAL_UNIT_ASSIGNED_CONTEXT ( ( #345, #286, #208 ) ) REPRESENTATION_CONTEXT ( 'NONE', 'WORKASPACE' ) );
#64 = SURFACE_STYLE_USAGE ( .BOTH. , #58 ) ;
#65 = STYLED_ITEM ( 'NONE', ( #95 ), #260 ) ;
#66 = ORIENTED_EDGE ( 'NONE', *, *, #150, .T. ) ;
#67 = DIRECTION ( 'NONE',  ( -9.448620473410002383E-17, 1.000000000000000000, -0.000000000000000000 ) ) ;
#68 = AXIS2_PLACEMENT_3D ( 'NONE', #323, #57, #152 ) ;
#69 = FILL_AREA_STYLE ('',( #244 ) ) ;
#70 = APPLICATION_CONTEXT ( 'automotive_design' ) ;
#71 = ADVANCED_FACE ( 'NONE', ( #114 ), #147, .T. ) ;
#72 = DIRECTION ( 'NONE',  ( -1.000000000000000000, 0.000000000000000000, 0.000000000000000000 ) ) ;
#73 = AXIS2_PLACEMENT_3D ( 'NONE', #166, #74, #273 ) ;
#74 = DIRECTION ( 'NONE',  ( -0.000000000000000000, -1.000000000000000000, -0.000000000000000000 ) ) ;
#75 = COLOUR_RGB ( '',1.000000000000000000, 0.000000000000000000, 0.000000000000000000 ) ;
#76 = SURFACE_STYLE_FILL_AREA ( #47 ) ;
#77 = FILL_AREA_STYLE ('',( #364 ) ) ;
#78 = SURFACE_STYLE_USAGE ( .BOTH. , #356 ) ;
#79 = ORIENTED_EDGE ( 'NONE', *, *, #89, .T. ) ;
#80 = DIRECTION ( 'NONE',  ( -1.000000000000000000, 0.000000000000000000, 0.000000000000000000 ) ) ;
#81 = ORIENTED_EDGE ( 'NONE', *, *, #6, .T. ) ;
#82 = MECHANICAL_DESIGN_GEOMETRIC_PRESENTATION_REPRESENTATION (  '', ( #235 ), #212 ) ;
#83 = ORIENTED_EDGE ( 'NONE', *, *, #126, .T. ) ;
#84 = CIRCLE ( 'NONE', #348, 4.000000000000000000 ) ;
#85 = PRESENTATION_LAYER_ASSIGNMENT (  '', '', ( #245 ) ) ;
#86 = ORIENTED_EDGE ( 'NONE', *, *, #87, .F. ) ;
#87 = EDGE_CURVE ( 'NONE', #107, #53, #229, .T. ) ;
#88 = TOROIDAL_SURFACE ( 'NONE', #3, 3.000000000000000000, 1.000000000000000000 ) ;
#89 = EDGE_CURVE ( 'NONE', #227, #14, #91, .T. ) ;
#90 = DIRECTION ( 'NONE',  ( -0.000000000000000000, -1.000000000000000000, -0.000000000000000000 ) ) ;
#91 = LINE ( 'NONE', #234, #305 ) ;
#92 =( NAMED_UNIT ( * ) PLANE_ANGLE_UNIT ( ) SI_UNIT ( $, .RADIAN. ) );
#93 = CARTESIAN_POINT ( 'NONE',  ( 4.898587196589412829E-16, 12.00000000000000000, 4.000000000000000000 ) ) ;
#94 = CLOSED_SHELL ( 'NONE', ( #218, #203, #260, #309, #50, #357 ) ) ;
#95 = PRESENTATION_STYLE_ASSIGNMENT (( #61 ) ) ;
#96 = AXIS2_PLACEMENT_3D ( 'NONE', #325, #117, #184 ) ;
#97 = CARTESIAN_POINT ( 'NONE',  ( 3.999999999999998224, 63.00000000000000000, 4.898587196589408884E-16 ) ) ;
#98 = AXIS2_PLACEMENT_3D ( 'NONE', #10, #140, #72 ) ;
#99 = CARTESIAN_POINT ( 'NONE',  ( -3.999999999999994671, 63.00000000000000000, 0.000000000000000000 ) ) ;
#100 = ORIENTED_EDGE ( 'NONE', *, *, #236, .T. ) ;
#101 = UNCERTAINTY_MEASURE_WITH_UNIT (LENGTH_MEASURE( 1.000000000000000082E-05 ), #159, 'distance_accuracy_value', 'NONE');
#102 = CARTESIAN_POINT ( 'NONE',  ( 0.000000000000000000, 12.00000000000000000, 0.000000000000000000 ) ) ;
#103 = CARTESIAN_POINT ( 'NONE',  ( 0.000000000000000000, 0.000000000000000000, 0.000000000000000000 ) ) ;
#104 =( NAMED_UNIT ( * ) SI_UNIT ( $, .STERADIAN. ) SOLID_ANGLE_UNIT ( ) );
#105 = ORIENTED_EDGE ( 'NONE', *, *, #180, .F. ) ;
#106 = SURFACE_SIDE_STYLE ('',( #252 ) ) ;
#107 = VERTEX_POINT ( 'NONE', #36 ) ;
#108 = AXIS2_PLACEMENT_3D ( 'NONE', #270, #300, #267 ) ;
#109 = EDGE_CURVE ( 'NONE', #268, #344, #262, .T. ) ;
#110 = EDGE_LOOP ( 'NONE', ( #339, #133, #201, #23 ) ) ;
#111 = FILL_AREA_STYLE ('',( #289 ) ) ;
#112 = SURFACE_SIDE_STYLE ('',( #182 ) ) ;
#113 = PRESENTATION_LAYER_ASSIGNMENT (  '', '', ( #183 ) ) ;
#114 = FACE_OUTER_BOUND ( 'NONE', #337, .T. ) ;
#115 = AXIS2_PLACEMENT_3D ( 'NONE', #179, #216, #131 ) ;
#116 = ADVANCED_FACE ( 'NONE', ( #351 ), #28, .F. ) ;
#117 = DIRECTION ( 'NONE',  ( 0.000000000000000000, -1.000000000000000000, -0.000000000000000000 ) ) ;
#118 = DIRECTION ( 'NONE',  ( 0.000000000000000000, 0.000000000000000000, -1.000000000000000000 ) ) ;
#119 = DIRECTION ( 'NONE',  ( 0.000000000000000000, 0.000000000000000000, -1.000000000000000000 ) ) ;
#120 = FILL_AREA_STYLE_COLOUR ( '', #158 ) ;
#121 = EDGE_CURVE ( 'NONE', #315, #311, #355, .T. ) ;
#122 = CARTESIAN_POINT ( 'NONE',  ( 4.000000000000000000, 63.00000000000000000, 0.000000000000000000 ) ) ;
#123 = FACE_OUTER_BOUND ( 'NONE', #308, .T. ) ;
#124 = AXIS2_PLACEMENT_3D ( 'NONE', #103, #222, #278 ) ;
#125 = EDGE_LOOP ( 'NONE', ( #363, #48, #138, #171 ) ) ;
#126 = EDGE_CURVE ( 'NONE', #14, #344, #240, .T. ) ;
#127 = UNCERTAINTY_MEASURE_WITH_UNIT (LENGTH_MEASURE( 1.000000000000000082E-05 ), #361, 'distance_accuracy_value', 'NONE');
#128 = DIRECTION ( 'NONE',  ( 1.000000000000000000, 9.448620473410002383E-17, 0.000000000000000000 ) ) ;
#129 = AXIS2_PLACEMENT_3D ( 'NONE', #30, #54, #33 ) ;
#130 = SHAPE_DEFINITION_REPRESENTATION ( #352, #190 ) ;
#131 = DIRECTION ( 'NONE',  ( -1.000000000000000000, 0.000000000000000000, 0.000000000000000000 ) ) ;
#132 = PRODUCT_CONTEXT ( 'NONE', #250, 'mechanical' ) ;
#133 = ORIENTED_EDGE ( 'NONE', *, *, #109, .T. ) ;
#134 = UNCERTAINTY_MEASURE_WITH_UNIT (LENGTH_MEASURE( 1.000000000000000082E-05 ), #136, 'distance_accuracy_value', 'NONE');
#135 = DIRECTION ( 'NONE',  ( 9.448620473410002383E-17, -1.000000000000000000, 0.000000000000000000 ) ) ;
#136 =( LENGTH_UNIT ( ) NAMED_UNIT ( * ) SI_UNIT ( .MILLI., .METRE. ) );
#137 = EDGE_CURVE ( 'NONE', #344, #14, #359, .T. ) ;
#138 = ORIENTED_EDGE ( 'NONE', *, *, #162, .T. ) ;
#139 =( GEOMETRIC_REPRESENTATION_CONTEXT ( 3 ) GLOBAL_UNCERTAINTY_ASSIGNED_CONTEXT ( ( #127 ) ) GLOBAL_UNIT_ASSIGNED_CONTEXT ( ( #361, #13, #338 ) ) REPRESENTATION_CONTEXT ( 'NONE', 'WORKASPACE' ) );
#140 = DIRECTION ( 'NONE',  ( -9.448620473410002383E-17, 1.000000000000000000, -0.000000000000000000 ) ) ;
#141 =( NAMED_UNIT ( * ) PLANE_ANGLE_UNIT ( ) SI_UNIT ( $, .RADIAN. ) );
#142 = DIRECTION ( 'NONE',  ( -1.224646799147352961E-16, 0.000000000000000000, -1.000000000000000000 ) ) ;
#143 = FILL_AREA_STYLE ('',( #22 ) ) ;
#144 = ORIENTED_EDGE ( 'NONE', *, *, #331, .T. ) ;
#145 = DIRECTION ( 'NONE',  ( -0.000000000000000000, -1.000000000000000000, -0.000000000000000000 ) ) ;
#146 = AXIS2_PLACEMENT_3D ( 'NONE', #225, #340, #80 ) ;
#147 = CYLINDRICAL_SURFACE ( 'NONE', #329, 3.999999999999996447 ) ;
#148 = AXIS2_PLACEMENT_3D ( 'NONE', #211, #255, #181 ) ;
#149 = CARTESIAN_POINT ( 'NONE',  ( 6.288372600415924928E-15, 11.99999999999999645, 0.000000000000000000 ) ) ;
#150 = EDGE_CURVE ( 'NONE', #268, #227, #343, .T. ) ;
#151 = AXIS2_PLACEMENT_3D ( 'NONE', #122, #135, #128 ) ;
#152 = DIRECTION ( 'NONE',  ( 0.000000000000000000, 0.000000000000000000, 1.000000000000000000 ) ) ;
#153 = COLOUR_RGB ( '',1.000000000000000000, 0.000000000000000000, 0.000000000000000000 ) ;
#154 = PRESENTATION_STYLE_ASSIGNMENT (( #64 ) ) ;
#155 = DIRECTION ( 'NONE',  ( -1.000000000000000000, 0.000000000000000000, 0.000000000000000000 ) ) ;
#156 =( NAMED_UNIT ( * ) PLANE_ANGLE_UNIT ( ) SI_UNIT ( $, .RADIAN. ) );
#157 = MANIFOLD_SOLID_BREP ( 'Revolve - Tool Body (Straight Shanked)', #214 ) ;
#158 = COLOUR_RGB ( '',1.000000000000000000, 0.000000000000000000, 0.000000000000000000 ) ;
#159 =( LENGTH_UNIT ( ) NAMED_UNIT ( * ) SI_UNIT ( .MILLI., .METRE. ) );
#160 = CARTESIAN_POINT ( 'NONE',  ( 0.000000000000000000, 1.000000000000000000, 0.000000000000000000 ) ) ;
#161 = CARTESIAN_POINT ( 'NONE',  ( 0.000000000000000000, 0.000000000000000000, 0.000000000000000000 ) ) ;
#162 = EDGE_CURVE ( 'NONE', #14, #311, #279, .T. ) ;
#163 = FACE_OUTER_BOUND ( 'NONE', #277, .T. ) ;
#164 = FILL_AREA_STYLE_COLOUR ( '', #295 ) ;
#165 = ORIENTED_EDGE ( 'NONE', *, *, #150, .F. ) ;
#166 = CARTESIAN_POINT ( 'NONE',  ( 0.000000000000000000, 0.000000000000000000, 0.000000000000000000 ) ) ;
#167 = LINE ( 'NONE', #99, #189 ) ;
#168 = SURFACE_SIDE_STYLE ('',( #76 ) ) ;
#169 = FACE_OUTER_BOUND ( 'NONE', #274, .T. ) ;
#170 = SURFACE_STYLE_FILL_AREA ( #69 ) ;
#171 = ORIENTED_EDGE ( 'NONE', *, *, #121, .F. ) ;
#172 = PLANE ( 'NONE',  #96 ) ;
#173 = MECHANICAL_DESIGN_GEOMETRIC_PRESENTATION_REPRESENTATION (  '', ( #330 ), #63 ) ;
#174 = CARTESIAN_POINT ( 'NONE',  ( -3.999999999999996447, 63.00000000000000000, 0.000000000000000000 ) ) ;
#175 = EDGE_LOOP ( 'NONE', ( #224, #66, #79, #342 ) ) ;
#176 = EDGE_CURVE ( 'NONE', #303, #45, #52, .T. ) ;
#177 = DIRECTION ( 'NONE',  ( -0.000000000000000000, -1.000000000000000000, -0.000000000000000000 ) ) ;
#178 = CIRCLE ( 'NONE', #108, 3.999999999999993339 ) ;
#179 = CARTESIAN_POINT ( 'NONE',  ( 1.469576158976823750E-15, 63.00000000000000000, 0.000000000000000000 ) ) ;
#180 = EDGE_CURVE ( 'NONE', #107, #303, #219, .T. ) ;
#181 = DIRECTION ( 'NONE',  ( -1.000000000000000000, -9.448620473410002383E-17, 0.000000000000000000 ) ) ;
#182 = SURFACE_STYLE_FILL_AREA ( #111 ) ;
#183 = STYLED_ITEM ( 'NONE', ( #154 ), #265 ) ;
#184 = DIRECTION ( 'NONE',  ( 0.000000000000000000, 0.000000000000000000, -1.000000000000000000 ) ) ;
#185 = DIRECTION ( 'NONE',  ( -0.000000000000000000, -1.000000000000000000, -0.000000000000000000 ) ) ;
#186 =( GEOMETRIC_REPRESENTATION_CONTEXT ( 3 ) GLOBAL_UNCERTAINTY_ASSIGNED_CONTEXT ( ( #12 ) ) GLOBAL_UNIT_ASSIGNED_CONTEXT ( ( #368, #280, #292 ) ) REPRESENTATION_CONTEXT ( 'NONE', 'WORKASPACE' ) );
#187 = COLOUR_RGB ( '',0.7921568627450980005, 0.8196078431372548767, 0.9333333333333333481 ) ;
#188 = CARTESIAN_POINT ( 'NONE',  ( 4.000000000000000000, 63.00000000000000000, 4.898587196589409870E-16 ) ) ;
#189 = VECTOR ( 'NONE', #328, 1000.000000000000000 ) ;
#190 = ADVANCED_BREP_SHAPE_REPRESENTATION ( '59521', ( #265, #157, #17 ), #27 ) ;
#191 = ORIENTED_EDGE ( 'NONE', *, *, #24, .F. ) ;
#192 = VECTOR ( 'NONE', #353, 1000.000000000000000 ) ;
#193 = FACE_OUTER_BOUND ( 'NONE', #110, .T. ) ;
#194 = APPLICATION_PROTOCOL_DEFINITION ( 'draft international standard', 'automotive_design', 1998, #70 ) ;
#195 = ORIENTED_EDGE ( 'NONE', *, *, #176, .F. ) ;
#196 = COLOUR_RGB ( '',1.000000000000000000, 0.000000000000000000, 0.000000000000000000 ) ;
#197 = EDGE_CURVE ( 'NONE', #45, #303, #259, .T. ) ;
#198 = AXIS2_PLACEMENT_3D ( 'NONE', #5, #2, #119 ) ;
#199 = SURFACE_STYLE_USAGE ( .BOTH. , #168 ) ;
#200 =( NAMED_UNIT ( * ) SI_UNIT ( $, .STERADIAN. ) SOLID_ANGLE_UNIT ( ) );
#201 = ORIENTED_EDGE ( 'NONE', *, *, #126, .F. ) ;
#202 = FACE_OUTER_BOUND ( 'NONE', #231, .T. ) ;
#203 = ADVANCED_FACE ( 'NONE', ( #163 ), #88, .T. ) ;
#204 = AXIS2_PLACEMENT_3D ( 'NONE', #1, #59, #118 ) ;
#205 = ADVANCED_FACE ( 'NONE', ( #169 ), #306, .F. ) ;
#206 = EDGE_LOOP ( 'NONE', ( #105, #281, #144, #195 ) ) ;
#207 = ORIENTED_EDGE ( 'NONE', *, *, #121, .T. ) ;
#208 =( NAMED_UNIT ( * ) SI_UNIT ( $, .STERADIAN. ) SOLID_ANGLE_UNIT ( ) );
#209 = CIRCLE ( 'NONE', #38, 1.000000000000000000 ) ;
#210 = DIRECTION ( 'NONE',  ( 0.000000000000000000, 0.000000000000000000, -1.000000000000000000 ) ) ;
#211 = CARTESIAN_POINT ( 'NONE',  ( 6.288372600415925717E-15, 12.00000000000000000, 0.000000000000000000 ) ) ;
#212 =( GEOMETRIC_REPRESENTATION_CONTEXT ( 3 ) GLOBAL_UNCERTAINTY_ASSIGNED_CONTEXT ( ( #101 ) ) GLOBAL_UNIT_ASSIGNED_CONTEXT ( ( #159, #39, #264 ) ) REPRESENTATION_CONTEXT ( 'NONE', 'WORKASPACE' ) );
#213 = SURFACE_SIDE_STYLE ('',( #296 ) ) ;
#214 = CLOSED_SHELL ( 'NONE', ( #71, #116, #254, #205 ) ) ;
#215 = STYLED_ITEM ( 'NONE', ( #366 ), #50 ) ;
#216 = DIRECTION ( 'NONE',  ( -9.448620473410002383E-17, 1.000000000000000000, -0.000000000000000000 ) ) ;
#217 = ORIENTED_EDGE ( 'NONE', *, *, #316, .T. ) ;
#218 = ADVANCED_FACE ( 'NONE', ( #193 ), #243, .T. ) ;
#219 = LINE ( 'NONE', #97, #34 ) ;
#220 =( GEOMETRIC_REPRESENTATION_CONTEXT ( 3 ) GLOBAL_UNCERTAINTY_ASSIGNED_CONTEXT ( ( #134 ) ) GLOBAL_UNIT_ASSIGNED_CONTEXT ( ( #136, #41, #200 ) ) REPRESENTATION_CONTEXT ( 'NONE', 'WORKASPACE' ) );
#221 = ORIENTED_EDGE ( 'NONE', *, *, #162, .F. ) ;
#222 = DIRECTION ( 'NONE',  ( -0.000000000000000000, -1.000000000000000000, -0.000000000000000000 ) ) ;
#223 = MECHANICAL_DESIGN_GEOMETRIC_PRESENTATION_REPRESENTATION (  '', ( #215 ), #186 ) ;
#224 = ORIENTED_EDGE ( 'NONE', *, *, #109, .F. ) ;
#225 = CARTESIAN_POINT ( 'NONE',  ( 1.469576158976823750E-15, 63.00000000000000000, 0.000000000000000000 ) ) ;
#226 = CARTESIAN_POINT ( 'NONE',  ( 0.000000000000000000, 1.000000000000000000, -4.000000000000000000 ) ) ;
#227 = VERTEX_POINT ( 'NONE', #248 ) ;
#228 = STYLED_ITEM ( 'NONE', ( #16 ), #218 ) ;
#229 = CIRCLE ( 'NONE', #298, 3.999999999999993339 ) ;
#230 = AXIS2_PLACEMENT_3D ( 'NONE', #321, #177, #347 ) ;
#231 = EDGE_LOOP ( 'NONE', ( #100, #207 ) ) ;
#232 = PRESENTATION_STYLE_ASSIGNMENT (( #258 ) ) ;
#233 = UNCERTAINTY_MEASURE_WITH_UNIT (LENGTH_MEASURE( 1.000000000000000082E-05 ), #350, 'distance_accuracy_value', 'NONE');
#234 = CARTESIAN_POINT ( 'NONE',  ( 0.000000000000000000, 0.000000000000000000, -4.000000000000000000 ) ) ;
#235 = STYLED_ITEM ( 'NONE', ( #37 ), #309 ) ;
#236 = EDGE_CURVE ( 'NONE', #311, #315, #60, .T. ) ;
#237 = FACE_OUTER_BOUND ( 'NONE', #125, .T. ) ;
#238 = DIRECTION ( 'NONE',  ( 0.000000000000000000, 0.000000000000000000, -1.000000000000000000 ) ) ;
#239 = PRESENTATION_LAYER_ASSIGNMENT (  '', '', ( #354 ) ) ;
#240 = CIRCLE ( 'NONE', #129, 4.000000000000000000 ) ;
#241 = FILL_AREA_STYLE ('',( #120 ) ) ;
#242 = CARTESIAN_POINT ( 'NONE',  ( 0.000000000000000000, 0.000000000000000000, -3.000000000000000000 ) ) ;
#243 = CYLINDRICAL_SURFACE ( 'NONE', #73, 4.000000000000000000 ) ;
#244 = FILL_AREA_STYLE_COLOUR ( '', #19 ) ;
#245 = STYLED_ITEM ( 'NONE', ( #20 ), #203 ) ;
#246 = UNCERTAINTY_MEASURE_WITH_UNIT (LENGTH_MEASURE( 1.000000000000000082E-05 ), #32, 'distance_accuracy_value', 'NONE');
#247 = DIRECTION ( 'NONE',  ( 1.000000000000000000, 0.000000000000000000, -1.224646799147353207E-16 ) ) ;
#248 = CARTESIAN_POINT ( 'NONE',  ( 0.000000000000000000, 12.00000000000000000, -4.000000000000000000 ) ) ;
#249 = FACE_OUTER_BOUND ( 'NONE', #175, .T. ) ;
#250 = APPLICATION_CONTEXT ( 'automotive_design' ) ;
#251 = PRODUCT_RELATED_PRODUCT_CATEGORY ( 'part', '', ( #15 ) ) ;
#252 = SURFACE_STYLE_FILL_AREA ( #143 ) ;
#253 = DIRECTION ( 'NONE',  ( 0.000000000000000000, 0.000000000000000000, -1.000000000000000000 ) ) ;
#254 = ADVANCED_FACE ( 'NONE', ( #312 ), #49, .T. ) ;
#255 = DIRECTION ( 'NONE',  ( -9.448620473410002383E-17, 1.000000000000000000, 0.000000000000000000 ) ) ;
#256 = CARTESIAN_POINT ( 'NONE',  ( 4.898587196589412829E-16, 0.000000000000000000, 4.000000000000000000 ) ) ;
#257 =( GEOMETRIC_REPRESENTATION_CONTEXT ( 3 ) GLOBAL_UNCERTAINTY_ASSIGNED_CONTEXT ( ( #246 ) ) GLOBAL_UNIT_ASSIGNED_CONTEXT ( ( #32, #156, #263 ) ) REPRESENTATION_CONTEXT ( 'NONE', 'WORKASPACE' ) );
#258 = SURFACE_STYLE_USAGE ( .BOTH. , #112 ) ;
#259 = CIRCLE ( 'NONE', #98, 3.999999999999998224 ) ;
#260 = ADVANCED_FACE ( 'NONE', ( #202 ), #172, .T. ) ;
#261 = FILL_AREA_STYLE ('',( #35 ) ) ;
#262 = LINE ( 'NONE', #256, #192 ) ;
#263 =( NAMED_UNIT ( * ) SI_UNIT ( $, .STERADIAN. ) SOLID_ANGLE_UNIT ( ) );
#264 =( NAMED_UNIT ( * ) SI_UNIT ( $, .STERADIAN. ) SOLID_ANGLE_UNIT ( ) );
#265 = MANIFOLD_SOLID_BREP ( 'Revolve - Cutting Edge', #94 ) ;
#266 = DIRECTION ( 'NONE',  ( -0.000000000000000000, -1.000000000000000000, -0.000000000000000000 ) ) ;
#267 = DIRECTION ( 'NONE',  ( -1.000000000000000000, 0.000000000000000000, 0.000000000000000000 ) ) ;
#268 = VERTEX_POINT ( 'NONE', #93 ) ;
#269 = COLOUR_RGB ( '',0.7921568627450980005, 0.8196078431372548767, 0.9333333333333333481 ) ;
#270 = CARTESIAN_POINT ( 'NONE',  ( 6.288372600415924928E-15, 11.99999999999999645, 0.000000000000000000 ) ) ;
#271 = SURFACE_SIDE_STYLE ('',( #43 ) ) ;
#272 = ORIENTED_EDGE ( 'NONE', *, *, #176, .T. ) ;
#273 = DIRECTION ( 'NONE',  ( 0.000000000000000000, 0.000000000000000000, -1.000000000000000000 ) ) ;
#274 = EDGE_LOOP ( 'NONE', ( #369, #272 ) ) ;
#275 = SURFACE_STYLE_USAGE ( .BOTH. , #301 ) ;
#276 = DIRECTION ( 'NONE',  ( 0.000000000000000000, 1.000000000000000000, 0.000000000000000000 ) ) ;
#277 = EDGE_LOOP ( 'NONE', ( #83, #81, #25, #221 ) ) ;
#278 = DIRECTION ( 'NONE',  ( 0.000000000000000000, 0.000000000000000000, -1.000000000000000000 ) ) ;
#279 = CIRCLE ( 'NONE', #68, 1.000000000000000000 ) ;
#280 =( NAMED_UNIT ( * ) PLANE_ANGLE_UNIT ( ) SI_UNIT ( $, .RADIAN. ) );
#281 = ORIENTED_EDGE ( 'NONE', *, *, #87, .T. ) ;
#282 = CARTESIAN_POINT ( 'NONE',  ( -3.999999999999987121, 11.99999999999999645, 0.000000000000000000 ) ) ;
#283 = PRESENTATION_LAYER_ASSIGNMENT (  '', '', ( #65 ) ) ;
#284 = PRESENTATION_LAYER_ASSIGNMENT (  '', '', ( #215 ) ) ;
#285 = UNCERTAINTY_MEASURE_WITH_UNIT (LENGTH_MEASURE( 1.000000000000000082E-05 ), #367, 'distance_accuracy_value', 'NONE');
#286 =( NAMED_UNIT ( * ) PLANE_ANGLE_UNIT ( ) SI_UNIT ( $, .RADIAN. ) );
#287 = CARTESIAN_POINT ( 'NONE',  ( 1.469576158976823750E-15, 63.00000000000000000, 0.000000000000000000 ) ) ;
#288 = SURFACE_STYLE_FILL_AREA ( #261 ) ;
#289 = FILL_AREA_STYLE_COLOUR ( '', #187 ) ;
#290 = MECHANICAL_DESIGN_GEOMETRIC_PRESENTATION_REPRESENTATION (  '', ( #228 ), #139 ) ;
#291 = CARTESIAN_POINT ( 'NONE',  ( 0.000000000000000000, 1.000000000000000000, 0.000000000000000000 ) ) ;
#292 =( NAMED_UNIT ( * ) SI_UNIT ( $, .STERADIAN. ) SOLID_ANGLE_UNIT ( ) );
#293 = MECHANICAL_DESIGN_GEOMETRIC_PRESENTATION_REPRESENTATION (  '', ( #245 ), #304 ) ;
#294 = SURFACE_STYLE_USAGE ( .BOTH. , #213 ) ;
#295 = COLOUR_RGB ( '',1.000000000000000000, 0.000000000000000000, 0.000000000000000000 ) ;
#296 = SURFACE_STYLE_FILL_AREA ( #241 ) ;
#297 = EDGE_LOOP ( 'NONE', ( #332, #86 ) ) ;
#298 = AXIS2_PLACEMENT_3D ( 'NONE', #149, #317, #155 ) ;
#299 = SURFACE_STYLE_FILL_AREA ( #77 ) ;
#300 = DIRECTION ( 'NONE',  ( -9.448620473410002383E-17, 1.000000000000000000, -0.000000000000000000 ) ) ;
#301 = SURFACE_SIDE_STYLE ('',( #299 ) ) ;
#302 = DIRECTION ( 'NONE',  ( 0.000000000000000000, 0.000000000000000000, 1.000000000000000000 ) ) ;
#303 = VERTEX_POINT ( 'NONE', #188 ) ;
#304 =( GEOMETRIC_REPRESENTATION_CONTEXT ( 3 ) GLOBAL_UNCERTAINTY_ASSIGNED_CONTEXT ( ( #285 ) ) GLOBAL_UNIT_ASSIGNED_CONTEXT ( ( #367, #327, #40 ) ) REPRESENTATION_CONTEXT ( 'NONE', 'WORKASPACE' ) );
#305 = VECTOR ( 'NONE', #185, 1000.000000000000000 ) ;
#306 = PLANE ( 'NONE',  #151 ) ;
#307 = PLANE ( 'NONE',  #55 ) ;
#308 = EDGE_LOOP ( 'NONE', ( #191, #165 ) ) ;
#309 = ADVANCED_FACE ( 'NONE', ( #237 ), #336, .T. ) ;
#310 =( LENGTH_UNIT ( ) NAMED_UNIT ( * ) SI_UNIT ( .MILLI., .METRE. ) );
#311 = VERTEX_POINT ( 'NONE', #242 ) ;
#312 = FACE_OUTER_BOUND ( 'NONE', #206, .T. ) ;
#313 = CARTESIAN_POINT ( 'NONE',  ( 3.673940397442059868E-16, 1.000000000000000000, 3.000000000000000000 ) ) ;
#314 = PRESENTATION_LAYER_ASSIGNMENT (  '', '', ( #330 ) ) ;
#315 = VERTEX_POINT ( 'NONE', #320 ) ;
#316 = EDGE_CURVE ( 'NONE', #53, #107, #178, .T. ) ;
#317 = DIRECTION ( 'NONE',  ( -9.448620473410002383E-17, 1.000000000000000000, -0.000000000000000000 ) ) ;
#318 = PRESENTATION_LAYER_ASSIGNMENT (  '', '', ( #228 ) ) ;
#319 = PRODUCT_DEFINITION ( 'UNKNOWN', '', #326, #335 ) ;
#320 = CARTESIAN_POINT ( 'NONE',  ( 4.286263797015736595E-16, 0.000000000000000000, 3.000000000000000000 ) ) ;
#321 = CARTESIAN_POINT ( 'NONE',  ( 0.000000000000000000, 1.000000000000000000, 0.000000000000000000 ) ) ;
#322 =( NAMED_UNIT ( * ) SI_UNIT ( $, .STERADIAN. ) SOLID_ANGLE_UNIT ( ) );
#323 = CARTESIAN_POINT ( 'NONE',  ( 0.000000000000000000, 1.000000000000000000, -3.000000000000000000 ) ) ;
#324 = MECHANICAL_DESIGN_GEOMETRIC_PRESENTATION_REPRESENTATION (  '', ( #354 ), #220 ) ;
#325 = CARTESIAN_POINT ( 'NONE',  ( 0.000000000000000000, 0.000000000000000000, 0.000000000000000000 ) ) ;
#326 = PRODUCT_DEFINITION_FORMATION_WITH_SPECIFIED_SOURCE ( 'ANY', '', #15, .NOT_KNOWN. ) ;
#327 =( NAMED_UNIT ( * ) PLANE_ANGLE_UNIT ( ) SI_UNIT ( $, .RADIAN. ) );
#328 = DIRECTION ( 'NONE',  ( -9.448620473410002383E-17, 1.000000000000000000, -0.000000000000000000 ) ) ;
#329 = AXIS2_PLACEMENT_3D ( 'NONE', #287, #4, #349 ) ;
#330 = STYLED_ITEM ( 'NONE', ( #232 ), #157 ) ;
#331 = EDGE_CURVE ( 'NONE', #53, #45, #167, .T. ) ;
#332 = ORIENTED_EDGE ( 'NONE', *, *, #316, .F. ) ;
#333 = SURFACE_STYLE_USAGE ( .BOTH. , #271 ) ;
#334 = CARTESIAN_POINT ( 'NONE',  ( 0.000000000000000000, 12.00000000000000000, 0.000000000000000000 ) ) ;
#335 = PRODUCT_DEFINITION_CONTEXT ( 'detailed design', #70, 'design' ) ;
#336 = TOROIDAL_SURFACE ( 'NONE', #9, 3.000000000000000000, 1.000000000000000000 ) ;
#337 = EDGE_LOOP ( 'NONE', ( #217, #21, #18, #42 ) ) ;
#338 =( NAMED_UNIT ( * ) SI_UNIT ( $, .STERADIAN. ) SOLID_ANGLE_UNIT ( ) );
#339 = ORIENTED_EDGE ( 'NONE', *, *, #24, .T. ) ;
#340 = DIRECTION ( 'NONE',  ( -9.448620473410002383E-17, 1.000000000000000000, -0.000000000000000000 ) ) ;
#341 = MECHANICAL_DESIGN_GEOMETRIC_PRESENTATION_REPRESENTATION (  '', ( #183 ), #257 ) ;
#342 = ORIENTED_EDGE ( 'NONE', *, *, #137, .F. ) ;
#343 = CIRCLE ( 'NONE', #204, 4.000000000000000000 ) ;
#344 = VERTEX_POINT ( 'NONE', #8 ) ;
#345 =( LENGTH_UNIT ( ) NAMED_UNIT ( * ) SI_UNIT ( .MILLI., .METRE. ) );
#346 = MECHANICAL_DESIGN_GEOMETRIC_PRESENTATION_REPRESENTATION (  '', ( #65 ), #31 ) ;
#347 = DIRECTION ( 'NONE',  ( 0.000000000000000000, 0.000000000000000000, -1.000000000000000000 ) ) ;
#348 = AXIS2_PLACEMENT_3D ( 'NONE', #102, #145, #253 ) ;
#349 = DIRECTION ( 'NONE',  ( -1.000000000000000000, 0.000000000000000000, 0.000000000000000000 ) ) ;
#350 =( LENGTH_UNIT ( ) NAMED_UNIT ( * ) SI_UNIT ( .MILLI., .METRE. ) );
#351 = FACE_OUTER_BOUND ( 'NONE', #297, .T. ) ;
#352 = PRODUCT_DEFINITION_SHAPE ( 'NONE', 'NONE',  #319 ) ;
#353 = DIRECTION ( 'NONE',  ( -0.000000000000000000, -1.000000000000000000, -0.000000000000000000 ) ) ;
#354 = STYLED_ITEM ( 'NONE', ( #362 ), #357 ) ;
#355 = CIRCLE ( 'NONE', #198, 3.000000000000000000 ) ;
#356 = SURFACE_SIDE_STYLE ('',( #170 ) ) ;
#357 = ADVANCED_FACE ( 'NONE', ( #123 ), #307, .T. ) ;
#358 = FILL_AREA_STYLE ('',( #164 ) ) ;
#359 = CIRCLE ( 'NONE', #230, 4.000000000000000000 ) ;
#360 = UNCERTAINTY_MEASURE_WITH_UNIT (LENGTH_MEASURE( 1.000000000000000082E-05 ), #310, 'distance_accuracy_value', 'NONE');
#361 =( LENGTH_UNIT ( ) NAMED_UNIT ( * ) SI_UNIT ( .MILLI., .METRE. ) );
#362 = PRESENTATION_STYLE_ASSIGNMENT (( #78 ) ) ;
#363 = ORIENTED_EDGE ( 'NONE', *, *, #6, .F. ) ;
#364 = FILL_AREA_STYLE_COLOUR ( '', #153 ) ;
#365 = DIRECTION ( 'NONE',  ( 1.000000000000000000, 0.000000000000000000, 0.000000000000000000 ) ) ;
#366 = PRESENTATION_STYLE_ASSIGNMENT (( #199 ) ) ;
#367 =( LENGTH_UNIT ( ) NAMED_UNIT ( * ) SI_UNIT ( .MILLI., .METRE. ) );
#368 =( LENGTH_UNIT ( ) NAMED_UNIT ( * ) SI_UNIT ( .MILLI., .METRE. ) );
#369 = ORIENTED_EDGE ( 'NONE', *, *, #197, .T. ) ;
#370 = CYLINDRICAL_SURFACE ( 'NONE', #11, 4.000000000000000000 ) ;
ENDSEC;
END-ISO-10303-21;
