ISO-10303-21;
HEADER;
FILE_DESCRIPTION (( 'STEP AP214' ),
    '1' );
FILE_NAME ('Micro_RME-024-2.STEP',
    '2021-09-01T22:55:50',
    ( '' ),
    ( '' ),
    'SwSTEP 2.0',
    'SolidWorks 2020',
    '' );
FILE_SCHEMA (( 'AUTOMOTIVE_DESIGN' ));
ENDSEC;

DATA;
#1 = VERTEX_POINT ( 'NONE', #99 ) ;
#2 = AXIS2_PLACEMENT_3D ( 'NONE', #139, #209, #163 ) ;
#3 = ORIENTED_EDGE ( 'NONE', *, *, #40, .T. ) ;
#4 = CLOSED_SHELL ( 'NONE', ( #56, #18, #278, #286, #251, #152, #117, #109, #184, #50 ) ) ;
#5 = ORIENTED_EDGE ( 'NONE', *, *, #228, .T. ) ;
#6 = ORIENTED_EDGE ( 'NONE', *, *, #87, .T. ) ;
#7 = DIRECTION ( 'NONE',  ( 1.000000000000000000, 0.0000000000000000000, 0.0000000000000000000 ) ) ;
#8 =( NAMED_UNIT ( * ) SI_UNIT ( $, .STERADIAN. ) SOLID_ANGLE_UNIT ( ) );
#9 = DIRECTION ( 'NONE',  ( 1.000000000000000000, 0.0000000000000000000, -0.0000000000000000000 ) ) ;
#10 = PRODUCT ( 'Micro_RME-024-2', 'Micro_RME-024-2', '', ( #145 ) ) ;
#11 = MECHANICAL_DESIGN_GEOMETRIC_PRESENTATION_REPRESENTATION (  '', ( #136 ), #239 ) ;
#12 = CARTESIAN_POINT ( 'NONE',  ( 0.0000000000000000000, 0.0000000000000000000, 1.485000000000000764 ) ) ;
#13 = DIRECTION ( 'NONE',  ( -1.224646799147353454E-16, -0.0000000000000000000, -1.000000000000000000 ) ) ;
#14 = DIRECTION ( 'NONE',  ( 0.0000000000000000000, 0.0000000000000000000, 1.000000000000000000 ) ) ;
#15 = CIRCLE ( 'NONE', #2, 0.06250000000000002776 ) ;
#16 = CARTESIAN_POINT ( 'NONE',  ( 0.06250000000000006939, 7.654042494670963708E-18, 0.3584677872725283154 ) ) ;
#17 = CARTESIAN_POINT ( 'NONE',  ( -0.01198799999999999866, 0.0000000000000000000, 2.936213165635694105E-18 ) ) ;
#18 = ADVANCED_FACE ( 'NONE', ( #275 ), #38, .T. ) ;
#19 = DIRECTION ( 'NONE',  ( -1.000000000000000000, 0.0000000000000000000, 0.0000000000000000000 ) ) ;
#20 = PRESENTATION_LAYER_ASSIGNMENT (  '', '', ( #276 ) ) ;
#21 = AXIS2_PLACEMENT_3D ( 'NONE', #268, #63, #90 ) ;
#22 =( CONVERSION_BASED_UNIT ( 'INCH', #182 ) LENGTH_UNIT ( ) NAMED_UNIT ( #100 ) );
#23 = ORIENTED_EDGE ( 'NONE', *, *, #299, .T. ) ;
#24 = PRODUCT_DEFINITION_CONTEXT ( 'detailed design', #230, 'design' ) ;
#25 = ORIENTED_EDGE ( 'NONE', *, *, #69, .F. ) ;
#26 = MANIFOLD_SOLID_BREP ( 'Cut-Revolve1', #4 ) ;
#27 = ORIENTED_EDGE ( 'NONE', *, *, #232, .F. ) ;
#28 = CIRCLE ( 'NONE', #21, 0.04750000000000064587 ) ;
#29 = SHAPE_DEFINITION_REPRESENTATION ( #81, #130 ) ;
#30 = ORIENTED_EDGE ( 'NONE', *, *, #188, .F. ) ;
#31 = APPLICATION_PROTOCOL_DEFINITION ( 'draft international standard', 'automotive_design', 1998, #230 ) ;
#32 = ORIENTED_EDGE ( 'NONE', *, *, #263, .F. ) ;
#33 = CARTESIAN_POINT ( 'NONE',  ( 4.389964282807362285E-17, 0.0000000000000000000, 0.3584677872725283154 ) ) ;
#34 = AXIS2_PLACEMENT_3D ( 'NONE', #64, #164, #208 ) ;
#35 = LINE ( 'NONE', #82, #89 ) ;
#36 = LENGTH_MEASURE_WITH_UNIT ( LENGTH_MEASURE( 0.02539999999999999897 ), #240 );
#37 = DIRECTION ( 'NONE',  ( -1.000000000000000000, 0.0000000000000000000, 1.224646799147353454E-16 ) ) ;
#38 = CONICAL_SURFACE ( 'NONE', #183, 0.01198799999999999866, 0.1745329251994338915 ) ;
#39 = CARTESIAN_POINT ( 'NONE',  ( 0.0000000000000000000, 0.0000000000000000000, 1.500000000000000222 ) ) ;
#40 = EDGE_CURVE ( 'NONE', #146, #285, #77, .T. ) ;
#41 = LINE ( 'NONE', #250, #290 ) ;
#42 = DIRECTION ( 'NONE',  ( 0.7071067811865462405, 8.659560562354916834E-17, -0.7071067811865486830 ) ) ;
#43 =( GEOMETRIC_REPRESENTATION_CONTEXT ( 3 ) GLOBAL_UNCERTAINTY_ASSIGNED_CONTEXT ( ( #281 ) ) GLOBAL_UNIT_ASSIGNED_CONTEXT ( ( #55, #57, #8 ) ) REPRESENTATION_CONTEXT ( 'NONE', 'WORKASPACE' ) );
#44 = DIRECTION ( 'NONE',  ( -1.000000000000000000, 0.0000000000000000000, 1.224646799147353454E-16 ) ) ;
#45 = DIRECTION ( 'NONE',  ( -0.0000000000000000000, -0.0000000000000000000, -1.000000000000000000 ) ) ;
#46 = LINE ( 'NONE', #93, #161 ) ;
#47 =( GEOMETRIC_REPRESENTATION_CONTEXT ( 3 ) GLOBAL_UNCERTAINTY_ASSIGNED_CONTEXT ( ( #197 ) ) GLOBAL_UNIT_ASSIGNED_CONTEXT ( ( #22, #95, #217 ) ) REPRESENTATION_CONTEXT ( 'NONE', 'WORKASPACE' ) );
#48 = ORIENTED_EDGE ( 'NONE', *, *, #40, .F. ) ;
#49 = SURFACE_SIDE_STYLE ('',( #234 ) ) ;
#50 = ADVANCED_FACE ( 'NONE', ( #135 ), #245, .F. ) ;
#51 = ORIENTED_EDGE ( 'NONE', *, *, #143, .T. ) ;
#52 = EDGE_LOOP ( 'NONE', ( #165, #6, #80, #187 ) ) ;
#53 = MECHANICAL_DESIGN_GEOMETRIC_PRESENTATION_REPRESENTATION (  '', ( #276 ), #43 ) ;
#54 = SURFACE_SIDE_STYLE ('',( #195 ) ) ;
#55 =( CONVERSION_BASED_UNIT ( 'INCH', #36 ) LENGTH_UNIT ( ) NAMED_UNIT ( #190 ) );
#56 = ADVANCED_FACE ( 'NONE', ( #111 ), #202, .T. ) ;
#57 =( NAMED_UNIT ( * ) PLANE_ANGLE_UNIT ( ) SI_UNIT ( $, .RADIAN. ) );
#58 = CONICAL_SURFACE ( 'NONE', #272, 0.04750000000000064587, 0.7853981633974466137 ) ;
#59 = CARTESIAN_POINT ( 'NONE',  ( 0.0000000000000000000, 0.0000000000000000000, 1.500000000000000222 ) ) ;
#60 = CARTESIAN_POINT ( 'NONE',  ( -0.04750000000000064587, 0.0000000000000000000, 1.500000000000000222 ) ) ;
#61 = CARTESIAN_POINT ( 'NONE',  ( 1.797912027455035388E-34, 0.0000000000000000000, 1.468106582817847053E-18 ) ) ;
#62 = AXIS2_PLACEMENT_3D ( 'NONE', #61, #244, #223 ) ;
#63 = DIRECTION ( 'NONE',  ( 0.0000000000000000000, 0.0000000000000000000, 1.000000000000000000 ) ) ;
#64 = CARTESIAN_POINT ( 'NONE',  ( 0.0000000000000000000, 0.0000000000000000000, 1.485000000000000764 ) ) ;
#65 = ORIENTED_EDGE ( 'NONE', *, *, #69, .T. ) ;
#66 = DIRECTION ( 'NONE',  ( -1.000000000000000000, 0.0000000000000000000, 0.0000000000000000000 ) ) ;
#67 = CIRCLE ( 'NONE', #62, 0.01198799999999999866 ) ;
#68 = DIRECTION ( 'NONE',  ( -1.000000000000000000, 0.0000000000000000000, 0.0000000000000000000 ) ) ;
#69 = EDGE_CURVE ( 'NONE', #146, #218, #110, .T. ) ;
#70 = APPLICATION_CONTEXT ( 'automotive_design' ) ;
#71 = ORIENTED_EDGE ( 'NONE', *, *, #248, .T. ) ;
#72 = DIRECTION ( 'NONE',  ( 0.0000000000000000000, 0.0000000000000000000, 1.000000000000000000 ) ) ;
#73 = CONICAL_SURFACE ( 'NONE', #115, 0.04750000000000064587, 0.7853981633974466137 ) ;
#74 = FILL_AREA_STYLE_COLOUR ( '', #284 ) ;
#75 = FILL_AREA_STYLE ('',( #74 ) ) ;
#76 = EDGE_CURVE ( 'NONE', #175, #173, #35, .T. ) ;
#77 = LINE ( 'NONE', #242, #243 ) ;
#78 = CARTESIAN_POINT ( 'NONE',  ( 8.817456953860943597E-18, 0.0000000000000000000, 0.07199999999999999456 ) ) ;
#79 = AXIS2_PLACEMENT_3D ( 'NONE', #222, #84, #9 ) ;
#80 = ORIENTED_EDGE ( 'NONE', *, *, #97, .F. ) ;
#81 = PRODUCT_DEFINITION_SHAPE ( 'NONE', 'NONE',  #159 ) ;
#82 = CARTESIAN_POINT ( 'NONE',  ( 0.01198800000000000733, 0.0000000000000000000, 0.07199999999999999456 ) ) ;
#83 = EDGE_CURVE ( 'NONE', #175, #146, #256, .T. ) ;
#84 = DIRECTION ( 'NONE',  ( 0.0000000000000000000, 0.0000000000000000000, 1.000000000000000000 ) ) ;
#85 = DIRECTION ( 'NONE',  ( 0.0000000000000000000, 0.0000000000000000000, -1.000000000000000000 ) ) ;
#86 = CARTESIAN_POINT ( 'NONE',  ( 0.06250000000000002776, 7.654042494670959086E-18, 1.485000000000000764 ) ) ;
#87 = EDGE_CURVE ( 'NONE', #148, #173, #179, .T. ) ;
#88 = FACE_OUTER_BOUND ( 'NONE', #52, .T. ) ;
#89 = VECTOR ( 'NONE', #220, 39.37007874015748143 ) ;
#90 = DIRECTION ( 'NONE',  ( 1.000000000000000000, 0.0000000000000000000, 0.0000000000000000000 ) ) ;
#91 = EDGE_LOOP ( 'NONE', ( #292, #214, #3, #216 ) ) ;
#92 = FACE_OUTER_BOUND ( 'NONE', #226, .T. ) ;
#93 = CARTESIAN_POINT ( 'NONE',  ( 0.04750000000000064587, 5.817072295950006528E-18, 1.500000000000000222 ) ) ;
#94 = CARTESIAN_POINT ( 'NONE',  ( 0.0000000000000000000, 0.0000000000000000000, 1.500000000000000222 ) ) ;
#95 =( NAMED_UNIT ( * ) PLANE_ANGLE_UNIT ( ) SI_UNIT ( $, .RADIAN. ) );
#96 = ORIENTED_EDGE ( 'NONE', *, *, #76, .F. ) ;
#97 = EDGE_CURVE ( 'NONE', #218, #173, #198, .T. ) ;
#98 = FILL_AREA_STYLE ('',( #211 ) ) ;
#99 = CARTESIAN_POINT ( 'NONE',  ( 0.04750000000000064587, 6.735557395310483192E-18, 1.500000000000000222 ) ) ;
#100 = DIMENSIONAL_EXPONENTS ( 1.000000000000000000, 0.0000000000000000000, 0.0000000000000000000, 0.0000000000000000000, 0.0000000000000000000, 0.0000000000000000000, 0.0000000000000000000 ) ;
#101 = AXIS2_PLACEMENT_3D ( 'NONE', #166, #141, #294 ) ;
#102 = ORIENTED_EDGE ( 'NONE', *, *, #97, .T. ) ;
#103 =( CONVERSION_BASED_UNIT ( 'INCH', #236 ) LENGTH_UNIT ( ) NAMED_UNIT ( #123 ) );
#104 = EDGE_LOOP ( 'NONE', ( #25, #233, #258, #5 ) ) ;
#105 = EDGE_LOOP ( 'NONE', ( #298, #199, #257, #125 ) ) ;
#106 = VERTEX_POINT ( 'NONE', #60 ) ;
#107 = AXIS2_PLACEMENT_3D ( 'NONE', #118, #45, #68 ) ;
#108 = CARTESIAN_POINT ( 'NONE',  ( 0.06250000000000002776, 7.654042494670959086E-18, 1.500000000000000222 ) ) ;
#109 = ADVANCED_FACE ( 'NONE', ( #200 ), #132, .T. ) ;
#110 = LINE ( 'NONE', #113, #264 ) ;
#111 = FACE_OUTER_BOUND ( 'NONE', #122, .T. ) ;
#112 = AXIS2_PLACEMENT_3D ( 'NONE', #142, #293, #44 ) ;
#113 = CARTESIAN_POINT ( 'NONE',  ( -0.01198799999999998998, 1.468106582817846860E-18, 0.07199999999999999456 ) ) ;
#114 = FACE_OUTER_BOUND ( 'NONE', #105, .T. ) ;
#115 = AXIS2_PLACEMENT_3D ( 'NONE', #59, #85, #157 ) ;
#116 = FACE_OUTER_BOUND ( 'NONE', #280, .T. ) ;
#117 = ADVANCED_FACE ( 'NONE', ( #114 ), #73, .T. ) ;
#118 = CARTESIAN_POINT ( 'NONE',  ( 0.0000000000000000000, 0.0000000000000000000, 1.500000000000000222 ) ) ;
#119 = LINE ( 'NONE', #253, #260 ) ;
#120 = AXIS2_PLACEMENT_3D ( 'NONE', #33, #177, #7 ) ;
#121 = DIRECTION ( 'NONE',  ( -1.224646799147353454E-16, -0.0000000000000000000, -1.000000000000000000 ) ) ;
#122 = EDGE_LOOP ( 'NONE', ( #138, #23, #32, #48 ) ) ;
#123 = DIMENSIONAL_EXPONENTS ( 1.000000000000000000, 0.0000000000000000000, 0.0000000000000000000, 0.0000000000000000000, 0.0000000000000000000, 0.0000000000000000000, 0.0000000000000000000 ) ;
#124 = SURFACE_STYLE_USAGE ( .BOTH. , #49 ) ;
#125 = ORIENTED_EDGE ( 'NONE', *, *, #147, .F. ) ;
#126 = CIRCLE ( 'NONE', #112, 0.01198799999999999866 ) ;
#127 = ORIENTED_EDGE ( 'NONE', *, *, #178, .T. ) ;
#128 = ORIENTED_EDGE ( 'NONE', *, *, #232, .T. ) ;
#129 = ORIENTED_EDGE ( 'NONE', *, *, #87, .F. ) ;
#130 = ADVANCED_BREP_SHAPE_REPRESENTATION ( 'Micro_RME-024-2', ( #26, #277 ), #47 ) ;
#131 = DIRECTION ( 'NONE',  ( -1.000000000000000000, 0.0000000000000000000, 0.0000000000000000000 ) ) ;
#132 = CONICAL_SURFACE ( 'NONE', #215, 0.01198799999999999866, 0.1745329251994338915 ) ;
#133 = PRODUCT_DEFINITION_FORMATION_WITH_SPECIFIED_SOURCE ( 'ANY', '', #10, .NOT_KNOWN. ) ;
#134 = CARTESIAN_POINT ( 'NONE',  ( 0.0000000000000000000, 0.0000000000000000000, 0.0000000000000000000 ) ) ;
#135 = FACE_OUTER_BOUND ( 'NONE', #279, .T. ) ;
#136 = STYLED_ITEM ( 'NONE', ( #213 ), #130 ) ;
#137 = CYLINDRICAL_SURFACE ( 'NONE', #180, 0.06250000000000002776 ) ;
#138 = ORIENTED_EDGE ( 'NONE', *, *, #241, .T. ) ;
#139 = CARTESIAN_POINT ( 'NONE',  ( 4.389964282807362285E-17, 0.0000000000000000000, 0.3584677872725283154 ) ) ;
#140 = CIRCLE ( 'NONE', #34, 0.06250000000000002776 ) ;
#141 = DIRECTION ( 'NONE',  ( -1.224646799147353454E-16, -0.0000000000000000000, -1.000000000000000000 ) ) ;
#142 = CARTESIAN_POINT ( 'NONE',  ( 1.797912027455035388E-34, 0.0000000000000000000, 1.468106582817847053E-18 ) ) ;
#143 = EDGE_CURVE ( 'NONE', #196, #285, #67, .T. ) ;
#144 = DIRECTION ( 'NONE',  ( -1.000000000000000000, 0.0000000000000000000, 0.0000000000000000000 ) ) ;
#145 = PRODUCT_CONTEXT ( 'NONE', #70, 'mechanical' ) ;
#146 = VERTEX_POINT ( 'NONE', #160 ) ;
#147 = EDGE_CURVE ( 'NONE', #148, #255, #155, .T. ) ;
#148 = VERTEX_POINT ( 'NONE', #86 ) ;
#149 =( LENGTH_UNIT ( ) NAMED_UNIT ( * ) SI_UNIT ( $, .METRE. ) );
#150 = CARTESIAN_POINT ( 'NONE',  ( 0.0000000000000000000, 0.0000000000000000000, 0.0000000000000000000 ) ) ;
#151 = ORIENTED_EDGE ( 'NONE', *, *, #201, .T. ) ;
#152 = ADVANCED_FACE ( 'NONE', ( #181 ), #267, .T. ) ;
#153 = DIRECTION ( 'NONE',  ( -0.1736481776669311916, 2.126576849575783316E-17, 0.9848077530122080203 ) ) ;
#154 = DIRECTION ( 'NONE',  ( -1.224646799147353454E-16, -0.0000000000000000000, -1.000000000000000000 ) ) ;
#155 = CIRCLE ( 'NONE', #170, 0.06250000000000002776 ) ;
#156 = PRESENTATION_LAYER_ASSIGNMENT (  '', '', ( #136 ) ) ;
#157 = DIRECTION ( 'NONE',  ( -1.000000000000000000, 0.0000000000000000000, 0.0000000000000000000 ) ) ;
#158 = DIRECTION ( 'NONE',  ( 1.000000000000000000, 0.0000000000000000000, 0.0000000000000000000 ) ) ;
#159 = PRODUCT_DEFINITION ( 'UNKNOWN', '', #133, #24 ) ;
#160 = CARTESIAN_POINT ( 'NONE',  ( -0.01198799999999998998, 4.561074538744403069E-18, 0.07199999999999999456 ) ) ;
#161 = VECTOR ( 'NONE', #42, 39.37007874015748854 ) ;
#162 = VECTOR ( 'NONE', #262, 39.37007874015748143 ) ;
#163 = DIRECTION ( 'NONE',  ( 1.000000000000000000, 0.0000000000000000000, 0.0000000000000000000 ) ) ;
#164 = DIRECTION ( 'NONE',  ( 0.0000000000000000000, 0.0000000000000000000, -1.000000000000000000 ) ) ;
#165 = ORIENTED_EDGE ( 'NONE', *, *, #191, .T. ) ;
#166 = CARTESIAN_POINT ( 'NONE',  ( 0.0000000000000000000, 0.0000000000000000000, 0.0000000000000000000 ) ) ;
#167 = AXIS2_PLACEMENT_3D ( 'NONE', #254, #121, #144 ) ;
#168 = DIRECTION ( 'NONE',  ( 1.000000000000000000, 0.0000000000000000000, 0.0000000000000000000 ) ) ;
#169 = PRODUCT_RELATED_PRODUCT_CATEGORY ( 'part', '', ( #10 ) ) ;
#170 = AXIS2_PLACEMENT_3D ( 'NONE', #12, #203, #289 ) ;
#171 = ORIENTED_EDGE ( 'NONE', *, *, #191, .F. ) ;
#172 =( NAMED_UNIT ( * ) SI_UNIT ( $, .STERADIAN. ) SOLID_ANGLE_UNIT ( ) );
#173 = VERTEX_POINT ( 'NONE', #16 ) ;
#174 = SURFACE_STYLE_USAGE ( .BOTH. , #54 ) ;
#175 = VERTEX_POINT ( 'NONE', #185 ) ;
#176 = DIRECTION ( 'NONE',  ( 1.000000000000000000, 0.0000000000000000000, -0.0000000000000000000 ) ) ;
#177 = DIRECTION ( 'NONE',  ( -1.224646799147353454E-16, -0.0000000000000000000, -1.000000000000000000 ) ) ;
#178 = EDGE_CURVE ( 'NONE', #106, #1, #28, .T. ) ;
#179 = LINE ( 'NONE', #108, #162 ) ;
#180 = AXIS2_PLACEMENT_3D ( 'NONE', #94, #225, #19 ) ;
#181 = FACE_OUTER_BOUND ( 'NONE', #219, .T. ) ;
#182 = LENGTH_MEASURE_WITH_UNIT ( LENGTH_MEASURE( 0.02539999999999999897 ), #273 );
#183 = AXIS2_PLACEMENT_3D ( 'NONE', #78, #193, #261 ) ;
#184 = ADVANCED_FACE ( 'NONE', ( #291 ), #269, .T. ) ;
#185 = CARTESIAN_POINT ( 'NONE',  ( 0.01198800000000000733, 0.0000000000000000000, 0.07199999999999999456 ) ) ;
#186 = DIRECTION ( 'NONE',  ( 0.0000000000000000000, 0.0000000000000000000, -1.000000000000000000 ) ) ;
#187 = ORIENTED_EDGE ( 'NONE', *, *, #248, .F. ) ;
#188 = EDGE_CURVE ( 'NONE', #106, #255, #41, .T. ) ;
#189 = EDGE_LOOP ( 'NONE', ( #235, #65, #102, #96 ) ) ;
#190 = DIMENSIONAL_EXPONENTS ( 1.000000000000000000, 0.0000000000000000000, 0.0000000000000000000, 0.0000000000000000000, 0.0000000000000000000, 0.0000000000000000000, 0.0000000000000000000 ) ;
#191 = EDGE_CURVE ( 'NONE', #255, #148, #140, .T. ) ;
#192 = VECTOR ( 'NONE', #227, 39.37007874015748143 ) ;
#193 = DIRECTION ( 'NONE',  ( 1.224646799147353454E-16, 0.0000000000000000000, 1.000000000000000000 ) ) ;
#194 = APPLICATION_PROTOCOL_DEFINITION ( 'draft international standard', 'automotive_design', 1998, #70 ) ;
#195 = SURFACE_STYLE_FILL_AREA ( #75 ) ;
#196 = VERTEX_POINT ( 'NONE', #229 ) ;
#197 = UNCERTAINTY_MEASURE_WITH_UNIT (LENGTH_MEASURE( 1.000000000000000082E-05 ), #22, 'distance_accuracy_value', 'NONE');
#198 = CIRCLE ( 'NONE', #120, 0.06250000000000002776 ) ;
#199 = ORIENTED_EDGE ( 'NONE', *, *, #178, .F. ) ;
#200 = FACE_OUTER_BOUND ( 'NONE', #104, .T. ) ;
#201 = EDGE_CURVE ( 'NONE', #1, #148, #46, .T. ) ;
#202 = CYLINDRICAL_SURFACE ( 'NONE', #287, 0.01198799999999999866 ) ;
#203 = DIRECTION ( 'NONE',  ( 0.0000000000000000000, 0.0000000000000000000, -1.000000000000000000 ) ) ;
#204 = DIRECTION ( 'NONE',  ( 0.0000000000000000000, 0.0000000000000000000, 1.000000000000000000 ) ) ;
#205 = LINE ( 'NONE', #249, #192 ) ;
#206 = CIRCLE ( 'NONE', #167, 0.01198799999999999866 ) ;
#207 = CARTESIAN_POINT ( 'NONE',  ( -0.06250000000000002776, 0.0000000000000000000, 1.485000000000000764 ) ) ;
#208 = DIRECTION ( 'NONE',  ( 1.000000000000000000, 0.0000000000000000000, 0.0000000000000000000 ) ) ;
#209 = DIRECTION ( 'NONE',  ( -1.224646799147353454E-16, -0.0000000000000000000, -1.000000000000000000 ) ) ;
#210 = CYLINDRICAL_SURFACE ( 'NONE', #107, 0.06250000000000002776 ) ;
#211 = FILL_AREA_STYLE_COLOUR ( '', #224 ) ;
#212 = ORIENTED_EDGE ( 'NONE', *, *, #263, .T. ) ;
#213 = PRESENTATION_STYLE_ASSIGNMENT (( #124 ) ) ;
#214 = ORIENTED_EDGE ( 'NONE', *, *, #83, .T. ) ;
#215 = AXIS2_PLACEMENT_3D ( 'NONE', #221, #265, #158 ) ;
#216 = ORIENTED_EDGE ( 'NONE', *, *, #143, .F. ) ;
#217 =( NAMED_UNIT ( * ) SI_UNIT ( $, .STERADIAN. ) SOLID_ANGLE_UNIT ( ) );
#218 = VERTEX_POINT ( 'NONE', #270 ) ;
#219 = EDGE_LOOP ( 'NONE', ( #127, #128 ) ) ;
#220 = DIRECTION ( 'NONE',  ( 0.1736481776669313859, 0.0000000000000000000, 0.9848077530122077983 ) ) ;
#221 = CARTESIAN_POINT ( 'NONE',  ( 8.817456953860943597E-18, 0.0000000000000000000, 0.07199999999999999456 ) ) ;
#222 = CARTESIAN_POINT ( 'NONE',  ( 0.0000000000000000000, 0.0000000000000000000, 0.0000000000000000000 ) ) ;
#223 = DIRECTION ( 'NONE',  ( -1.000000000000000000, 0.0000000000000000000, 1.224646799147353454E-16 ) ) ;
#224 = COLOUR_RGB ( '',0.7921568627450980005, 0.8196078431372548767, 0.9333333333333333481 ) ;
#225 = DIRECTION ( 'NONE',  ( -0.0000000000000000000, -0.0000000000000000000, -1.000000000000000000 ) ) ;
#226 = EDGE_LOOP ( 'NONE', ( #27, #151, #171, #30 ) ) ;
#227 = DIRECTION ( 'NONE',  ( -0.0000000000000000000, -0.0000000000000000000, -1.000000000000000000 ) ) ;
#228 = EDGE_CURVE ( 'NONE', #173, #218, #15, .T. ) ;
#229 = CARTESIAN_POINT ( 'NONE',  ( 0.01198799999999999866, 1.468106582817846860E-18, 0.0000000000000000000 ) ) ;
#230 = APPLICATION_CONTEXT ( 'automotive_design' ) ;
#231 = CARTESIAN_POINT ( 'NONE',  ( 0.0000000000000000000, 0.0000000000000000000, 1.500000000000000222 ) ) ;
#232 = EDGE_CURVE ( 'NONE', #1, #106, #238, .T. ) ;
#233 = ORIENTED_EDGE ( 'NONE', *, *, #83, .F. ) ;
#234 = SURFACE_STYLE_FILL_AREA ( #98 ) ;
#235 = ORIENTED_EDGE ( 'NONE', *, *, #241, .F. ) ;
#236 = LENGTH_MEASURE_WITH_UNIT ( LENGTH_MEASURE( 0.02539999999999999897 ), #149 );
#237 = ORIENTED_EDGE ( 'NONE', *, *, #228, .F. ) ;
#238 = CIRCLE ( 'NONE', #252, 0.04750000000000064587 ) ;
#239 =( GEOMETRIC_REPRESENTATION_CONTEXT ( 3 ) GLOBAL_UNCERTAINTY_ASSIGNED_CONTEXT ( ( #297 ) ) GLOBAL_UNIT_ASSIGNED_CONTEXT ( ( #103, #282, #172 ) ) REPRESENTATION_CONTEXT ( 'NONE', 'WORKASPACE' ) );
#240 =( LENGTH_UNIT ( ) NAMED_UNIT ( * ) SI_UNIT ( $, .METRE. ) );
#241 = EDGE_CURVE ( 'NONE', #146, #175, #206, .T. ) ;
#242 = CARTESIAN_POINT ( 'NONE',  ( -0.01198799999999999866, 0.0000000000000000000, 1.468106582817847053E-18 ) ) ;
#243 = VECTOR ( 'NONE', #154, 39.37007874015748143 ) ;
#244 = DIRECTION ( 'NONE',  ( -1.224646799147353454E-16, -0.0000000000000000000, -1.000000000000000000 ) ) ;
#245 = PLANE ( 'NONE',  #79 ) ;
#246 = AXIS2_PLACEMENT_3D ( 'NONE', #266, #13, #131 ) ;
#247 = DIRECTION ( 'NONE',  ( -0.7071067811865462405, 0.0000000000000000000, -0.7071067811865486830 ) ) ;
#248 = EDGE_CURVE ( 'NONE', #255, #218, #205, .T. ) ;
#249 = CARTESIAN_POINT ( 'NONE',  ( -0.06250000000000002776, 0.0000000000000000000, 1.500000000000000222 ) ) ;
#250 = CARTESIAN_POINT ( 'NONE',  ( -0.04750000000000064587, 0.0000000000000000000, 1.500000000000000222 ) ) ;
#251 = ADVANCED_FACE ( 'NONE', ( #116 ), #137, .T. ) ;
#252 = AXIS2_PLACEMENT_3D ( 'NONE', #271, #14, #168 ) ;
#253 = CARTESIAN_POINT ( 'NONE',  ( 0.01198799999999999866, 1.468106582817846860E-18, -1.468106582817847053E-18 ) ) ;
#254 = CARTESIAN_POINT ( 'NONE',  ( 8.817456953860943597E-18, 0.0000000000000000000, 0.07199999999999999456 ) ) ;
#255 = VERTEX_POINT ( 'NONE', #207 ) ;
#256 = CIRCLE ( 'NONE', #246, 0.01198799999999999866 ) ;
#257 = ORIENTED_EDGE ( 'NONE', *, *, #188, .T. ) ;
#258 = ORIENTED_EDGE ( 'NONE', *, *, #76, .T. ) ;
#259 = PRESENTATION_STYLE_ASSIGNMENT (( #174 ) ) ;
#260 = VECTOR ( 'NONE', #295, 39.37007874015748143 ) ;
#261 = DIRECTION ( 'NONE',  ( 1.000000000000000000, 0.0000000000000000000, 0.0000000000000000000 ) ) ;
#262 = DIRECTION ( 'NONE',  ( -0.0000000000000000000, -0.0000000000000000000, -1.000000000000000000 ) ) ;
#263 = EDGE_CURVE ( 'NONE', #285, #196, #126, .T. ) ;
#264 = VECTOR ( 'NONE', #153, 39.37007874015747433 ) ;
#265 = DIRECTION ( 'NONE',  ( 1.224646799147353454E-16, 0.0000000000000000000, 1.000000000000000000 ) ) ;
#266 = CARTESIAN_POINT ( 'NONE',  ( 8.817456953860943597E-18, 0.0000000000000000000, 0.07199999999999999456 ) ) ;
#267 = PLANE ( 'NONE',  #296 ) ;
#268 = CARTESIAN_POINT ( 'NONE',  ( 0.0000000000000000000, 0.0000000000000000000, 1.500000000000000222 ) ) ;
#269 = CYLINDRICAL_SURFACE ( 'NONE', #101, 0.01198799999999999866 ) ;
#270 = CARTESIAN_POINT ( 'NONE',  ( -0.06249999999999997918, 0.0000000000000000000, 0.3584677872725283154 ) ) ;
#271 = CARTESIAN_POINT ( 'NONE',  ( 0.0000000000000000000, 0.0000000000000000000, 1.500000000000000222 ) ) ;
#272 = AXIS2_PLACEMENT_3D ( 'NONE', #231, #186, #66 ) ;
#273 =( LENGTH_UNIT ( ) NAMED_UNIT ( * ) SI_UNIT ( $, .METRE. ) );
#274 = DIRECTION ( 'NONE',  ( 1.000000000000000000, 0.0000000000000000000, 0.0000000000000000000 ) ) ;
#275 = FACE_OUTER_BOUND ( 'NONE', #189, .T. ) ;
#276 = STYLED_ITEM ( 'NONE', ( #259 ), #26 ) ;
#277 = AXIS2_PLACEMENT_3D ( 'NONE', #150, #72, #274 ) ;
#278 = ADVANCED_FACE ( 'NONE', ( #92 ), #58, .T. ) ;
#279 = EDGE_LOOP ( 'NONE', ( #212, #51 ) ) ;
#280 = EDGE_LOOP ( 'NONE', ( #129, #283, #71, #237 ) ) ;
#281 = UNCERTAINTY_MEASURE_WITH_UNIT (LENGTH_MEASURE( 1.000000000000000082E-05 ), #55, 'distance_accuracy_value', 'NONE');
#282 =( NAMED_UNIT ( * ) PLANE_ANGLE_UNIT ( ) SI_UNIT ( $, .RADIAN. ) );
#283 = ORIENTED_EDGE ( 'NONE', *, *, #147, .T. ) ;
#284 = COLOUR_RGB ( '',0.7921568627450980005, 0.8196078431372548767, 0.9333333333333333481 ) ;
#285 = VERTEX_POINT ( 'NONE', #17 ) ;
#286 = ADVANCED_FACE ( 'NONE', ( #88 ), #210, .T. ) ;
#287 = AXIS2_PLACEMENT_3D ( 'NONE', #134, #288, #37 ) ;
#288 = DIRECTION ( 'NONE',  ( -1.224646799147353454E-16, -0.0000000000000000000, -1.000000000000000000 ) ) ;
#289 = DIRECTION ( 'NONE',  ( 1.000000000000000000, 0.0000000000000000000, 0.0000000000000000000 ) ) ;
#290 = VECTOR ( 'NONE', #247, 39.37007874015748854 ) ;
#291 = FACE_OUTER_BOUND ( 'NONE', #91, .T. ) ;
#292 = ORIENTED_EDGE ( 'NONE', *, *, #299, .F. ) ;
#293 = DIRECTION ( 'NONE',  ( -1.224646799147353454E-16, -0.0000000000000000000, -1.000000000000000000 ) ) ;
#294 = DIRECTION ( 'NONE',  ( -1.000000000000000000, 0.0000000000000000000, 1.224646799147353454E-16 ) ) ;
#295 = DIRECTION ( 'NONE',  ( -1.224646799147353454E-16, -0.0000000000000000000, -1.000000000000000000 ) ) ;
#296 = AXIS2_PLACEMENT_3D ( 'NONE', #39, #204, #176 ) ;
#297 = UNCERTAINTY_MEASURE_WITH_UNIT (LENGTH_MEASURE( 1.000000000000000082E-05 ), #103, 'distance_accuracy_value', 'NONE');
#298 = ORIENTED_EDGE ( 'NONE', *, *, #201, .F. ) ;
#299 = EDGE_CURVE ( 'NONE', #175, #196, #119, .T. ) ;
ENDSEC;
END-ISO-10303-21;
