ISO-10303-21;
HEADER;
FILE_DESCRIPTION (( 'STEP AP214' ),
    '1' );
FILE_NAME ('05922.STEP',
    '2023-06-22T16:27:03',
    ( '' ),
    ( '' ),
    'SwSTEP 2.0',
    'SolidWorks 2023',
    '' );
FILE_SCHEMA (( 'AUTOMOTIVE_DESIGN' ));
ENDSEC;

DATA;
#1 = COLOUR_RGB ( '',0.7921568627450980005, 0.8196078431372548767, 0.9333333333333333481 ) ;
#2 = APPLICATION_PROTOCOL_DEFINITION ( 'draft international standard', 'automotive_design', 1998, #109 ) ;
#3 = CIRCLE ( 'NONE', #209, 0.5000000000000001110 ) ;
#4 = DIMENSIONAL_EXPONENTS ( 1.000000000000000000, 0.000000000000000000, 0.000000000000000000, 0.000000000000000000, 0.000000000000000000, 0.000000000000000000, 0.000000000000000000 ) ;
#5 = FILL_AREA_STYLE_COLOUR ( '', #286 ) ;
#6 = EDGE_CURVE ( 'NONE', #67, #42, #258, .T. ) ;
#7 = LENGTH_MEASURE_WITH_UNIT ( LENGTH_MEASURE( 0.02539999999999999897 ), #221 );
#8 = FACE_OUTER_BOUND ( 'NONE', #85, .T. ) ;
#9 =( NAMED_UNIT ( * ) PLANE_ANGLE_UNIT ( ) SI_UNIT ( $, .RADIAN. ) );
#10 = DIRECTION ( 'NONE',  ( -1.000000000000000000, 0.000000000000000000, 0.000000000000000000 ) ) ;
#11 = PRESENTATION_STYLE_ASSIGNMENT (( #232 ) ) ;
#12 = DIRECTION ( 'NONE',  ( 0.000000000000000000, -1.000000000000000000, -0.000000000000000000 ) ) ;
#13 = EDGE_LOOP ( 'NONE', ( #114, #205 ) ) ;
#14 = EDGE_LOOP ( 'NONE', ( #276, #278, #244, #130 ) ) ;
#15 = AXIS2_PLACEMENT_3D ( 'NONE', #275, #104, #200 ) ;
#16 =( NAMED_UNIT ( * ) SI_UNIT ( $, .STERADIAN. ) SOLID_ANGLE_UNIT ( ) );
#17 = ORIENTED_EDGE ( 'NONE', *, *, #280, .F. ) ;
#18 = STYLED_ITEM ( 'NONE', ( #121 ), #159 ) ;
#19 = CARTESIAN_POINT ( 'NONE',  ( 0.000000000000000000, 0.000000000000000000, 0.000000000000000000 ) ) ;
#20 =( NAMED_UNIT ( * ) PLANE_ANGLE_UNIT ( ) SI_UNIT ( $, .RADIAN. ) );
#21 = EDGE_CURVE ( 'NONE', #63, #188, #306, .T. ) ;
#22 = FACE_OUTER_BOUND ( 'NONE', #13, .T. ) ;
#23 = CARTESIAN_POINT ( 'NONE',  ( -1.224646799147351975E-16, 7.000000000000000000, 0.000000000000000000 ) ) ;
#24 = DIRECTION ( 'NONE',  ( -4.259641040512529009E-17, 1.000000000000000000, -0.000000000000000000 ) ) ;
#25 = AXIS2_PLACEMENT_3D ( 'NONE', #40, #127, #228 ) ;
#26 = ADVANCED_BREP_SHAPE_REPRESENTATION ( '05922', ( #145, #143, #243 ), #235 ) ;
#27 = DIRECTION ( 'NONE',  ( 1.000000000000000000, 0.000000000000000000, 0.000000000000000000 ) ) ;
#28 = ADVANCED_FACE ( 'NONE', ( #160 ), #222, .T. ) ;
#29 = MECHANICAL_DESIGN_GEOMETRIC_PRESENTATION_REPRESENTATION (  '', ( #169 ), #122 ) ;
#30 = FACE_OUTER_BOUND ( 'NONE', #163, .T. ) ;
#31 =( CONVERSION_BASED_UNIT ( 'INCH', #252 ) LENGTH_UNIT ( ) NAMED_UNIT ( #184 ) );
#32 = DIRECTION ( 'NONE',  ( -4.259641040512529009E-17, 1.000000000000000000, -0.000000000000000000 ) ) ;
#33 = DIRECTION ( 'NONE',  ( 0.000000000000000000, -0.000000000000000000, 1.000000000000000000 ) ) ;
#34 = UNCERTAINTY_MEASURE_WITH_UNIT (LENGTH_MEASURE( 1.000000000000000082E-05 ), #118, 'distance_accuracy_value', 'NONE');
#35 = ORIENTED_EDGE ( 'NONE', *, *, #301, .F. ) ;
#36 = CARTESIAN_POINT ( 'NONE',  ( 0.5000000000000000000, 7.000000000000000000, 6.123233995736767268E-17 ) ) ;
#37 = VECTOR ( 'NONE', #32, 39.37007874015748143 ) ;
#38 = EDGE_LOOP ( 'NONE', ( #17, #105, #113, #201 ) ) ;
#39 = LINE ( 'NONE', #117, #58 ) ;
#40 = CARTESIAN_POINT ( 'NONE',  ( 0.5000000000000000000, 7.000000000000000000, 0.000000000000000000 ) ) ;
#41 = SURFACE_STYLE_FILL_AREA ( #294 ) ;
#42 = VERTEX_POINT ( 'NONE', #53 ) ;
#43 = ORIENTED_EDGE ( 'NONE', *, *, #6, .F. ) ;
#44 = DIRECTION ( 'NONE',  ( -0.000000000000000000, -1.000000000000000000, -0.000000000000000000 ) ) ;
#45 = CARTESIAN_POINT ( 'NONE',  ( -0.5000000000000002220, 7.000000000000000000, 0.000000000000000000 ) ) ;
#46 = SURFACE_STYLE_FILL_AREA ( #92 ) ;
#47 = STYLED_ITEM ( 'NONE', ( #152 ), #230 ) ;
#48 = PRODUCT_DEFINITION_FORMATION_WITH_SPECIFIED_SOURCE ( 'ANY', '', #304, .NOT_KNOWN. ) ;
#49 = PRODUCT_DEFINITION_CONTEXT ( 'detailed design', #109, 'design' ) ;
#50 = DIRECTION ( 'NONE',  ( -4.259641040512529009E-17, 1.000000000000000000, -0.000000000000000000 ) ) ;
#51 = CARTESIAN_POINT ( 'NONE',  ( 0.000000000000000000, 0.000000000000000000, 0.000000000000000000 ) ) ;
#52 = LENGTH_MEASURE_WITH_UNIT ( LENGTH_MEASURE( 0.02539999999999999897 ), #248 );
#53 = CARTESIAN_POINT ( 'NONE',  ( 0.5000000000000000000, 4.125000000000000000, 6.123233995736767268E-17 ) ) ;
#54 = PRESENTATION_LAYER_ASSIGNMENT (  '', '', ( #169 ) ) ;
#55 =( GEOMETRIC_REPRESENTATION_CONTEXT ( 3 ) GLOBAL_UNCERTAINTY_ASSIGNED_CONTEXT ( ( #239 ) ) GLOBAL_UNIT_ASSIGNED_CONTEXT ( ( #64, #20, #142 ) ) REPRESENTATION_CONTEXT ( 'NONE', 'WORKASPACE' ) );
#56 = SURFACE_STYLE_FILL_AREA ( #99 ) ;
#57 =( NAMED_UNIT ( * ) SI_UNIT ( $, .STERADIAN. ) SOLID_ANGLE_UNIT ( ) );
#58 = VECTOR ( 'NONE', #44, 39.37007874015748143 ) ;
#59 = DIRECTION ( 'NONE',  ( 0.000000000000000000, 0.000000000000000000, -1.000000000000000000 ) ) ;
#60 =( CONVERSION_BASED_UNIT ( 'INCH', #7 ) LENGTH_UNIT ( ) NAMED_UNIT ( #150 ) );
#61 =( NAMED_UNIT ( * ) SI_UNIT ( $, .STERADIAN. ) SOLID_ANGLE_UNIT ( ) );
#62 = DIRECTION ( 'NONE',  ( 0.000000000000000000, 0.000000000000000000, -1.000000000000000000 ) ) ;
#63 = VERTEX_POINT ( 'NONE', #250 ) ;
#64 =( CONVERSION_BASED_UNIT ( 'INCH', #170 ) LENGTH_UNIT ( ) NAMED_UNIT ( #153 ) );
#65 = DIRECTION ( 'NONE',  ( -1.000000000000000000, -4.259641040512529009E-17, 0.000000000000000000 ) ) ;
#66 = CYLINDRICAL_SURFACE ( 'NONE', #234, 0.5000000000000000000 ) ;
#67 = VERTEX_POINT ( 'NONE', #124 ) ;
#68 = ORIENTED_EDGE ( 'NONE', *, *, #212, .T. ) ;
#69 = EDGE_CURVE ( 'NONE', #213, #132, #125, .T. ) ;
#70 = DIRECTION ( 'NONE',  ( -1.000000000000000000, 0.000000000000000000, 0.000000000000000000 ) ) ;
#71 =( NAMED_UNIT ( * ) PLANE_ANGLE_UNIT ( ) SI_UNIT ( $, .RADIAN. ) );
#72 = SURFACE_STYLE_FILL_AREA ( #297 ) ;
#73 = ORIENTED_EDGE ( 'NONE', *, *, #91, .T. ) ;
#74 = AXIS2_PLACEMENT_3D ( 'NONE', #190, #282, #70 ) ;
#75 = PRESENTATION_LAYER_ASSIGNMENT (  '', '', ( #47 ) ) ;
#76 = EDGE_CURVE ( 'NONE', #108, #116, #299, .T. ) ;
#77 = PRODUCT_CONTEXT ( 'NONE', #259, 'mechanical' ) ;
#78 = PRESENTATION_LAYER_ASSIGNMENT (  '', '', ( #216 ) ) ;
#79 = DIRECTION ( 'NONE',  ( -0.000000000000000000, -1.000000000000000000, -0.000000000000000000 ) ) ;
#80 =( CONVERSION_BASED_UNIT ( 'INCH', #151 ) LENGTH_UNIT ( ) NAMED_UNIT ( #199 ) );
#81 = SURFACE_STYLE_USAGE ( .BOTH. , #198 ) ;
#82 = CARTESIAN_POINT ( 'NONE',  ( 6.123233995736766036E-17, 0.000000000000000000, 0.5000000000000000000 ) ) ;
#83 = AXIS2_PLACEMENT_3D ( 'NONE', #229, #268, #10 ) ;
#84 = LINE ( 'NONE', #82, #220 ) ;
#85 = EDGE_LOOP ( 'NONE', ( #167, #257, #233, #298 ) ) ;
#86 = FILL_AREA_STYLE_COLOUR ( '', #93 ) ;
#87 =( GEOMETRIC_REPRESENTATION_CONTEXT ( 3 ) GLOBAL_UNCERTAINTY_ASSIGNED_CONTEXT ( ( #34 ) ) GLOBAL_UNIT_ASSIGNED_CONTEXT ( ( #118, #281, #16 ) ) REPRESENTATION_CONTEXT ( 'NONE', 'WORKASPACE' ) );
#88 = ORIENTED_EDGE ( 'NONE', *, *, #280, .T. ) ;
#89 =( NAMED_UNIT ( * ) SI_UNIT ( $, .STERADIAN. ) SOLID_ANGLE_UNIT ( ) );
#90 = LENGTH_MEASURE_WITH_UNIT ( LENGTH_MEASURE( 0.02539999999999999897 ), #211 );
#91 = EDGE_CURVE ( 'NONE', #188, #63, #225, .T. ) ;
#92 = FILL_AREA_STYLE ('',( #305 ) ) ;
#93 = COLOUR_RGB ( '',0.7921568627450980005, 0.8196078431372548767, 0.9333333333333333481 ) ;
#94 = STYLED_ITEM ( 'NONE', ( #11 ), #267 ) ;
#95 = UNCERTAINTY_MEASURE_WITH_UNIT (LENGTH_MEASURE( 1.000000000000000082E-05 ), #134, 'distance_accuracy_value', 'NONE');
#96 = SURFACE_SIDE_STYLE ('',( #46 ) ) ;
#97 = STYLED_ITEM ( 'NONE', ( #139 ), #143 ) ;
#98 = UNCERTAINTY_MEASURE_WITH_UNIT (LENGTH_MEASURE( 1.000000000000000082E-05 ), #31, 'distance_accuracy_value', 'NONE');
#99 = FILL_AREA_STYLE ('',( #5 ) ) ;
#100 =( GEOMETRIC_REPRESENTATION_CONTEXT ( 3 ) GLOBAL_UNCERTAINTY_ASSIGNED_CONTEXT ( ( #98 ) ) GLOBAL_UNIT_ASSIGNED_CONTEXT ( ( #31, #9, #57 ) ) REPRESENTATION_CONTEXT ( 'NONE', 'WORKASPACE' ) );
#101 = FACE_OUTER_BOUND ( 'NONE', #14, .T. ) ;
#102 = SURFACE_STYLE_USAGE ( .BOTH. , #236 ) ;
#103 = MECHANICAL_DESIGN_GEOMETRIC_PRESENTATION_REPRESENTATION (  '', ( #97 ), #87 ) ;
#104 = DIRECTION ( 'NONE',  ( -4.259641040512529009E-17, 1.000000000000000000, -0.000000000000000000 ) ) ;
#105 = ORIENTED_EDGE ( 'NONE', *, *, #301, .T. ) ;
#106 =( LENGTH_UNIT ( ) NAMED_UNIT ( * ) SI_UNIT ( $, .METRE. ) );
#107 = PLANE ( 'NONE',  #249 ) ;
#108 = VERTEX_POINT ( 'NONE', #36 ) ;
#109 = APPLICATION_CONTEXT ( 'automotive_design' ) ;
#110 = UNCERTAINTY_MEASURE_WITH_UNIT (LENGTH_MEASURE( 1.000000000000000082E-05 ), #224, 'distance_accuracy_value', 'NONE');
#111 = DIRECTION ( 'NONE',  ( -0.000000000000000000, -1.000000000000000000, -0.000000000000000000 ) ) ;
#112 = CARTESIAN_POINT ( 'NONE',  ( 0.000000000000000000, 0.000000000000000000, 0.000000000000000000 ) ) ;
#113 = ORIENTED_EDGE ( 'NONE', *, *, #181, .T. ) ;
#114 = ORIENTED_EDGE ( 'NONE', *, *, #133, .F. ) ;
#115 = ADVANCED_FACE ( 'NONE', ( #131 ), #107, .F. ) ;
#116 = VERTEX_POINT ( 'NONE', #45 ) ;
#117 = CARTESIAN_POINT ( 'NONE',  ( 0.000000000000000000, 0.000000000000000000, -0.5000000000000000000 ) ) ;
#118 =( CONVERSION_BASED_UNIT ( 'INCH', #90 ) LENGTH_UNIT ( ) NAMED_UNIT ( #4 ) );
#119 = MECHANICAL_DESIGN_GEOMETRIC_PRESENTATION_REPRESENTATION (  '', ( #216 ), #100 ) ;
#120 = SURFACE_STYLE_USAGE ( .BOTH. , #140 ) ;
#121 = PRESENTATION_STYLE_ASSIGNMENT (( #120 ) ) ;
#122 =( GEOMETRIC_REPRESENTATION_CONTEXT ( 3 ) GLOBAL_UNCERTAINTY_ASSIGNED_CONTEXT ( ( #191 ) ) GLOBAL_UNIT_ASSIGNED_CONTEXT ( ( #80, #253, #61 ) ) REPRESENTATION_CONTEXT ( 'NONE', 'WORKASPACE' ) );
#123 = EDGE_CURVE ( 'NONE', #132, #63, #39, .T. ) ;
#124 = CARTESIAN_POINT ( 'NONE',  ( -0.5000000000000000000, 4.125000000000000000, 0.000000000000000000 ) ) ;
#125 = CIRCLE ( 'NONE', #195, 0.5000000000000000000 ) ;
#126 =( LENGTH_UNIT ( ) NAMED_UNIT ( * ) SI_UNIT ( $, .METRE. ) );
#127 = DIRECTION ( 'NONE',  ( 4.259641040512529009E-17, -1.000000000000000000, 0.000000000000000000 ) ) ;
#128 = DIRECTION ( 'NONE',  ( -0.000000000000000000, -1.000000000000000000, -0.000000000000000000 ) ) ;
#129 = SURFACE_SIDE_STYLE ('',( #158 ) ) ;
#130 = ORIENTED_EDGE ( 'NONE', *, *, #123, .F. ) ;
#131 = FACE_OUTER_BOUND ( 'NONE', #166, .T. ) ;
#132 = VERTEX_POINT ( 'NONE', #265 ) ;
#133 = EDGE_CURVE ( 'NONE', #132, #213, #242, .T. ) ;
#134 =( CONVERSION_BASED_UNIT ( 'INCH', #52 ) LENGTH_UNIT ( ) NAMED_UNIT ( #223 ) );
#135 = DIRECTION ( 'NONE',  ( -4.259641040512529009E-17, 1.000000000000000000, 0.000000000000000000 ) ) ;
#136 = AXIS2_PLACEMENT_3D ( 'NONE', #256, #227, #33 ) ;
#137 = DIRECTION ( 'NONE',  ( -0.000000000000000000, -1.000000000000000000, -0.000000000000000000 ) ) ;
#138 = DIRECTION ( 'NONE',  ( 0.000000000000000000, 0.000000000000000000, -1.000000000000000000 ) ) ;
#139 = PRESENTATION_STYLE_ASSIGNMENT (( #240 ) ) ;
#140 = SURFACE_SIDE_STYLE ('',( #41 ) ) ;
#141 = PLANE ( 'NONE',  #136 ) ;
#142 =( NAMED_UNIT ( * ) SI_UNIT ( $, .STERADIAN. ) SOLID_ANGLE_UNIT ( ) );
#143 = MANIFOLD_SOLID_BREP ( 'Revolve - Tool Body (Straight Shanked)', #219 ) ;
#144 = PRESENTATION_LAYER_ASSIGNMENT (  '', '', ( #97 ) ) ;
#145 = MANIFOLD_SOLID_BREP ( 'Revolve - Cutting Edge', #264 ) ;
#146 = CARTESIAN_POINT ( 'NONE',  ( 0.4999999999999999445, 7.000000000000000000, 6.123233995736767268E-17 ) ) ;
#147 = MECHANICAL_DESIGN_GEOMETRIC_PRESENTATION_REPRESENTATION (  '', ( #18 ), #210 ) ;
#148 = FACE_OUTER_BOUND ( 'NONE', #38, .T. ) ;
#149 = SHAPE_DEFINITION_REPRESENTATION ( #206, #26 ) ;
#150 = DIMENSIONAL_EXPONENTS ( 1.000000000000000000, 0.000000000000000000, 0.000000000000000000, 0.000000000000000000, 0.000000000000000000, 0.000000000000000000, 0.000000000000000000 ) ;
#151 = LENGTH_MEASURE_WITH_UNIT ( LENGTH_MEASURE( 0.02539999999999999897 ), #126 );
#152 = PRESENTATION_STYLE_ASSIGNMENT (( #102 ) ) ;
#153 = DIMENSIONAL_EXPONENTS ( 1.000000000000000000, 0.000000000000000000, 0.000000000000000000, 0.000000000000000000, 0.000000000000000000, 0.000000000000000000, 0.000000000000000000 ) ;
#154 = ADVANCED_FACE ( 'NONE', ( #30 ), #215, .F. ) ;
#155 = AXIS2_PLACEMENT_3D ( 'NONE', #179, #271, #62 ) ;
#156 =( GEOMETRIC_REPRESENTATION_CONTEXT ( 3 ) GLOBAL_UNCERTAINTY_ASSIGNED_CONTEXT ( ( #110 ) ) GLOBAL_UNIT_ASSIGNED_CONTEXT ( ( #224, #180, #254 ) ) REPRESENTATION_CONTEXT ( 'NONE', 'WORKASPACE' ) );
#157 = FACE_OUTER_BOUND ( 'NONE', #303, .T. ) ;
#158 = SURFACE_STYLE_FILL_AREA ( #273 ) ;
#159 = ADVANCED_FACE ( 'NONE', ( #8 ), #66, .T. ) ;
#160 = FACE_OUTER_BOUND ( 'NONE', #208, .T. ) ;
#161 = UNCERTAINTY_MEASURE_WITH_UNIT (LENGTH_MEASURE( 1.000000000000000082E-05 ), #60, 'distance_accuracy_value', 'NONE');
#162 = FILL_AREA_STYLE_COLOUR ( '', #186 ) ;
#163 = EDGE_LOOP ( 'NONE', ( #68, #296 ) ) ;
#164 = DIRECTION ( 'NONE',  ( -0.000000000000000000, -1.000000000000000000, -0.000000000000000000 ) ) ;
#165 = LINE ( 'NONE', #260, #37 ) ;
#166 = EDGE_LOOP ( 'NONE', ( #43, #35 ) ) ;
#167 = ORIENTED_EDGE ( 'NONE', *, *, #251, .F. ) ;
#168 = CARTESIAN_POINT ( 'NONE',  ( 0.000000000000000000, 4.125000000000000000, 0.000000000000000000 ) ) ;
#169 = STYLED_ITEM ( 'NONE', ( #172 ), #145 ) ;
#170 = LENGTH_MEASURE_WITH_UNIT ( LENGTH_MEASURE( 0.02539999999999999897 ), #214 );
#171 = PRESENTATION_LAYER_ASSIGNMENT (  '', '', ( #18 ) ) ;
#172 = PRESENTATION_STYLE_ASSIGNMENT (( #194 ) ) ;
#173 = DIRECTION ( 'NONE',  ( -1.000000000000000000, 0.000000000000000000, 0.000000000000000000 ) ) ;
#174 = AXIS2_PLACEMENT_3D ( 'NONE', #263, #137, #290 ) ;
#175 = MECHANICAL_DESIGN_GEOMETRIC_PRESENTATION_REPRESENTATION (  '', ( #94 ), #55 ) ;
#176 = DIRECTION ( 'NONE',  ( 0.000000000000000000, 0.000000000000000000, 1.000000000000000000 ) ) ;
#177 = CARTESIAN_POINT ( 'NONE',  ( 0.000000000000000000, 4.125000000000000000, 0.000000000000000000 ) ) ;
#178 = LENGTH_MEASURE_WITH_UNIT ( LENGTH_MEASURE( 0.02539999999999999897 ), #106 );
#179 = CARTESIAN_POINT ( 'NONE',  ( 0.000000000000000000, 0.000000000000000000, 0.000000000000000000 ) ) ;
#180 =( NAMED_UNIT ( * ) PLANE_ANGLE_UNIT ( ) SI_UNIT ( $, .RADIAN. ) );
#181 = EDGE_CURVE ( 'NONE', #67, #116, #165, .T. ) ;
#182 = CARTESIAN_POINT ( 'NONE',  ( 0.000000000000000000, 0.000000000000000000, 0.000000000000000000 ) ) ;
#183 = CYLINDRICAL_SURFACE ( 'NONE', #269, 0.5000000000000000000 ) ;
#184 = DIMENSIONAL_EXPONENTS ( 1.000000000000000000, 0.000000000000000000, 0.000000000000000000, 0.000000000000000000, 0.000000000000000000, 0.000000000000000000, 0.000000000000000000 ) ;
#185 =( NAMED_UNIT ( * ) PLANE_ANGLE_UNIT ( ) SI_UNIT ( $, .RADIAN. ) );
#186 = COLOUR_RGB ( '',1.000000000000000000, 0.000000000000000000, 0.000000000000000000 ) ;
#187 = DIRECTION ( 'NONE',  ( 0.000000000000000000, 0.000000000000000000, -1.000000000000000000 ) ) ;
#188 = VERTEX_POINT ( 'NONE', #272 ) ;
#189 = ADVANCED_FACE ( 'NONE', ( #157 ), #226, .T. ) ;
#190 = CARTESIAN_POINT ( 'NONE',  ( 0.000000000000000000, 4.125000000000000000, 0.000000000000000000 ) ) ;
#191 = UNCERTAINTY_MEASURE_WITH_UNIT (LENGTH_MEASURE( 1.000000000000000082E-05 ), #80, 'distance_accuracy_value', 'NONE');
#192 = PRODUCT_RELATED_PRODUCT_CATEGORY ( 'part', '', ( #304 ) ) ;
#193 = DIRECTION ( 'NONE',  ( 0.000000000000000000, 0.000000000000000000, -1.000000000000000000 ) ) ;
#194 = SURFACE_STYLE_USAGE ( .BOTH. , #96 ) ;
#195 = AXIS2_PLACEMENT_3D ( 'NONE', #177, #128, #59 ) ;
#196 = COLOUR_RGB ( '',1.000000000000000000, 0.000000000000000000, 0.000000000000000000 ) ;
#197 = PRODUCT_DEFINITION ( 'UNKNOWN', '', #48, #49 ) ;
#198 = SURFACE_SIDE_STYLE ('',( #56 ) ) ;
#199 = DIMENSIONAL_EXPONENTS ( 1.000000000000000000, 0.000000000000000000, 0.000000000000000000, 0.000000000000000000, 0.000000000000000000, 0.000000000000000000, 0.000000000000000000 ) ;
#200 = DIRECTION ( 'NONE',  ( -1.000000000000000000, 0.000000000000000000, 0.000000000000000000 ) ) ;
#201 = ORIENTED_EDGE ( 'NONE', *, *, #76, .F. ) ;
#202 = DIRECTION ( 'NONE',  ( -4.259641040512529009E-17, 1.000000000000000000, -0.000000000000000000 ) ) ;
#203 = FILL_AREA_STYLE ('',( #162 ) ) ;
#204 = DIMENSIONAL_EXPONENTS ( 1.000000000000000000, 0.000000000000000000, 0.000000000000000000, 0.000000000000000000, 0.000000000000000000, 0.000000000000000000, 0.000000000000000000 ) ;
#205 = ORIENTED_EDGE ( 'NONE', *, *, #69, .F. ) ;
#206 = PRODUCT_DEFINITION_SHAPE ( 'NONE', 'NONE',  #197 ) ;
#207 = DIRECTION ( 'NONE',  ( 0.000000000000000000, 0.000000000000000000, -1.000000000000000000 ) ) ;
#208 = EDGE_LOOP ( 'NONE', ( #300, #88, #261, #241 ) ) ;
#209 = AXIS2_PLACEMENT_3D ( 'NONE', #245, #202, #302 ) ;
#210 =( GEOMETRIC_REPRESENTATION_CONTEXT ( 3 ) GLOBAL_UNCERTAINTY_ASSIGNED_CONTEXT ( ( #95 ) ) GLOBAL_UNIT_ASSIGNED_CONTEXT ( ( #134, #185, #277 ) ) REPRESENTATION_CONTEXT ( 'NONE', 'WORKASPACE' ) );
#211 =( LENGTH_UNIT ( ) NAMED_UNIT ( * ) SI_UNIT ( $, .METRE. ) );
#212 = EDGE_CURVE ( 'NONE', #116, #108, #3, .T. ) ;
#213 = VERTEX_POINT ( 'NONE', #238 ) ;
#214 =( LENGTH_UNIT ( ) NAMED_UNIT ( * ) SI_UNIT ( $, .METRE. ) );
#215 = PLANE ( 'NONE',  #25 ) ;
#216 = STYLED_ITEM ( 'NONE', ( #292 ), #189 ) ;
#217 = VECTOR ( 'NONE', #247, 39.37007874015748143 ) ;
#218 = CYLINDRICAL_SURFACE ( 'NONE', #308, 0.5000000000000001110 ) ;
#219 = CLOSED_SHELL ( 'NONE', ( #28, #115, #288, #154 ) ) ;
#220 = VECTOR ( 'NONE', #79, 39.37007874015748143 ) ;
#221 =( LENGTH_UNIT ( ) NAMED_UNIT ( * ) SI_UNIT ( $, .METRE. ) );
#222 = CYLINDRICAL_SURFACE ( 'NONE', #83, 0.5000000000000001110 ) ;
#223 = DIMENSIONAL_EXPONENTS ( 1.000000000000000000, 0.000000000000000000, 0.000000000000000000, 0.000000000000000000, 0.000000000000000000, 0.000000000000000000, 0.000000000000000000 ) ;
#224 =( CONVERSION_BASED_UNIT ( 'INCH', #178 ) LENGTH_UNIT ( ) NAMED_UNIT ( #204 ) );
#225 = CIRCLE ( 'NONE', #155, 0.5000000000000000000 ) ;
#226 = PLANE ( 'NONE',  #279 ) ;
#227 = DIRECTION ( 'NONE',  ( 0.000000000000000000, 1.000000000000000000, 0.000000000000000000 ) ) ;
#228 = DIRECTION ( 'NONE',  ( 1.000000000000000000, 4.259641040512529009E-17, 0.000000000000000000 ) ) ;
#229 = CARTESIAN_POINT ( 'NONE',  ( -1.224646799147351975E-16, 7.000000000000000000, 0.000000000000000000 ) ) ;
#230 = ADVANCED_FACE ( 'NONE', ( #22 ), #141, .T. ) ;
#231 =( LENGTH_UNIT ( ) NAMED_UNIT ( * ) SI_UNIT ( $, .METRE. ) );
#232 = SURFACE_STYLE_USAGE ( .BOTH. , #129 ) ;
#233 = ORIENTED_EDGE ( 'NONE', *, *, #123, .T. ) ;
#234 = AXIS2_PLACEMENT_3D ( 'NONE', #112, #164, #187 ) ;
#235 =( GEOMETRIC_REPRESENTATION_CONTEXT ( 3 ) GLOBAL_UNCERTAINTY_ASSIGNED_CONTEXT ( ( #161 ) ) GLOBAL_UNIT_ASSIGNED_CONTEXT ( ( #60, #71, #89 ) ) REPRESENTATION_CONTEXT ( 'NONE', 'WORKASPACE' ) );
#236 = SURFACE_SIDE_STYLE ('',( #295 ) ) ;
#237 = ORIENTED_EDGE ( 'NONE', *, *, #21, .T. ) ;
#238 = CARTESIAN_POINT ( 'NONE',  ( 6.123233995736766036E-17, 4.125000000000000000, 0.5000000000000000000 ) ) ;
#239 = UNCERTAINTY_MEASURE_WITH_UNIT (LENGTH_MEASURE( 1.000000000000000082E-05 ), #64, 'distance_accuracy_value', 'NONE');
#240 = SURFACE_STYLE_USAGE ( .BOTH. , #262 ) ;
#241 = ORIENTED_EDGE ( 'NONE', *, *, #181, .F. ) ;
#242 = CIRCLE ( 'NONE', #246, 0.5000000000000000000 ) ;
#243 = AXIS2_PLACEMENT_3D ( 'NONE', #51, #176, #27 ) ;
#244 = ORIENTED_EDGE ( 'NONE', *, *, #21, .F. ) ;
#245 = CARTESIAN_POINT ( 'NONE',  ( -1.224646799147351975E-16, 7.000000000000000000, 0.000000000000000000 ) ) ;
#246 = AXIS2_PLACEMENT_3D ( 'NONE', #168, #111, #138 ) ;
#247 = DIRECTION ( 'NONE',  ( -4.259641040512529009E-17, 1.000000000000000000, -0.000000000000000000 ) ) ;
#248 =( LENGTH_UNIT ( ) NAMED_UNIT ( * ) SI_UNIT ( $, .METRE. ) );
#249 = AXIS2_PLACEMENT_3D ( 'NONE', #270, #135, #65 ) ;
#250 = CARTESIAN_POINT ( 'NONE',  ( 0.000000000000000000, 0.000000000000000000, -0.5000000000000000000 ) ) ;
#251 = EDGE_CURVE ( 'NONE', #213, #188, #84, .T. ) ;
#252 = LENGTH_MEASURE_WITH_UNIT ( LENGTH_MEASURE( 0.02539999999999999897 ), #231 );
#253 =( NAMED_UNIT ( * ) PLANE_ANGLE_UNIT ( ) SI_UNIT ( $, .RADIAN. ) );
#254 =( NAMED_UNIT ( * ) SI_UNIT ( $, .STERADIAN. ) SOLID_ANGLE_UNIT ( ) );
#255 = MECHANICAL_DESIGN_GEOMETRIC_PRESENTATION_REPRESENTATION (  '', ( #47 ), #156 ) ;
#256 = CARTESIAN_POINT ( 'NONE',  ( 0.000000000000000000, 4.125000000000000000, 0.000000000000000000 ) ) ;
#257 = ORIENTED_EDGE ( 'NONE', *, *, #69, .T. ) ;
#258 = CIRCLE ( 'NONE', #74, 0.5000000000000000000 ) ;
#259 = APPLICATION_CONTEXT ( 'automotive_design' ) ;
#260 = CARTESIAN_POINT ( 'NONE',  ( -0.5000000000000002220, 7.000000000000000000, 0.000000000000000000 ) ) ;
#261 = ORIENTED_EDGE ( 'NONE', *, *, #212, .F. ) ;
#262 = SURFACE_SIDE_STYLE ('',( #72 ) ) ;
#263 = CARTESIAN_POINT ( 'NONE',  ( 0.000000000000000000, 0.000000000000000000, 0.000000000000000000 ) ) ;
#264 = CLOSED_SHELL ( 'NONE', ( #267, #230, #159, #189 ) ) ;
#265 = CARTESIAN_POINT ( 'NONE',  ( 0.000000000000000000, 4.125000000000000000, -0.5000000000000000000 ) ) ;
#266 = CIRCLE ( 'NONE', #291, 0.5000000000000000000 ) ;
#267 = ADVANCED_FACE ( 'NONE', ( #101 ), #183, .T. ) ;
#268 = DIRECTION ( 'NONE',  ( -4.259641040512529009E-17, 1.000000000000000000, -0.000000000000000000 ) ) ;
#269 = AXIS2_PLACEMENT_3D ( 'NONE', #19, #309, #193 ) ;
#270 = CARTESIAN_POINT ( 'NONE',  ( 4.536135448504664961E-34, 4.125000000000000000, 0.000000000000000000 ) ) ;
#271 = DIRECTION ( 'NONE',  ( -0.000000000000000000, -1.000000000000000000, -0.000000000000000000 ) ) ;
#272 = CARTESIAN_POINT ( 'NONE',  ( 6.123233995736766036E-17, 0.000000000000000000, 0.5000000000000000000 ) ) ;
#273 = FILL_AREA_STYLE ('',( #293 ) ) ;
#274 = FILL_AREA_STYLE_COLOUR ( '', #283 ) ;
#275 = CARTESIAN_POINT ( 'NONE',  ( -1.224646799147351975E-16, 7.000000000000000000, 0.000000000000000000 ) ) ;
#276 = ORIENTED_EDGE ( 'NONE', *, *, #133, .T. ) ;
#277 =( NAMED_UNIT ( * ) SI_UNIT ( $, .STERADIAN. ) SOLID_ANGLE_UNIT ( ) );
#278 = ORIENTED_EDGE ( 'NONE', *, *, #251, .T. ) ;
#279 = AXIS2_PLACEMENT_3D ( 'NONE', #182, #12, #207 ) ;
#280 = EDGE_CURVE ( 'NONE', #42, #108, #284, .T. ) ;
#281 =( NAMED_UNIT ( * ) PLANE_ANGLE_UNIT ( ) SI_UNIT ( $, .RADIAN. ) );
#282 = DIRECTION ( 'NONE',  ( -4.259641040512529009E-17, 1.000000000000000000, -0.000000000000000000 ) ) ;
#283 = COLOUR_RGB ( '',1.000000000000000000, 0.000000000000000000, 0.000000000000000000 ) ;
#284 = LINE ( 'NONE', #146, #217 ) ;
#285 = APPLICATION_PROTOCOL_DEFINITION ( 'draft international standard', 'automotive_design', 1998, #259 ) ;
#286 = COLOUR_RGB ( '',1.000000000000000000, 0.000000000000000000, 0.000000000000000000 ) ;
#287 = PRESENTATION_LAYER_ASSIGNMENT (  '', '', ( #94 ) ) ;
#288 = ADVANCED_FACE ( 'NONE', ( #148 ), #218, .T. ) ;
#289 = CARTESIAN_POINT ( 'NONE',  ( 0.000000000000000000, 4.125000000000000000, 0.000000000000000000 ) ) ;
#290 = DIRECTION ( 'NONE',  ( 0.000000000000000000, 0.000000000000000000, -1.000000000000000000 ) ) ;
#291 = AXIS2_PLACEMENT_3D ( 'NONE', #289, #50, #307 ) ;
#292 = PRESENTATION_STYLE_ASSIGNMENT (( #81 ) ) ;
#293 = FILL_AREA_STYLE_COLOUR ( '', #196 ) ;
#294 = FILL_AREA_STYLE ('',( #274 ) ) ;
#295 = SURFACE_STYLE_FILL_AREA ( #203 ) ;
#296 = ORIENTED_EDGE ( 'NONE', *, *, #76, .T. ) ;
#297 = FILL_AREA_STYLE ('',( #86 ) ) ;
#298 = ORIENTED_EDGE ( 'NONE', *, *, #91, .F. ) ;
#299 = CIRCLE ( 'NONE', #15, 0.5000000000000001110 ) ;
#300 = ORIENTED_EDGE ( 'NONE', *, *, #6, .T. ) ;
#301 = EDGE_CURVE ( 'NONE', #42, #67, #266, .T. ) ;
#302 = DIRECTION ( 'NONE',  ( -1.000000000000000000, 0.000000000000000000, 0.000000000000000000 ) ) ;
#303 = EDGE_LOOP ( 'NONE', ( #237, #73 ) ) ;
#304 = PRODUCT ( '05922', '05922', '', ( #77 ) ) ;
#305 = FILL_AREA_STYLE_COLOUR ( '', #1 ) ;
#306 = CIRCLE ( 'NONE', #174, 0.5000000000000000000 ) ;
#307 = DIRECTION ( 'NONE',  ( -1.000000000000000000, 0.000000000000000000, 0.000000000000000000 ) ) ;
#308 = AXIS2_PLACEMENT_3D ( 'NONE', #23, #24, #173 ) ;
#309 = DIRECTION ( 'NONE',  ( -0.000000000000000000, -1.000000000000000000, -0.000000000000000000 ) ) ;
ENDSEC;
END-ISO-10303-21;
