ISO-10303-21;
HEADER;
FILE_DESCRIPTION (( 'STEP AP214' ),
    '1' );
FILE_NAME ('00690.STEP',
    '2023-06-22T14:14:24',
    ( '' ),
    ( '' ),
    'SwSTEP 2.0',
    'SolidWorks 2023',
    '' );
FILE_SCHEMA (( 'AUTOMOTIVE_DESIGN' ));
ENDSEC;

DATA;
#1 =( LENGTH_UNIT ( ) NAMED_UNIT ( * ) SI_UNIT ( $, .METRE. ) );
#2 = CARTESIAN_POINT ( 'NONE',  ( 0.000000000000000000, 3.250000000000000000, 0.000000000000000000 ) ) ;
#3 = ADVANCED_FACE ( 'NONE', ( #78 ), #163, .T. ) ;
#4 = AXIS2_PLACEMENT_3D ( 'NONE', #2, #205, #272 ) ;
#5 =( CONVERSION_BASED_UNIT ( 'INCH', #223 ) LENGTH_UNIT ( ) NAMED_UNIT ( #197 ) );
#6 = ORIENTED_EDGE ( 'NONE', *, *, #185, .T. ) ;
#7 = EDGE_LOOP ( 'NONE', ( #6, #227 ) ) ;
#8 = FACE_OUTER_BOUND ( 'NONE', #110, .T. ) ;
#9 = CARTESIAN_POINT ( 'NONE',  ( 4.592425496802575451E-17, 3.250000000000000000, 0.3750000000000000555 ) ) ;
#10 =( NAMED_UNIT ( * ) PLANE_ANGLE_UNIT ( ) SI_UNIT ( $, .RADIAN. ) );
#11 = EDGE_CURVE ( 'NONE', #266, #68, #263, .T. ) ;
#12 = STYLED_ITEM ( 'NONE', ( #135 ), #45 ) ;
#13 = AXIS2_PLACEMENT_3D ( 'NONE', #105, #83, #231 ) ;
#14 = CARTESIAN_POINT ( 'NONE',  ( 0.000000000000000000, 0.000000000000000000, 0.000000000000000000 ) ) ;
#15 = PLANE ( 'NONE',  #148 ) ;
#16 = CYLINDRICAL_SURFACE ( 'NONE', #241, 0.3750000000000000555 ) ;
#17 = PRESENTATION_STYLE_ASSIGNMENT (( #166 ) ) ;
#18 = EDGE_CURVE ( 'NONE', #68, #165, #38, .T. ) ;
#19 = CARTESIAN_POINT ( 'NONE',  ( 4.592425496802575451E-17, 0.000000000000000000, 0.3750000000000000555 ) ) ;
#20 = SURFACE_SIDE_STYLE ('',( #42 ) ) ;
#21 = CLOSED_SHELL ( 'NONE', ( #257, #64, #243, #117 ) ) ;
#22 = COLOUR_RGB ( '',0.7921568627450980005, 0.8196078431372548767, 0.9333333333333333481 ) ;
#23 = DIRECTION ( 'NONE',  ( -1.000000000000000000, 0.000000000000000000, 0.000000000000000000 ) ) ;
#24 = VERTEX_POINT ( 'NONE', #279 ) ;
#25 = CARTESIAN_POINT ( 'NONE',  ( -0.3750000000000002220, 6.000000000000000888, 0.000000000000000000 ) ) ;
#26 = ORIENTED_EDGE ( 'NONE', *, *, #309, .T. ) ;
#27 = FILL_AREA_STYLE_COLOUR ( '', #242 ) ;
#28 = ORIENTED_EDGE ( 'NONE', *, *, #178, .F. ) ;
#29 = UNCERTAINTY_MEASURE_WITH_UNIT (LENGTH_MEASURE( 1.000000000000000082E-05 ), #136, 'distance_accuracy_value', 'NONE');
#30 = DIRECTION ( 'NONE',  ( -4.453261087808560759E-17, 1.000000000000000000, -0.000000000000000000 ) ) ;
#31 = AXIS2_PLACEMENT_3D ( 'NONE', #14, #107, #255 ) ;
#32 = UNCERTAINTY_MEASURE_WITH_UNIT (LENGTH_MEASURE( 1.000000000000000082E-05 ), #271, 'distance_accuracy_value', 'NONE');
#33 = DIRECTION ( 'NONE',  ( -1.000000000000000000, 0.000000000000000000, 0.000000000000000000 ) ) ;
#34 = SURFACE_STYLE_USAGE ( .BOTH. , #187 ) ;
#35 = STYLED_ITEM ( 'NONE', ( #17 ), #144 ) ;
#36 = SURFACE_STYLE_FILL_AREA ( #258 ) ;
#37 = DIMENSIONAL_EXPONENTS ( 1.000000000000000000, 0.000000000000000000, 0.000000000000000000, 0.000000000000000000, 0.000000000000000000, 0.000000000000000000, 0.000000000000000000 ) ;
#38 = LINE ( 'NONE', #300, #43 ) ;
#39 = EDGE_CURVE ( 'NONE', #125, #121, #221, .T. ) ;
#40 = COLOUR_RGB ( '',1.000000000000000000, 0.000000000000000000, 0.000000000000000000 ) ;
#41 = MECHANICAL_DESIGN_GEOMETRIC_PRESENTATION_REPRESENTATION (  '', ( #35 ), #81 ) ;
#42 = SURFACE_STYLE_FILL_AREA ( #112 ) ;
#43 = VECTOR ( 'NONE', #239, 39.37007874015748143 ) ;
#44 = DIRECTION ( 'NONE',  ( -4.453261087808560759E-17, 1.000000000000000000, -0.000000000000000000 ) ) ;
#45 = ADVANCED_FACE ( 'NONE', ( #130 ), #207, .T. ) ;
#46 = STYLED_ITEM ( 'NONE', ( #175 ), #249 ) ;
#47 = VECTOR ( 'NONE', #69, 39.37007874015748143 ) ;
#48 = CARTESIAN_POINT ( 'NONE',  ( -1.224646799147354440E-16, 6.000000000000000888, 0.000000000000000000 ) ) ;
#49 = VERTEX_POINT ( 'NONE', #161 ) ;
#50 = FACE_OUTER_BOUND ( 'NONE', #133, .T. ) ;
#51 = EDGE_LOOP ( 'NONE', ( #26, #260 ) ) ;
#52 = DIRECTION ( 'NONE',  ( 0.000000000000000000, 0.000000000000000000, -1.000000000000000000 ) ) ;
#53 = PRESENTATION_STYLE_ASSIGNMENT (( #275 ) ) ;
#54 = ADVANCED_BREP_SHAPE_REPRESENTATION ( '00690', ( #249, #144, #303 ), #149 ) ;
#55 = FACE_OUTER_BOUND ( 'NONE', #270, .T. ) ;
#56 =( LENGTH_UNIT ( ) NAMED_UNIT ( * ) SI_UNIT ( $, .METRE. ) );
#57 = CLOSED_SHELL ( 'NONE', ( #99, #3, #45, #92 ) ) ;
#58 = FILL_AREA_STYLE_COLOUR ( '', #63 ) ;
#59 = CARTESIAN_POINT ( 'NONE',  ( 0.3750000000000000555, 3.250000000000000000, 4.592425496802576684E-17 ) ) ;
#60 = PRODUCT_DEFINITION_CONTEXT ( 'detailed design', #116, 'design' ) ;
#61 =( NAMED_UNIT ( * ) PLANE_ANGLE_UNIT ( ) SI_UNIT ( $, .RADIAN. ) );
#62 = CARTESIAN_POINT ( 'NONE',  ( 0.000000000000000000, 0.000000000000000000, 0.000000000000000000 ) ) ;
#63 = COLOUR_RGB ( '',1.000000000000000000, 0.000000000000000000, 0.000000000000000000 ) ;
#64 = ADVANCED_FACE ( 'NONE', ( #55 ), #15, .F. ) ;
#65 = STYLED_ITEM ( 'NONE', ( #238 ), #92 ) ;
#66 = DIRECTION ( 'NONE',  ( -0.000000000000000000, -1.000000000000000000, -0.000000000000000000 ) ) ;
#67 = PRESENTATION_STYLE_ASSIGNMENT (( #94 ) ) ;
#68 = VERTEX_POINT ( 'NONE', #9 ) ;
#69 = DIRECTION ( 'NONE',  ( -4.453261087808560759E-17, 1.000000000000000000, -0.000000000000000000 ) ) ;
#70 = ORIENTED_EDGE ( 'NONE', *, *, #226, .F. ) ;
#71 = PRESENTATION_LAYER_ASSIGNMENT (  '', '', ( #35 ) ) ;
#72 = SURFACE_STYLE_FILL_AREA ( #220 ) ;
#73 = ORIENTED_EDGE ( 'NONE', *, *, #18, .F. ) ;
#74 = DIRECTION ( 'NONE',  ( 0.000000000000000000, 0.000000000000000000, -1.000000000000000000 ) ) ;
#75 = APPLICATION_PROTOCOL_DEFINITION ( 'draft international standard', 'automotive_design', 1998, #108 ) ;
#76 = CARTESIAN_POINT ( 'NONE',  ( -1.224646799147354440E-16, 6.000000000000000888, 0.000000000000000000 ) ) ;
#77 = CARTESIAN_POINT ( 'NONE',  ( -1.224646799147354440E-16, 6.000000000000000888, 0.000000000000000000 ) ) ;
#78 = FACE_OUTER_BOUND ( 'NONE', #128, .T. ) ;
#79 = FILL_AREA_STYLE_COLOUR ( '', #235 ) ;
#80 = UNCERTAINTY_MEASURE_WITH_UNIT (LENGTH_MEASURE( 1.000000000000000082E-05 ), #5, 'distance_accuracy_value', 'NONE');
#81 =( GEOMETRIC_REPRESENTATION_CONTEXT ( 3 ) GLOBAL_UNCERTAINTY_ASSIGNED_CONTEXT ( ( #137 ) ) GLOBAL_UNIT_ASSIGNED_CONTEXT ( ( #214, #118, #259 ) ) REPRESENTATION_CONTEXT ( 'NONE', 'WORKASPACE' ) );
#82 = DIRECTION ( 'NONE',  ( -0.000000000000000000, -1.000000000000000000, -0.000000000000000000 ) ) ;
#83 = DIRECTION ( 'NONE',  ( -0.000000000000000000, -1.000000000000000000, -0.000000000000000000 ) ) ;
#84 = DIMENSIONAL_EXPONENTS ( 1.000000000000000000, 0.000000000000000000, 0.000000000000000000, 0.000000000000000000, 0.000000000000000000, 0.000000000000000000, 0.000000000000000000 ) ;
#85 = FILL_AREA_STYLE_COLOUR ( '', #40 ) ;
#86 = LENGTH_MEASURE_WITH_UNIT ( LENGTH_MEASURE( 0.02539999999999999897 ), #56 );
#87 = DIRECTION ( 'NONE',  ( 0.000000000000000000, 1.000000000000000000, 0.000000000000000000 ) ) ;
#88 = DIRECTION ( 'NONE',  ( 1.000000000000000000, 4.453261087808560759E-17, 0.000000000000000000 ) ) ;
#89 = EDGE_CURVE ( 'NONE', #68, #266, #147, .T. ) ;
#90 = VECTOR ( 'NONE', #66, 39.37007874015748143 ) ;
#91 = DIMENSIONAL_EXPONENTS ( 1.000000000000000000, 0.000000000000000000, 0.000000000000000000, 0.000000000000000000, 0.000000000000000000, 0.000000000000000000, 0.000000000000000000 ) ;
#92 = ADVANCED_FACE ( 'NONE', ( #177 ), #234, .T. ) ;
#93 = FILL_AREA_STYLE_COLOUR ( '', #256 ) ;
#94 = SURFACE_STYLE_USAGE ( .BOTH. , #195 ) ;
#95 = AXIS2_PLACEMENT_3D ( 'NONE', #233, #87, #213 ) ;
#96 = AXIS2_PLACEMENT_3D ( 'NONE', #265, #44, #142 ) ;
#97 =( CONVERSION_BASED_UNIT ( 'INCH', #244 ) LENGTH_UNIT ( ) NAMED_UNIT ( #160 ) );
#98 = CARTESIAN_POINT ( 'NONE',  ( 0.000000000000000000, 3.250000000000000000, -0.3750000000000000555 ) ) ;
#99 = ADVANCED_FACE ( 'NONE', ( #192 ), #16, .T. ) ;
#100 = DIRECTION ( 'NONE',  ( 1.000000000000000000, 0.000000000000000000, 0.000000000000000000 ) ) ;
#101 = DIRECTION ( 'NONE',  ( 0.000000000000000000, 0.000000000000000000, -1.000000000000000000 ) ) ;
#102 =( CONVERSION_BASED_UNIT ( 'INCH', #86 ) LENGTH_UNIT ( ) NAMED_UNIT ( #193 ) );
#103 =( NAMED_UNIT ( * ) PLANE_ANGLE_UNIT ( ) SI_UNIT ( $, .RADIAN. ) );
#104 = SURFACE_SIDE_STYLE ('',( #109 ) ) ;
#105 = CARTESIAN_POINT ( 'NONE',  ( 0.000000000000000000, 0.000000000000000000, 0.000000000000000000 ) ) ;
#106 = AXIS2_PLACEMENT_3D ( 'NONE', #287, #170, #88 ) ;
#107 = DIRECTION ( 'NONE',  ( 0.000000000000000000, -1.000000000000000000, -0.000000000000000000 ) ) ;
#108 = APPLICATION_CONTEXT ( 'automotive_design' ) ;
#109 = SURFACE_STYLE_FILL_AREA ( #138 ) ;
#110 = EDGE_LOOP ( 'NONE', ( #201, #124, #146, #283 ) ) ;
#111 = CARTESIAN_POINT ( 'NONE',  ( 0.000000000000000000, 0.000000000000000000, -0.3750000000000000555 ) ) ;
#112 = FILL_AREA_STYLE ('',( #284 ) ) ;
#113 = EDGE_CURVE ( 'NONE', #266, #49, #308, .T. ) ;
#114 = UNCERTAINTY_MEASURE_WITH_UNIT (LENGTH_MEASURE( 1.000000000000000082E-05 ), #305, 'distance_accuracy_value', 'NONE');
#115 =( NAMED_UNIT ( * ) SI_UNIT ( $, .STERADIAN. ) SOLID_ANGLE_UNIT ( ) );
#116 = APPLICATION_CONTEXT ( 'automotive_design' ) ;
#117 = ADVANCED_FACE ( 'NONE', ( #139 ), #168, .F. ) ;
#118 =( NAMED_UNIT ( * ) PLANE_ANGLE_UNIT ( ) SI_UNIT ( $, .RADIAN. ) );
#119 =( NAMED_UNIT ( * ) SI_UNIT ( $, .STERADIAN. ) SOLID_ANGLE_UNIT ( ) );
#120 = ORIENTED_EDGE ( 'NONE', *, *, #309, .F. ) ;
#121 = VERTEX_POINT ( 'NONE', #59 ) ;
#122 = DIRECTION ( 'NONE',  ( 0.000000000000000000, 0.000000000000000000, 1.000000000000000000 ) ) ;
#123 = SURFACE_STYLE_USAGE ( .BOTH. , #268 ) ;
#124 = ORIENTED_EDGE ( 'NONE', *, *, #178, .T. ) ;
#125 = VERTEX_POINT ( 'NONE', #164 ) ;
#126 = PRESENTATION_LAYER_ASSIGNMENT (  '', '', ( #12 ) ) ;
#127 = CARTESIAN_POINT ( 'NONE',  ( 0.000000000000000000, 0.000000000000000000, 0.000000000000000000 ) ) ;
#128 = EDGE_LOOP ( 'NONE', ( #247, #151 ) ) ;
#129 = PRODUCT_DEFINITION ( 'UNKNOWN', '', #269, #60 ) ;
#130 = FACE_OUTER_BOUND ( 'NONE', #203, .T. ) ;
#131 = STYLED_ITEM ( 'NONE', ( #53 ), #3 ) ;
#132 = UNCERTAINTY_MEASURE_WITH_UNIT (LENGTH_MEASURE( 1.000000000000000082E-05 ), #97, 'distance_accuracy_value', 'NONE');
#133 = EDGE_LOOP ( 'NONE', ( #299, #172, #120, #70 ) ) ;
#134 =( NAMED_UNIT ( * ) SI_UNIT ( $, .STERADIAN. ) SOLID_ANGLE_UNIT ( ) );
#135 = PRESENTATION_STYLE_ASSIGNMENT (( #278 ) ) ;
#136 =( CONVERSION_BASED_UNIT ( 'INCH', #215 ) LENGTH_UNIT ( ) NAMED_UNIT ( #37 ) );
#137 = UNCERTAINTY_MEASURE_WITH_UNIT (LENGTH_MEASURE( 1.000000000000000082E-05 ), #214, 'distance_accuracy_value', 'NONE');
#138 = FILL_AREA_STYLE ('',( #85 ) ) ;
#139 = FACE_OUTER_BOUND ( 'NONE', #51, .T. ) ;
#140 = CIRCLE ( 'NONE', #4, 0.3750000000000000555 ) ;
#141 = PRESENTATION_LAYER_ASSIGNMENT (  '', '', ( #46 ) ) ;
#142 = DIRECTION ( 'NONE',  ( -1.000000000000000000, 0.000000000000000000, 0.000000000000000000 ) ) ;
#143 = LENGTH_MEASURE_WITH_UNIT ( LENGTH_MEASURE( 0.02539999999999999897 ), #1 );
#144 = MANIFOLD_SOLID_BREP ( 'Revolve - Tool Body (Straight Shanked)', #21 ) ;
#145 =( LENGTH_UNIT ( ) NAMED_UNIT ( * ) SI_UNIT ( $, .METRE. ) );
#146 = ORIENTED_EDGE ( 'NONE', *, *, #226, .T. ) ;
#147 = CIRCLE ( 'NONE', #194, 0.3750000000000000555 ) ;
#148 = AXIS2_PLACEMENT_3D ( 'NONE', #184, #158, #210 ) ;
#149 =( GEOMETRIC_REPRESENTATION_CONTEXT ( 3 ) GLOBAL_UNCERTAINTY_ASSIGNED_CONTEXT ( ( #80 ) ) GLOBAL_UNIT_ASSIGNED_CONTEXT ( ( #5, #61, #286 ) ) REPRESENTATION_CONTEXT ( 'NONE', 'WORKASPACE' ) );
#150 = LENGTH_MEASURE_WITH_UNIT ( LENGTH_MEASURE( 0.02539999999999999897 ), #253 );
#151 = ORIENTED_EDGE ( 'NONE', *, *, #89, .F. ) ;
#152 = LINE ( 'NONE', #179, #174 ) ;
#153 = ORIENTED_EDGE ( 'NONE', *, *, #113, .F. ) ;
#154 = DIRECTION ( 'NONE',  ( -4.453261087808560759E-17, 1.000000000000000000, -0.000000000000000000 ) ) ;
#155 = SURFACE_STYLE_FILL_AREA ( #273 ) ;
#156 = CYLINDRICAL_SURFACE ( 'NONE', #162, 0.3750000000000001110 ) ;
#157 = EDGE_LOOP ( 'NONE', ( #171, #294, #291, #153 ) ) ;
#158 = DIRECTION ( 'NONE',  ( -4.453261087808560759E-17, 1.000000000000000000, 0.000000000000000000 ) ) ;
#159 = EDGE_CURVE ( 'NONE', #297, #24, #208, .T. ) ;
#160 = DIMENSIONAL_EXPONENTS ( 1.000000000000000000, 0.000000000000000000, 0.000000000000000000, 0.000000000000000000, 0.000000000000000000, 0.000000000000000000, 0.000000000000000000 ) ;
#161 = CARTESIAN_POINT ( 'NONE',  ( 0.000000000000000000, 0.000000000000000000, -0.3750000000000000555 ) ) ;
#162 = AXIS2_PLACEMENT_3D ( 'NONE', #77, #248, #23 ) ;
#163 = PLANE ( 'NONE',  #95 ) ;
#164 = CARTESIAN_POINT ( 'NONE',  ( -0.3750000000000000555, 3.250000000000000000, 0.000000000000000000 ) ) ;
#165 = VERTEX_POINT ( 'NONE', #19 ) ;
#166 = SURFACE_STYLE_USAGE ( .BOTH. , #20 ) ;
#167 = MECHANICAL_DESIGN_GEOMETRIC_PRESENTATION_REPRESENTATION (  '', ( #218 ), #289 ) ;
#168 = PLANE ( 'NONE',  #106 ) ;
#169 = PRODUCT_CONTEXT ( 'NONE', #108, 'mechanical' ) ;
#170 = DIRECTION ( 'NONE',  ( 4.453261087808560759E-17, -1.000000000000000000, 0.000000000000000000 ) ) ;
#171 = ORIENTED_EDGE ( 'NONE', *, *, #11, .T. ) ;
#172 = ORIENTED_EDGE ( 'NONE', *, *, #196, .T. ) ;
#173 = DIRECTION ( 'NONE',  ( -0.000000000000000000, -1.000000000000000000, -0.000000000000000000 ) ) ;
#174 = VECTOR ( 'NONE', #30, 39.37007874015748143 ) ;
#175 = PRESENTATION_STYLE_ASSIGNMENT (( #123 ) ) ;
#176 = ORIENTED_EDGE ( 'NONE', *, *, #39, .F. ) ;
#177 = FACE_OUTER_BOUND ( 'NONE', #7, .T. ) ;
#178 = EDGE_CURVE ( 'NONE', #121, #125, #140, .T. ) ;
#179 = CARTESIAN_POINT ( 'NONE',  ( 0.3749999999999999445, 6.000000000000000888, 4.592425496802576068E-17 ) ) ;
#180 = CARTESIAN_POINT ( 'NONE',  ( 0.000000000000000000, 0.000000000000000000, 0.000000000000000000 ) ) ;
#181 =( NAMED_UNIT ( * ) SI_UNIT ( $, .STERADIAN. ) SOLID_ANGLE_UNIT ( ) );
#182 = AXIS2_PLACEMENT_3D ( 'NONE', #180, #173, #101 ) ;
#183 =( LENGTH_UNIT ( ) NAMED_UNIT ( * ) SI_UNIT ( $, .METRE. ) );
#184 = CARTESIAN_POINT ( 'NONE',  ( 3.718412684285603637E-34, 3.250000000000000000, 0.000000000000000000 ) ) ;
#185 = EDGE_CURVE ( 'NONE', #49, #165, #296, .T. ) ;
#186 =( NAMED_UNIT ( * ) PLANE_ANGLE_UNIT ( ) SI_UNIT ( $, .RADIAN. ) );
#187 = SURFACE_SIDE_STYLE ('',( #155 ) ) ;
#188 =( NAMED_UNIT ( * ) SI_UNIT ( $, .STERADIAN. ) SOLID_ANGLE_UNIT ( ) );
#189 = AXIS2_PLACEMENT_3D ( 'NONE', #206, #82, #306 ) ;
#190 = AXIS2_PLACEMENT_3D ( 'NONE', #76, #154, #251 ) ;
#191 =( LENGTH_UNIT ( ) NAMED_UNIT ( * ) SI_UNIT ( $, .METRE. ) );
#192 = FACE_OUTER_BOUND ( 'NONE', #157, .T. ) ;
#193 = DIMENSIONAL_EXPONENTS ( 1.000000000000000000, 0.000000000000000000, 0.000000000000000000, 0.000000000000000000, 0.000000000000000000, 0.000000000000000000, 0.000000000000000000 ) ;
#194 = AXIS2_PLACEMENT_3D ( 'NONE', #276, #301, #74 ) ;
#195 = SURFACE_SIDE_STYLE ('',( #212 ) ) ;
#196 = EDGE_CURVE ( 'NONE', #121, #297, #152, .T. ) ;
#197 = DIMENSIONAL_EXPONENTS ( 1.000000000000000000, 0.000000000000000000, 0.000000000000000000, 0.000000000000000000, 0.000000000000000000, 0.000000000000000000, 0.000000000000000000 ) ;
#198 = MECHANICAL_DESIGN_GEOMETRIC_PRESENTATION_REPRESENTATION (  '', ( #65 ), #252 ) ;
#199 = ORIENTED_EDGE ( 'NONE', *, *, #89, .T. ) ;
#200 = CARTESIAN_POINT ( 'NONE',  ( 0.000000000000000000, 0.000000000000000000, 0.000000000000000000 ) ) ;
#201 = ORIENTED_EDGE ( 'NONE', *, *, #196, .F. ) ;
#202 = APPLICATION_PROTOCOL_DEFINITION ( 'draft international standard', 'automotive_design', 1998, #116 ) ;
#203 = EDGE_LOOP ( 'NONE', ( #73, #199, #250, #224 ) ) ;
#204 = AXIS2_PLACEMENT_3D ( 'NONE', #48, #246, #225 ) ;
#205 = DIRECTION ( 'NONE',  ( -4.453261087808560759E-17, 1.000000000000000000, -0.000000000000000000 ) ) ;
#206 = CARTESIAN_POINT ( 'NONE',  ( 0.000000000000000000, 3.250000000000000000, 0.000000000000000000 ) ) ;
#207 = CYLINDRICAL_SURFACE ( 'NONE', #13, 0.3750000000000000555 ) ;
#208 = CIRCLE ( 'NONE', #96, 0.3750000000000001665 ) ;
#209 = SURFACE_SIDE_STYLE ('',( #36 ) ) ;
#210 = DIRECTION ( 'NONE',  ( -1.000000000000000000, -4.453261087808560759E-17, 0.000000000000000000 ) ) ;
#211 = LENGTH_MEASURE_WITH_UNIT ( LENGTH_MEASURE( 0.02539999999999999897 ), #183 );
#212 = SURFACE_STYLE_FILL_AREA ( #261 ) ;
#213 = DIRECTION ( 'NONE',  ( 0.000000000000000000, -0.000000000000000000, 1.000000000000000000 ) ) ;
#214 =( CONVERSION_BASED_UNIT ( 'INCH', #143 ) LENGTH_UNIT ( ) NAMED_UNIT ( #91 ) );
#215 = LENGTH_MEASURE_WITH_UNIT ( LENGTH_MEASURE( 0.02539999999999999897 ), #262 );
#216 = UNCERTAINTY_MEASURE_WITH_UNIT (LENGTH_MEASURE( 1.000000000000000082E-05 ), #102, 'distance_accuracy_value', 'NONE');
#217 =( GEOMETRIC_REPRESENTATION_CONTEXT ( 3 ) GLOBAL_UNCERTAINTY_ASSIGNED_CONTEXT ( ( #114 ) ) GLOBAL_UNIT_ASSIGNED_CONTEXT ( ( #305, #186, #188 ) ) REPRESENTATION_CONTEXT ( 'NONE', 'WORKASPACE' ) );
#218 = STYLED_ITEM ( 'NONE', ( #67 ), #99 ) ;
#219 = DIRECTION ( 'NONE',  ( -0.000000000000000000, -1.000000000000000000, -0.000000000000000000 ) ) ;
#220 = FILL_AREA_STYLE ('',( #27 ) ) ;
#221 = CIRCLE ( 'NONE', #229, 0.3750000000000000555 ) ;
#222 = AXIS2_PLACEMENT_3D ( 'NONE', #127, #295, #52 ) ;
#223 = LENGTH_MEASURE_WITH_UNIT ( LENGTH_MEASURE( 0.02539999999999999897 ), #145 );
#224 = ORIENTED_EDGE ( 'NONE', *, *, #240, .F. ) ;
#225 = DIRECTION ( 'NONE',  ( -1.000000000000000000, 0.000000000000000000, 0.000000000000000000 ) ) ;
#226 = EDGE_CURVE ( 'NONE', #125, #24, #293, .T. ) ;
#227 = ORIENTED_EDGE ( 'NONE', *, *, #240, .T. ) ;
#228 = SHAPE_DEFINITION_REPRESENTATION ( #232, #54 ) ;
#229 = AXIS2_PLACEMENT_3D ( 'NONE', #254, #237, #33 ) ;
#230 =( GEOMETRIC_REPRESENTATION_CONTEXT ( 3 ) GLOBAL_UNCERTAINTY_ASSIGNED_CONTEXT ( ( #32 ) ) GLOBAL_UNIT_ASSIGNED_CONTEXT ( ( #271, #103, #119 ) ) REPRESENTATION_CONTEXT ( 'NONE', 'WORKASPACE' ) );
#231 = DIRECTION ( 'NONE',  ( 0.000000000000000000, 0.000000000000000000, -1.000000000000000000 ) ) ;
#232 = PRODUCT_DEFINITION_SHAPE ( 'NONE', 'NONE',  #129 ) ;
#233 = CARTESIAN_POINT ( 'NONE',  ( 0.000000000000000000, 3.250000000000000000, 0.000000000000000000 ) ) ;
#234 = PLANE ( 'NONE',  #31 ) ;
#235 = COLOUR_RGB ( '',1.000000000000000000, 0.000000000000000000, 0.000000000000000000 ) ;
#236 = CIRCLE ( 'NONE', #204, 0.3750000000000001665 ) ;
#237 = DIRECTION ( 'NONE',  ( -4.453261087808560759E-17, 1.000000000000000000, -0.000000000000000000 ) ) ;
#238 = PRESENTATION_STYLE_ASSIGNMENT (( #34 ) ) ;
#239 = DIRECTION ( 'NONE',  ( -0.000000000000000000, -1.000000000000000000, -0.000000000000000000 ) ) ;
#240 = EDGE_CURVE ( 'NONE', #165, #49, #285, .T. ) ;
#241 = AXIS2_PLACEMENT_3D ( 'NONE', #62, #219, #290 ) ;
#242 = COLOUR_RGB ( '',0.7921568627450980005, 0.8196078431372548767, 0.9333333333333333481 ) ;
#243 = ADVANCED_FACE ( 'NONE', ( #8 ), #156, .T. ) ;
#244 = LENGTH_MEASURE_WITH_UNIT ( LENGTH_MEASURE( 0.02539999999999999897 ), #191 );
#245 =( GEOMETRIC_REPRESENTATION_CONTEXT ( 3 ) GLOBAL_UNCERTAINTY_ASSIGNED_CONTEXT ( ( #132 ) ) GLOBAL_UNIT_ASSIGNED_CONTEXT ( ( #97, #302, #134 ) ) REPRESENTATION_CONTEXT ( 'NONE', 'WORKASPACE' ) );
#246 = DIRECTION ( 'NONE',  ( -4.453261087808560759E-17, 1.000000000000000000, -0.000000000000000000 ) ) ;
#247 = ORIENTED_EDGE ( 'NONE', *, *, #11, .F. ) ;
#248 = DIRECTION ( 'NONE',  ( -4.453261087808560759E-17, 1.000000000000000000, -0.000000000000000000 ) ) ;
#249 = MANIFOLD_SOLID_BREP ( 'Revolve - Cutting Edge', #57 ) ;
#250 = ORIENTED_EDGE ( 'NONE', *, *, #113, .T. ) ;
#251 = DIRECTION ( 'NONE',  ( -1.000000000000000000, 0.000000000000000000, 0.000000000000000000 ) ) ;
#252 =( GEOMETRIC_REPRESENTATION_CONTEXT ( 3 ) GLOBAL_UNCERTAINTY_ASSIGNED_CONTEXT ( ( #216 ) ) GLOBAL_UNIT_ASSIGNED_CONTEXT ( ( #102, #10, #181 ) ) REPRESENTATION_CONTEXT ( 'NONE', 'WORKASPACE' ) );
#253 =( LENGTH_UNIT ( ) NAMED_UNIT ( * ) SI_UNIT ( $, .METRE. ) );
#254 = CARTESIAN_POINT ( 'NONE',  ( 0.000000000000000000, 3.250000000000000000, 0.000000000000000000 ) ) ;
#255 = DIRECTION ( 'NONE',  ( 0.000000000000000000, 0.000000000000000000, -1.000000000000000000 ) ) ;
#256 = COLOUR_RGB ( '',1.000000000000000000, 0.000000000000000000, 0.000000000000000000 ) ;
#257 = ADVANCED_FACE ( 'NONE', ( #50 ), #298, .T. ) ;
#258 = FILL_AREA_STYLE ('',( #58 ) ) ;
#259 =( NAMED_UNIT ( * ) SI_UNIT ( $, .STERADIAN. ) SOLID_ANGLE_UNIT ( ) );
#260 = ORIENTED_EDGE ( 'NONE', *, *, #159, .T. ) ;
#261 = FILL_AREA_STYLE ('',( #93 ) ) ;
#262 =( LENGTH_UNIT ( ) NAMED_UNIT ( * ) SI_UNIT ( $, .METRE. ) );
#263 = CIRCLE ( 'NONE', #189, 0.3750000000000000555 ) ;
#264 = MECHANICAL_DESIGN_GEOMETRIC_PRESENTATION_REPRESENTATION (  '', ( #46 ), #230 ) ;
#265 = CARTESIAN_POINT ( 'NONE',  ( -1.224646799147354440E-16, 6.000000000000000888, 0.000000000000000000 ) ) ;
#266 = VERTEX_POINT ( 'NONE', #98 ) ;
#267 = DIMENSIONAL_EXPONENTS ( 1.000000000000000000, 0.000000000000000000, 0.000000000000000000, 0.000000000000000000, 0.000000000000000000, 0.000000000000000000, 0.000000000000000000 ) ;
#268 = SURFACE_SIDE_STYLE ('',( #72 ) ) ;
#269 = PRODUCT_DEFINITION_FORMATION_WITH_SPECIFIED_SOURCE ( 'ANY', '', #274, .NOT_KNOWN. ) ;
#270 = EDGE_LOOP ( 'NONE', ( #176, #28 ) ) ;
#271 =( CONVERSION_BASED_UNIT ( 'INCH', #150 ) LENGTH_UNIT ( ) NAMED_UNIT ( #267 ) );
#272 = DIRECTION ( 'NONE',  ( -1.000000000000000000, 0.000000000000000000, 0.000000000000000000 ) ) ;
#273 = FILL_AREA_STYLE ('',( #79 ) ) ;
#274 = PRODUCT ( '00690', '00690', '', ( #169 ) ) ;
#275 = SURFACE_STYLE_USAGE ( .BOTH. , #104 ) ;
#276 = CARTESIAN_POINT ( 'NONE',  ( 0.000000000000000000, 3.250000000000000000, 0.000000000000000000 ) ) ;
#277 = PRESENTATION_LAYER_ASSIGNMENT (  '', '', ( #218 ) ) ;
#278 = SURFACE_STYLE_USAGE ( .BOTH. , #209 ) ;
#279 = CARTESIAN_POINT ( 'NONE',  ( -0.3750000000000002776, 6.000000000000000888, 0.000000000000000000 ) ) ;
#280 =( NAMED_UNIT ( * ) PLANE_ANGLE_UNIT ( ) SI_UNIT ( $, .RADIAN. ) );
#281 = PRESENTATION_LAYER_ASSIGNMENT (  '', '', ( #131 ) ) ;
#282 = PRESENTATION_LAYER_ASSIGNMENT (  '', '', ( #65 ) ) ;
#283 = ORIENTED_EDGE ( 'NONE', *, *, #159, .F. ) ;
#284 = FILL_AREA_STYLE_COLOUR ( '', #22 ) ;
#285 = CIRCLE ( 'NONE', #182, 0.3750000000000000555 ) ;
#286 =( NAMED_UNIT ( * ) SI_UNIT ( $, .STERADIAN. ) SOLID_ANGLE_UNIT ( ) );
#287 = CARTESIAN_POINT ( 'NONE',  ( 0.3750000000000000555, 6.000000000000000888, 0.000000000000000000 ) ) ;
#288 = MECHANICAL_DESIGN_GEOMETRIC_PRESENTATION_REPRESENTATION (  '', ( #131 ), #217 ) ;
#289 =( GEOMETRIC_REPRESENTATION_CONTEXT ( 3 ) GLOBAL_UNCERTAINTY_ASSIGNED_CONTEXT ( ( #29 ) ) GLOBAL_UNIT_ASSIGNED_CONTEXT ( ( #136, #280, #115 ) ) REPRESENTATION_CONTEXT ( 'NONE', 'WORKASPACE' ) );
#290 = DIRECTION ( 'NONE',  ( 0.000000000000000000, 0.000000000000000000, -1.000000000000000000 ) ) ;
#291 = ORIENTED_EDGE ( 'NONE', *, *, #185, .F. ) ;
#292 = CARTESIAN_POINT ( 'NONE',  ( 0.3750000000000000555, 6.000000000000000888, 4.592425496802576684E-17 ) ) ;
#293 = LINE ( 'NONE', #25, #47 ) ;
#294 = ORIENTED_EDGE ( 'NONE', *, *, #18, .T. ) ;
#295 = DIRECTION ( 'NONE',  ( -0.000000000000000000, -1.000000000000000000, -0.000000000000000000 ) ) ;
#296 = CIRCLE ( 'NONE', #222, 0.3750000000000000555 ) ;
#297 = VERTEX_POINT ( 'NONE', #292 ) ;
#298 = CYLINDRICAL_SURFACE ( 'NONE', #190, 0.3750000000000001110 ) ;
#299 = ORIENTED_EDGE ( 'NONE', *, *, #39, .T. ) ;
#300 = CARTESIAN_POINT ( 'NONE',  ( 4.592425496802575451E-17, 0.000000000000000000, 0.3750000000000000555 ) ) ;
#301 = DIRECTION ( 'NONE',  ( -0.000000000000000000, -1.000000000000000000, -0.000000000000000000 ) ) ;
#302 =( NAMED_UNIT ( * ) PLANE_ANGLE_UNIT ( ) SI_UNIT ( $, .RADIAN. ) );
#303 = AXIS2_PLACEMENT_3D ( 'NONE', #200, #122, #100 ) ;
#304 = PRODUCT_RELATED_PRODUCT_CATEGORY ( 'part', '', ( #274 ) ) ;
#305 =( CONVERSION_BASED_UNIT ( 'INCH', #211 ) LENGTH_UNIT ( ) NAMED_UNIT ( #84 ) );
#306 = DIRECTION ( 'NONE',  ( 0.000000000000000000, 0.000000000000000000, -1.000000000000000000 ) ) ;
#307 = MECHANICAL_DESIGN_GEOMETRIC_PRESENTATION_REPRESENTATION (  '', ( #12 ), #245 ) ;
#308 = LINE ( 'NONE', #111, #90 ) ;
#309 = EDGE_CURVE ( 'NONE', #24, #297, #236, .T. ) ;
ENDSEC;
END-ISO-10303-21;
