ISO-10303-21;
HEADER;
FILE_DESCRIPTION (( 'STEP AP214' ),
    '1' );
FILE_NAME ('Micro_SME-027-2X.STEP',
    '2021-09-02T11:23:03',
    ( '' ),
    ( '' ),
    'SwSTEP 2.0',
    'SolidWorks 2020',
    '' );
FILE_SCHEMA (( 'AUTOMOTIVE_DESIGN' ));
ENDSEC;

DATA;
#1 = CIRCLE ( 'NONE', #17, 0.01348650000000000022 ) ;
#2 = DIRECTION ( 'NONE',  ( 0.0000000000000000000, 0.0000000000000000000, -1.000000000000000000 ) ) ;
#3 = DIRECTION ( 'NONE',  ( 0.0000000000000000000, 0.0000000000000000000, 1.000000000000000000 ) ) ;
#4 = CYLINDRICAL_SURFACE ( 'NONE', #225, 0.01348650000000000196 ) ;
#5 = EDGE_LOOP ( 'NONE', ( #251, #190, #114, #42 ) ) ;
#6 = CARTESIAN_POINT ( 'NONE',  ( 0.0000000000000000000, 0.0000000000000000000, 1.500000000000000222 ) ) ;
#7 = CONICAL_SURFACE ( 'NONE', #143, 0.01348650000000000022, 0.1745329251994338637 ) ;
#8 = DIRECTION ( 'NONE',  ( 1.000000000000000000, 0.0000000000000000000, 0.0000000000000000000 ) ) ;
#9 = CARTESIAN_POINT ( 'NONE',  ( 4.898587196589415078E-18, 0.0000000000000000000, 0.04000000000000000083 ) ) ;
#10 = DIRECTION ( 'NONE',  ( -1.224646799147353700E-16, -0.0000000000000000000, -1.000000000000000000 ) ) ;
#11 = ORIENTED_EDGE ( 'NONE', *, *, #97, .T. ) ;
#12 = DIRECTION ( 'NONE',  ( -0.7071067811865462405, 0.0000000000000000000, -0.7071067811865486830 ) ) ;
#13 = CARTESIAN_POINT ( 'NONE',  ( 0.0000000000000000000, 0.0000000000000000000, 1.500000000000000222 ) ) ;
#14 = CARTESIAN_POINT ( 'NONE',  ( 0.01348650000000000369, 1.651619905670078127E-18, 0.0000000000000000000 ) ) ;
#15 =( CONVERSION_BASED_UNIT ( 'INCH', #227 ) LENGTH_UNIT ( ) NAMED_UNIT ( #253 ) );
#16 = DIRECTION ( 'NONE',  ( -1.000000000000000000, 0.0000000000000000000, 1.224646799147353700E-16 ) ) ;
#17 = AXIS2_PLACEMENT_3D ( 'NONE', #9, #36, #159 ) ;
#18 = DIRECTION ( 'NONE',  ( -1.000000000000000000, 0.0000000000000000000, 0.0000000000000000000 ) ) ;
#19 = AXIS2_PLACEMENT_3D ( 'NONE', #51, #174, #236 ) ;
#20 = ORIENTED_EDGE ( 'NONE', *, *, #276, .F. ) ;
#21 = DIMENSIONAL_EXPONENTS ( 1.000000000000000000, 0.0000000000000000000, 0.0000000000000000000, 0.0000000000000000000, 0.0000000000000000000, 0.0000000000000000000, 0.0000000000000000000 ) ;
#22 = ADVANCED_FACE ( 'NONE', ( #141 ), #103, .T. ) ;
#23 =( GEOMETRIC_REPRESENTATION_CONTEXT ( 3 ) GLOBAL_UNCERTAINTY_ASSIGNED_CONTEXT ( ( #96 ) ) GLOBAL_UNIT_ASSIGNED_CONTEXT ( ( #221, #122, #152 ) ) REPRESENTATION_CONTEXT ( 'NONE', 'WORKASPACE' ) );
#24 = UNCERTAINTY_MEASURE_WITH_UNIT (LENGTH_MEASURE( 1.000000000000000082E-05 ), #15, 'distance_accuracy_value', 'NONE');
#25 = DIRECTION ( 'NONE',  ( 1.000000000000000000, 0.0000000000000000000, 0.0000000000000000000 ) ) ;
#26 = SURFACE_STYLE_USAGE ( .BOTH. , #205 ) ;
#27 = SURFACE_STYLE_USAGE ( .BOTH. , #218 ) ;
#28 = DIRECTION ( 'NONE',  ( 1.000000000000000000, 0.0000000000000000000, 0.0000000000000000000 ) ) ;
#29 = DIRECTION ( 'NONE',  ( 0.0000000000000000000, 0.0000000000000000000, 1.000000000000000000 ) ) ;
#30 = VECTOR ( 'NONE', #12, 39.37007874015748854 ) ;
#31 = EDGE_CURVE ( 'NONE', #178, #193, #196, .T. ) ;
#32 = FACE_OUTER_BOUND ( 'NONE', #49, .T. ) ;
#33 = FILL_AREA_STYLE_COLOUR ( '', #171 ) ;
#34 = CYLINDRICAL_SURFACE ( 'NONE', #116, 0.01348650000000000196 ) ;
#35 = VERTEX_POINT ( 'NONE', #61 ) ;
#36 = DIRECTION ( 'NONE',  ( -1.224646799147353700E-16, -0.0000000000000000000, -1.000000000000000000 ) ) ;
#37 = EDGE_CURVE ( 'NONE', #164, #44, #185, .T. ) ;
#38 = CIRCLE ( 'NONE', #119, 0.06250000000000002776 ) ;
#39 = AXIS2_PLACEMENT_3D ( 'NONE', #281, #68, #28 ) ;
#40 = STYLED_ITEM ( 'NONE', ( #56 ), #64 ) ;
#41 = ORIENTED_EDGE ( 'NONE', *, *, #97, .F. ) ;
#42 = ORIENTED_EDGE ( 'NONE', *, *, #145, .F. ) ;
#43 = DIRECTION ( 'NONE',  ( -0.0000000000000000000, -0.0000000000000000000, -1.000000000000000000 ) ) ;
#44 = VERTEX_POINT ( 'NONE', #133 ) ;
#45 = EDGE_CURVE ( 'NONE', #35, #164, #83, .T. ) ;
#46 = PRESENTATION_LAYER_ASSIGNMENT (  '', '', ( #109 ) ) ;
#47 = ORIENTED_EDGE ( 'NONE', *, *, #177, .F. ) ;
#48 = ADVANCED_FACE ( 'NONE', ( #244 ), #4, .T. ) ;
#49 = EDGE_LOOP ( 'NONE', ( #20, #65, #197, #11 ) ) ;
#50 = EDGE_LOOP ( 'NONE', ( #278, #234, #130, #187 ) ) ;
#51 = CARTESIAN_POINT ( 'NONE',  ( 0.0000000000000000000, 0.0000000000000000000, 1.485000000000000764 ) ) ;
#52 = DIRECTION ( 'NONE',  ( -1.000000000000000000, 0.0000000000000000000, 1.224646799147353700E-16 ) ) ;
#53 = CARTESIAN_POINT ( 'NONE',  ( 0.01348650000000000369, 0.0000000000000000000, 0.04000000000000000083 ) ) ;
#54 = CARTESIAN_POINT ( 'NONE',  ( 0.0000000000000000000, 0.0000000000000000000, 0.0000000000000000000 ) ) ;
#55 = CARTESIAN_POINT ( 'NONE',  ( -0.01348650000000000196, 0.0000000000000000000, 1.651619905670078705E-18 ) ) ;
#56 = PRESENTATION_STYLE_ASSIGNMENT (( #26 ) ) ;
#57 = FACE_OUTER_BOUND ( 'NONE', #162, .T. ) ;
#58 = DIRECTION ( 'NONE',  ( -0.0000000000000000000, -0.0000000000000000000, -1.000000000000000000 ) ) ;
#59 = AXIS2_PLACEMENT_3D ( 'NONE', #6, #3, #166 ) ;
#60 = DIRECTION ( 'NONE',  ( 0.0000000000000000000, 0.0000000000000000000, -1.000000000000000000 ) ) ;
#61 = CARTESIAN_POINT ( 'NONE',  ( -0.04750000000000064587, 0.0000000000000000000, 1.500000000000000222 ) ) ;
#62 = DIRECTION ( 'NONE',  ( -1.224646799147353700E-16, -0.0000000000000000000, -1.000000000000000000 ) ) ;
#63 = ORIENTED_EDGE ( 'NONE', *, *, #31, .T. ) ;
#64 = MANIFOLD_SOLID_BREP ( 'Cut-Revolve1', #111 ) ;
#65 = ORIENTED_EDGE ( 'NONE', *, *, #240, .F. ) ;
#66 = ORIENTED_EDGE ( 'NONE', *, *, #118, .T. ) ;
#67 = CIRCLE ( 'NONE', #19, 0.06250000000000002776 ) ;
#68 = DIRECTION ( 'NONE',  ( -1.224646799147353700E-16, -0.0000000000000000000, -1.000000000000000000 ) ) ;
#69 = LENGTH_MEASURE_WITH_UNIT ( LENGTH_MEASURE( 0.02539999999999999897 ), #202 );
#70 = DIRECTION ( 'NONE',  ( -1.000000000000000000, 0.0000000000000000000, 1.224646799147353700E-16 ) ) ;
#71 = VECTOR ( 'NONE', #206, 39.37007874015748854 ) ;
#72 = CYLINDRICAL_SURFACE ( 'NONE', #207, 0.06250000000000002776 ) ;
#73 = PRODUCT_DEFINITION_CONTEXT ( 'detailed design', #295, 'design' ) ;
#74 = PLANE ( 'NONE',  #59 ) ;
#75 = FILL_AREA_STYLE ('',( #33 ) ) ;
#76 = DIRECTION ( 'NONE',  ( 0.0000000000000000000, 0.0000000000000000000, -1.000000000000000000 ) ) ;
#77 = SURFACE_STYLE_FILL_AREA ( #268 ) ;
#78 = CARTESIAN_POINT ( 'NONE',  ( 0.06250000000000006939, 7.654042494670963708E-18, 0.3179693714658312631 ) ) ;
#79 = AXIS2_PLACEMENT_3D ( 'NONE', #179, #76, #25 ) ;
#80 =( NAMED_UNIT ( * ) SI_UNIT ( $, .STERADIAN. ) SOLID_ANGLE_UNIT ( ) );
#81 = LENGTH_MEASURE_WITH_UNIT ( LENGTH_MEASURE( 0.02539999999999999897 ), #239 );
#82 = VERTEX_POINT ( 'NONE', #14 ) ;
#83 = LINE ( 'NONE', #250, #30 ) ;
#84 = CARTESIAN_POINT ( 'NONE',  ( 0.06250000000000002776, 7.654042494670959086E-18, 1.500000000000000222 ) ) ;
#85 = ORIENTED_EDGE ( 'NONE', *, *, #45, .T. ) ;
#86 = ORIENTED_EDGE ( 'NONE', *, *, #246, .F. ) ;
#87 = PRODUCT_DEFINITION ( 'UNKNOWN', '', #144, #73 ) ;
#88 = VERTEX_POINT ( 'NONE', #199 ) ;
#89 = AXIS2_PLACEMENT_3D ( 'NONE', #297, #183, #16 ) ;
#90 = ORIENTED_EDGE ( 'NONE', *, *, #228, .T. ) ;
#91 = AXIS2_PLACEMENT_3D ( 'NONE', #146, #2, #173 ) ;
#92 = ORIENTED_EDGE ( 'NONE', *, *, #128, .F. ) ;
#93 = ADVANCED_BREP_SHAPE_REPRESENTATION ( 'Micro_SME-027-2X', ( #64, #293 ), #271 ) ;
#94 = EDGE_LOOP ( 'NONE', ( #163, #95, #189, #142 ) ) ;
#95 = ORIENTED_EDGE ( 'NONE', *, *, #240, .T. ) ;
#96 = UNCERTAINTY_MEASURE_WITH_UNIT (LENGTH_MEASURE( 1.000000000000000082E-05 ), #221, 'distance_accuracy_value', 'NONE');
#97 = EDGE_CURVE ( 'NONE', #193, #44, #38, .T. ) ;
#98 = UNCERTAINTY_MEASURE_WITH_UNIT (LENGTH_MEASURE( 1.000000000000000082E-05 ), #123, 'distance_accuracy_value', 'NONE');
#99 = ADVANCED_FACE ( 'NONE', ( #285 ), #72, .T. ) ;
#100 = ORIENTED_EDGE ( 'NONE', *, *, #223, .T. ) ;
#101 = ORIENTED_EDGE ( 'NONE', *, *, #231, .T. ) ;
#102 = LINE ( 'NONE', #53, #287 ) ;
#103 = CONICAL_SURFACE ( 'NONE', #91, 0.04750000000000064587, 0.7853981633974466137 ) ;
#104 = FACE_OUTER_BOUND ( 'NONE', #50, .T. ) ;
#105 = FACE_OUTER_BOUND ( 'NONE', #5, .T. ) ;
#106 = SURFACE_STYLE_FILL_AREA ( #75 ) ;
#107 = CARTESIAN_POINT ( 'NONE',  ( 3.894001729925261274E-17, 0.0000000000000000000, 0.3179693714658312631 ) ) ;
#108 = CARTESIAN_POINT ( 'NONE',  ( 0.0000000000000000000, 0.0000000000000000000, 1.500000000000000222 ) ) ;
#109 = STYLED_ITEM ( 'NONE', ( #292 ), #93 ) ;
#110 = DIRECTION ( 'NONE',  ( 1.000000000000000000, 0.0000000000000000000, 0.0000000000000000000 ) ) ;
#111 = CLOSED_SHELL ( 'NONE', ( #165, #115, #279, #99, #255, #186, #22, #217, #48, #238 ) ) ;
#112 = MECHANICAL_DESIGN_GEOMETRIC_PRESENTATION_REPRESENTATION (  '', ( #109 ), #120 ) ;
#113 = CIRCLE ( 'NONE', #264, 0.01348650000000000022 ) ;
#114 = ORIENTED_EDGE ( 'NONE', *, *, #231, .F. ) ;
#115 = ADVANCED_FACE ( 'NONE', ( #104 ), #7, .T. ) ;
#116 = AXIS2_PLACEMENT_3D ( 'NONE', #170, #200, #70 ) ;
#117 = DIMENSIONAL_EXPONENTS ( 1.000000000000000000, 0.0000000000000000000, 0.0000000000000000000, 0.0000000000000000000, 0.0000000000000000000, 0.0000000000000000000, 0.0000000000000000000 ) ;
#118 = EDGE_CURVE ( 'NONE', #82, #88, #147, .T. ) ;
#119 = AXIS2_PLACEMENT_3D ( 'NONE', #107, #294, #175 ) ;
#120 =( GEOMETRIC_REPRESENTATION_CONTEXT ( 3 ) GLOBAL_UNCERTAINTY_ASSIGNED_CONTEXT ( ( #98 ) ) GLOBAL_UNIT_ASSIGNED_CONTEXT ( ( #123, #290, #259 ) ) REPRESENTATION_CONTEXT ( 'NONE', 'WORKASPACE' ) );
#121 = PLANE ( 'NONE',  #280 ) ;
#122 =( NAMED_UNIT ( * ) PLANE_ANGLE_UNIT ( ) SI_UNIT ( $, .RADIAN. ) );
#123 =( CONVERSION_BASED_UNIT ( 'INCH', #69 ) LENGTH_UNIT ( ) NAMED_UNIT ( #21 ) );
#124 = DIRECTION ( 'NONE',  ( 1.224646799147353700E-16, 0.0000000000000000000, 1.000000000000000000 ) ) ;
#125 = EDGE_LOOP ( 'NONE', ( #90, #63, #249, #167 ) ) ;
#126 = DIRECTION ( 'NONE',  ( 1.000000000000000000, 0.0000000000000000000, 0.0000000000000000000 ) ) ;
#127 = DIRECTION ( 'NONE',  ( 0.0000000000000000000, 0.0000000000000000000, 1.000000000000000000 ) ) ;
#128 = EDGE_CURVE ( 'NONE', #35, #266, #140, .T. ) ;
#129 = CARTESIAN_POINT ( 'NONE',  ( 0.06250000000000002776, 7.654042494670959086E-18, 1.485000000000000764 ) ) ;
#130 = ORIENTED_EDGE ( 'NONE', *, *, #160, .T. ) ;
#131 = ORIENTED_EDGE ( 'NONE', *, *, #228, .F. ) ;
#132 =( LENGTH_UNIT ( ) NAMED_UNIT ( * ) SI_UNIT ( $, .METRE. ) );
#133 = CARTESIAN_POINT ( 'NONE',  ( -0.06249999999999997918, 0.0000000000000000000, 0.3179693714658312631 ) ) ;
#134 = AXIS2_PLACEMENT_3D ( 'NONE', #108, #43, #136 ) ;
#135 = LINE ( 'NONE', #222, #194 ) ;
#136 = DIRECTION ( 'NONE',  ( -1.000000000000000000, 0.0000000000000000000, 0.0000000000000000000 ) ) ;
#137 = EDGE_LOOP ( 'NONE', ( #139, #100, #277, #41 ) ) ;
#138 = DIRECTION ( 'NONE',  ( 0.0000000000000000000, 0.0000000000000000000, 1.000000000000000000 ) ) ;
#139 = ORIENTED_EDGE ( 'NONE', *, *, #31, .F. ) ;
#140 = CIRCLE ( 'NONE', #156, 0.04750000000000064587 ) ;
#141 = FACE_OUTER_BOUND ( 'NONE', #283, .T. ) ;
#142 = ORIENTED_EDGE ( 'NONE', *, *, #118, .F. ) ;
#143 = AXIS2_PLACEMENT_3D ( 'NONE', #201, #262, #110 ) ;
#144 = PRODUCT_DEFINITION_FORMATION_WITH_SPECIFIED_SOURCE ( 'ANY', '', #252, .NOT_KNOWN. ) ;
#145 = EDGE_CURVE ( 'NONE', #299, #88, #195, .T. ) ;
#146 = CARTESIAN_POINT ( 'NONE',  ( 0.0000000000000000000, 0.0000000000000000000, 1.500000000000000222 ) ) ;
#147 = CIRCLE ( 'NONE', #89, 0.01348650000000000369 ) ;
#148 = AXIS2_PLACEMENT_3D ( 'NONE', #153, #265, #204 ) ;
#149 = EDGE_CURVE ( 'NONE', #299, #275, #113, .T. ) ;
#150 = CARTESIAN_POINT ( 'NONE',  ( 4.898587196589415078E-18, 0.0000000000000000000, 0.04000000000000000083 ) ) ;
#151 = FACE_OUTER_BOUND ( 'NONE', #216, .T. ) ;
#152 =( NAMED_UNIT ( * ) SI_UNIT ( $, .STERADIAN. ) SOLID_ANGLE_UNIT ( ) );
#153 = CARTESIAN_POINT ( 'NONE',  ( 2.022651030886916308E-34, 0.0000000000000000000, 1.651619905670079090E-18 ) ) ;
#154 = PRODUCT_CONTEXT ( 'NONE', #288, 'mechanical' ) ;
#155 = CARTESIAN_POINT ( 'NONE',  ( 4.898587196589415078E-18, 0.0000000000000000000, 0.04000000000000000083 ) ) ;
#156 = AXIS2_PLACEMENT_3D ( 'NONE', #233, #198, #215 ) ;
#157 = APPLICATION_PROTOCOL_DEFINITION ( 'draft international standard', 'automotive_design', 1998, #288 ) ;
#158 = ORIENTED_EDGE ( 'NONE', *, *, #223, .F. ) ;
#159 = DIRECTION ( 'NONE',  ( -1.000000000000000000, 0.0000000000000000000, 0.0000000000000000000 ) ) ;
#160 = EDGE_CURVE ( 'NONE', #44, #193, #213, .T. ) ;
#161 = CONICAL_SURFACE ( 'NONE', #235, 0.01348650000000000022, 0.1745329251994338637 ) ;
#162 = EDGE_LOOP ( 'NONE', ( #101, #66 ) ) ;
#163 = ORIENTED_EDGE ( 'NONE', *, *, #272, .F. ) ;
#164 = VERTEX_POINT ( 'NONE', #176 ) ;
#165 = ADVANCED_FACE ( 'NONE', ( #105 ), #34, .T. ) ;
#166 = DIRECTION ( 'NONE',  ( 1.000000000000000000, 0.0000000000000000000, -0.0000000000000000000 ) ) ;
#167 = ORIENTED_EDGE ( 'NONE', *, *, #37, .F. ) ;
#168 = VECTOR ( 'NONE', #58, 39.37007874015748143 ) ;
#169 = CONICAL_SURFACE ( 'NONE', #243, 0.04750000000000064587, 0.7853981633974466137 ) ;
#170 = CARTESIAN_POINT ( 'NONE',  ( 0.0000000000000000000, 0.0000000000000000000, 0.0000000000000000000 ) ) ;
#171 = COLOUR_RGB ( '',0.7921568627450980005, 0.8196078431372548767, 0.9333333333333333481 ) ;
#172 = CARTESIAN_POINT ( 'NONE',  ( 0.0000000000000000000, 0.0000000000000000000, 1.500000000000000222 ) ) ;
#173 = DIRECTION ( 'NONE',  ( -1.000000000000000000, 0.0000000000000000000, 0.0000000000000000000 ) ) ;
#174 = DIRECTION ( 'NONE',  ( 0.0000000000000000000, 0.0000000000000000000, -1.000000000000000000 ) ) ;
#175 = DIRECTION ( 'NONE',  ( 1.000000000000000000, 0.0000000000000000000, 0.0000000000000000000 ) ) ;
#176 = CARTESIAN_POINT ( 'NONE',  ( -0.06250000000000002776, 0.0000000000000000000, 1.485000000000000764 ) ) ;
#177 = EDGE_CURVE ( 'NONE', #266, #178, #291, .T. ) ;
#178 = VERTEX_POINT ( 'NONE', #129 ) ;
#179 = CARTESIAN_POINT ( 'NONE',  ( 0.0000000000000000000, 0.0000000000000000000, 1.485000000000000764 ) ) ;
#180 = COLOUR_RGB ( '',0.7921568627450980005, 0.8196078431372548767, 0.9333333333333333481 ) ;
#181 = CARTESIAN_POINT ( 'NONE',  ( -0.01348649999999999502, 4.652831200170519473E-18, 0.04000000000000000083 ) ) ;
#182 = CARTESIAN_POINT ( 'NONE',  ( 0.01348650000000000369, 0.0000000000000000000, 0.04000000000000000083 ) ) ;
#183 = DIRECTION ( 'NONE',  ( -1.224646799147353700E-16, -0.0000000000000000000, -1.000000000000000000 ) ) ;
#184 = ORIENTED_EDGE ( 'NONE', *, *, #177, .T. ) ;
#185 = LINE ( 'NONE', #267, #168 ) ;
#186 = ADVANCED_FACE ( 'NONE', ( #151 ), #74, .T. ) ;
#187 = ORIENTED_EDGE ( 'NONE', *, *, #203, .F. ) ;
#188 = VECTOR ( 'NONE', #273, 39.37007874015748143 ) ;
#189 = ORIENTED_EDGE ( 'NONE', *, *, #145, .T. ) ;
#190 = ORIENTED_EDGE ( 'NONE', *, *, #272, .T. ) ;
#191 = PRODUCT_RELATED_PRODUCT_CATEGORY ( 'part', '', ( #252 ) ) ;
#192 = PRODUCT_DEFINITION_SHAPE ( 'NONE', 'NONE',  #87 ) ;
#193 = VERTEX_POINT ( 'NONE', #78 ) ;
#194 = VECTOR ( 'NONE', #62, 39.37007874015748143 ) ;
#195 = LINE ( 'NONE', #55, #224 ) ;
#196 = LINE ( 'NONE', #84, #188 ) ;
#197 = ORIENTED_EDGE ( 'NONE', *, *, #203, .T. ) ;
#198 = DIRECTION ( 'NONE',  ( 0.0000000000000000000, 0.0000000000000000000, 1.000000000000000000 ) ) ;
#199 = CARTESIAN_POINT ( 'NONE',  ( -0.01348650000000000369, 0.0000000000000000000, 3.303239811340158180E-18 ) ) ;
#200 = DIRECTION ( 'NONE',  ( -1.224646799147353700E-16, -0.0000000000000000000, -1.000000000000000000 ) ) ;
#201 = CARTESIAN_POINT ( 'NONE',  ( 4.898587196589415078E-18, 0.0000000000000000000, 0.04000000000000000083 ) ) ;
#202 =( LENGTH_UNIT ( ) NAMED_UNIT ( * ) SI_UNIT ( $, .METRE. ) );
#203 = EDGE_CURVE ( 'NONE', #275, #193, #102, .T. ) ;
#204 = DIRECTION ( 'NONE',  ( -1.000000000000000000, 0.0000000000000000000, 1.224646799147353700E-16 ) ) ;
#205 = SURFACE_SIDE_STYLE ('',( #106 ) ) ;
#206 = DIRECTION ( 'NONE',  ( 0.7071067811865462405, 8.659560562354916834E-17, -0.7071067811865486830 ) ) ;
#207 = AXIS2_PLACEMENT_3D ( 'NONE', #172, #261, #237 ) ;
#208 = DIRECTION ( 'NONE',  ( -0.1736481776669311639, 2.126576849575783008E-17, 0.9848077530122080203 ) ) ;
#209 = CIRCLE ( 'NONE', #258, 0.04750000000000064587 ) ;
#210 = FACE_OUTER_BOUND ( 'NONE', #137, .T. ) ;
#211 = CIRCLE ( 'NONE', #79, 0.06250000000000002776 ) ;
#212 = ORIENTED_EDGE ( 'NONE', *, *, #45, .F. ) ;
#213 = CIRCLE ( 'NONE', #39, 0.06250000000000002776 ) ;
#214 = CARTESIAN_POINT ( 'NONE',  ( 0.0000000000000000000, 0.0000000000000000000, 0.0000000000000000000 ) ) ;
#215 = DIRECTION ( 'NONE',  ( 1.000000000000000000, 0.0000000000000000000, 0.0000000000000000000 ) ) ;
#216 = EDGE_LOOP ( 'NONE', ( #254, #248 ) ) ;
#217 = ADVANCED_FACE ( 'NONE', ( #32 ), #161, .T. ) ;
#218 = SURFACE_SIDE_STYLE ('',( #77 ) ) ;
#219 = DIRECTION ( 'NONE',  ( 1.000000000000000000, 0.0000000000000000000, -0.0000000000000000000 ) ) ;
#220 = SHAPE_DEFINITION_REPRESENTATION ( #192, #93 ) ;
#221 =( CONVERSION_BASED_UNIT ( 'INCH', #81 ) LENGTH_UNIT ( ) NAMED_UNIT ( #117 ) );
#222 = CARTESIAN_POINT ( 'NONE',  ( 0.01348650000000000196, 1.651619905670078127E-18, -1.651619905670078705E-18 ) ) ;
#223 = EDGE_CURVE ( 'NONE', #178, #164, #211, .T. ) ;
#224 = VECTOR ( 'NONE', #289, 39.37007874015748143 ) ;
#225 = AXIS2_PLACEMENT_3D ( 'NONE', #257, #10, #52 ) ;
#226 = CYLINDRICAL_SURFACE ( 'NONE', #134, 0.06250000000000002776 ) ;
#227 = LENGTH_MEASURE_WITH_UNIT ( LENGTH_MEASURE( 0.02539999999999999897 ), #132 );
#228 = EDGE_CURVE ( 'NONE', #164, #178, #67, .T. ) ;
#229 = CARTESIAN_POINT ( 'NONE',  ( 0.0000000000000000000, 0.0000000000000000000, 1.500000000000000222 ) ) ;
#230 = VECTOR ( 'NONE', #208, 39.37007874015747433 ) ;
#231 = EDGE_CURVE ( 'NONE', #88, #82, #298, .T. ) ;
#232 = EDGE_LOOP ( 'NONE', ( #86, #184, #131, #212 ) ) ;
#233 = CARTESIAN_POINT ( 'NONE',  ( 0.0000000000000000000, 0.0000000000000000000, 1.500000000000000222 ) ) ;
#234 = ORIENTED_EDGE ( 'NONE', *, *, #276, .T. ) ;
#235 = AXIS2_PLACEMENT_3D ( 'NONE', #150, #124, #126 ) ;
#236 = DIRECTION ( 'NONE',  ( 1.000000000000000000, 0.0000000000000000000, 0.0000000000000000000 ) ) ;
#237 = DIRECTION ( 'NONE',  ( -1.000000000000000000, 0.0000000000000000000, 0.0000000000000000000 ) ) ;
#238 = ADVANCED_FACE ( 'NONE', ( #57 ), #121, .F. ) ;
#239 =( LENGTH_UNIT ( ) NAMED_UNIT ( * ) SI_UNIT ( $, .METRE. ) );
#240 = EDGE_CURVE ( 'NONE', #275, #299, #1, .T. ) ;
#241 = LINE ( 'NONE', #247, #230 ) ;
#242 = FACE_OUTER_BOUND ( 'NONE', #232, .T. ) ;
#243 = AXIS2_PLACEMENT_3D ( 'NONE', #229, #60, #18 ) ;
#244 = FACE_OUTER_BOUND ( 'NONE', #94, .T. ) ;
#245 = CARTESIAN_POINT ( 'NONE',  ( 0.04750000000000064587, 6.735557395310483192E-18, 1.500000000000000222 ) ) ;
#246 = EDGE_CURVE ( 'NONE', #266, #35, #209, .T. ) ;
#247 = CARTESIAN_POINT ( 'NONE',  ( -0.01348649999999999502, 1.651619905670077742E-18, 0.04000000000000000083 ) ) ;
#248 = ORIENTED_EDGE ( 'NONE', *, *, #246, .T. ) ;
#249 = ORIENTED_EDGE ( 'NONE', *, *, #160, .F. ) ;
#250 = CARTESIAN_POINT ( 'NONE',  ( -0.04750000000000064587, 0.0000000000000000000, 1.500000000000000222 ) ) ;
#251 = ORIENTED_EDGE ( 'NONE', *, *, #149, .T. ) ;
#252 = PRODUCT ( 'Micro_SME-027-2X', 'Micro_SME-027-2X', '', ( #154 ) ) ;
#253 = DIMENSIONAL_EXPONENTS ( 1.000000000000000000, 0.0000000000000000000, 0.0000000000000000000, 0.0000000000000000000, 0.0000000000000000000, 0.0000000000000000000, 0.0000000000000000000 ) ;
#254 = ORIENTED_EDGE ( 'NONE', *, *, #128, .T. ) ;
#255 = ADVANCED_FACE ( 'NONE', ( #210 ), #226, .T. ) ;
#256 = DIRECTION ( 'NONE',  ( 0.1736481776669313581, 0.0000000000000000000, 0.9848077530122077983 ) ) ;
#257 = CARTESIAN_POINT ( 'NONE',  ( 0.0000000000000000000, 0.0000000000000000000, 0.0000000000000000000 ) ) ;
#258 = AXIS2_PLACEMENT_3D ( 'NONE', #13, #138, #274 ) ;
#259 =( NAMED_UNIT ( * ) SI_UNIT ( $, .STERADIAN. ) SOLID_ANGLE_UNIT ( ) );
#260 = CARTESIAN_POINT ( 'NONE',  ( 0.04750000000000064587, 5.817072295950006528E-18, 1.500000000000000222 ) ) ;
#261 = DIRECTION ( 'NONE',  ( -0.0000000000000000000, -0.0000000000000000000, -1.000000000000000000 ) ) ;
#262 = DIRECTION ( 'NONE',  ( 1.224646799147353700E-16, 0.0000000000000000000, 1.000000000000000000 ) ) ;
#263 = DIRECTION ( 'NONE',  ( -1.224646799147353700E-16, -0.0000000000000000000, -1.000000000000000000 ) ) ;
#264 = AXIS2_PLACEMENT_3D ( 'NONE', #155, #263, #284 ) ;
#265 = DIRECTION ( 'NONE',  ( -1.224646799147353700E-16, -0.0000000000000000000, -1.000000000000000000 ) ) ;
#266 = VERTEX_POINT ( 'NONE', #245 ) ;
#267 = CARTESIAN_POINT ( 'NONE',  ( -0.06250000000000002776, 0.0000000000000000000, 1.500000000000000222 ) ) ;
#268 = FILL_AREA_STYLE ('',( #296 ) ) ;
#269 = PRESENTATION_LAYER_ASSIGNMENT (  '', '', ( #40 ) ) ;
#270 =( NAMED_UNIT ( * ) PLANE_ANGLE_UNIT ( ) SI_UNIT ( $, .RADIAN. ) );
#271 =( GEOMETRIC_REPRESENTATION_CONTEXT ( 3 ) GLOBAL_UNCERTAINTY_ASSIGNED_CONTEXT ( ( #24 ) ) GLOBAL_UNIT_ASSIGNED_CONTEXT ( ( #15, #270, #80 ) ) REPRESENTATION_CONTEXT ( 'NONE', 'WORKASPACE' ) );
#272 = EDGE_CURVE ( 'NONE', #275, #82, #135, .T. ) ;
#273 = DIRECTION ( 'NONE',  ( -0.0000000000000000000, -0.0000000000000000000, -1.000000000000000000 ) ) ;
#274 = DIRECTION ( 'NONE',  ( 1.000000000000000000, 0.0000000000000000000, 0.0000000000000000000 ) ) ;
#275 = VERTEX_POINT ( 'NONE', #182 ) ;
#276 = EDGE_CURVE ( 'NONE', #299, #44, #241, .T. ) ;
#277 = ORIENTED_EDGE ( 'NONE', *, *, #37, .T. ) ;
#278 = ORIENTED_EDGE ( 'NONE', *, *, #149, .F. ) ;
#279 = ADVANCED_FACE ( 'NONE', ( #242 ), #169, .T. ) ;
#280 = AXIS2_PLACEMENT_3D ( 'NONE', #214, #29, #219 ) ;
#281 = CARTESIAN_POINT ( 'NONE',  ( 3.894001729925261274E-17, 0.0000000000000000000, 0.3179693714658312631 ) ) ;
#282 = APPLICATION_PROTOCOL_DEFINITION ( 'draft international standard', 'automotive_design', 1998, #295 ) ;
#283 = EDGE_LOOP ( 'NONE', ( #47, #92, #85, #158 ) ) ;
#284 = DIRECTION ( 'NONE',  ( -1.000000000000000000, 0.0000000000000000000, 0.0000000000000000000 ) ) ;
#285 = FACE_OUTER_BOUND ( 'NONE', #125, .T. ) ;
#286 = MECHANICAL_DESIGN_GEOMETRIC_PRESENTATION_REPRESENTATION (  '', ( #40 ), #23 ) ;
#287 = VECTOR ( 'NONE', #256, 39.37007874015748143 ) ;
#288 = APPLICATION_CONTEXT ( 'automotive_design' ) ;
#289 = DIRECTION ( 'NONE',  ( -1.224646799147353700E-16, -0.0000000000000000000, -1.000000000000000000 ) ) ;
#290 =( NAMED_UNIT ( * ) PLANE_ANGLE_UNIT ( ) SI_UNIT ( $, .RADIAN. ) );
#291 = LINE ( 'NONE', #260, #71 ) ;
#292 = PRESENTATION_STYLE_ASSIGNMENT (( #27 ) ) ;
#293 = AXIS2_PLACEMENT_3D ( 'NONE', #54, #127, #8 ) ;
#294 = DIRECTION ( 'NONE',  ( -1.224646799147353700E-16, -0.0000000000000000000, -1.000000000000000000 ) ) ;
#295 = APPLICATION_CONTEXT ( 'automotive_design' ) ;
#296 = FILL_AREA_STYLE_COLOUR ( '', #180 ) ;
#297 = CARTESIAN_POINT ( 'NONE',  ( 2.022651030886916308E-34, 0.0000000000000000000, 1.651619905670079090E-18 ) ) ;
#298 = CIRCLE ( 'NONE', #148, 0.01348650000000000369 ) ;
#299 = VERTEX_POINT ( 'NONE', #181 ) ;
ENDSEC;
END-ISO-10303-21;
