ISO-10303-21;
HEADER;
FILE_DESCRIPTION (( 'STEP AP214' ),
    '1' );
FILE_NAME ('Micro_GEM-046-2X.STEP',
    '2021-09-01T18:52:06',
    ( '' ),
    ( '' ),
    'SwSTEP 2.0',
    'SolidWorks 2020',
    '' );
FILE_SCHEMA (( 'AUTOMOTIVE_DESIGN' ));
ENDSEC;

DATA;
#1 = CARTESIAN_POINT ( 'NONE',  ( 0.0000000000000000000, 0.0000000000000000000, 0.0000000000000000000 ) ) ;
#2 = FACE_OUTER_BOUND ( 'NONE', #30, .T. ) ;
#3 =( NAMED_UNIT ( * ) PLANE_ANGLE_UNIT ( ) SI_UNIT ( $, .RADIAN. ) );
#4 = VERTEX_POINT ( 'NONE', #210 ) ;
#5 = EDGE_LOOP ( 'NONE', ( #186, #161 ) ) ;
#6 = ORIENTED_EDGE ( 'NONE', *, *, #119, .F. ) ;
#7 = ORIENTED_EDGE ( 'NONE', *, *, #167, .F. ) ;
#8 = CONICAL_SURFACE ( 'NONE', #174, 0.02342654999999999391, 0.1745329251994338915 ) ;
#9 = VERTEX_POINT ( 'NONE', #185 ) ;
#10 = ADVANCED_FACE ( 'NONE', ( #79 ), #159, .T. ) ;
#11 = DIRECTION ( 'NONE',  ( -1.000000000000000000, 0.0000000000000000000, 0.0000000000000000000 ) ) ;
#12 = DIRECTION ( 'NONE',  ( 0.0000000000000000000, 0.0000000000000000000, 1.000000000000000000 ) ) ;
#13 = DIRECTION ( 'NONE',  ( 0.0000000000000000000, 0.0000000000000000000, -1.000000000000000000 ) ) ;
#14 = VECTOR ( 'NONE', #93, 39.37007874015748143 ) ;
#15 = CYLINDRICAL_SURFACE ( 'NONE', #298, 0.02342655000000000085 ) ;
#16 = DIRECTION ( 'NONE',  ( -1.000000000000000000, 0.0000000000000000000, 0.0000000000000000000 ) ) ;
#17 = CIRCLE ( 'NONE', #274, 0.06250000000000002776 ) ;
#18 = CYLINDRICAL_SURFACE ( 'NONE', #287, 0.02342655000000000085 ) ;
#19 = CIRCLE ( 'NONE', #156, 0.02342655000000000085 ) ;
#20 = CARTESIAN_POINT ( 'NONE',  ( 0.0000000000000000000, 0.0000000000000000000, 1.500000000000000222 ) ) ;
#21 = CARTESIAN_POINT ( 'NONE',  ( 0.06250000000000002776, 7.654042494670959086E-18, 1.500000000000000222 ) ) ;
#22 = CARTESIAN_POINT ( 'NONE',  ( 3.513419753651716505E-34, 0.0000000000000000000, 2.868924947256543719E-18 ) ) ;
#23 = EDGE_CURVE ( 'NONE', #96, #117, #288, .T. ) ;
#24 = DIRECTION ( 'NONE',  ( 0.0000000000000000000, 0.0000000000000000000, 1.000000000000000000 ) ) ;
#25 = LENGTH_MEASURE_WITH_UNIT ( LENGTH_MEASURE( 0.02539999999999999897 ), #192 );
#26 = EDGE_LOOP ( 'NONE', ( #101, #121 ) ) ;
#27 =( NAMED_UNIT ( * ) SI_UNIT ( $, .STERADIAN. ) SOLID_ANGLE_UNIT ( ) );
#28 = ADVANCED_FACE ( 'NONE', ( #40 ), #292, .T. ) ;
#29 = ORIENTED_EDGE ( 'NONE', *, *, #124, .T. ) ;
#30 = EDGE_LOOP ( 'NONE', ( #162, #140, #211, #29 ) ) ;
#31 = EDGE_LOOP ( 'NONE', ( #212, #103, #82, #76 ) ) ;
#32 = COLOUR_RGB ( '',0.7921568627450980005, 0.8196078431372548767, 0.9333333333333333481 ) ;
#33 = DIRECTION ( 'NONE',  ( -1.224646799147353700E-16, -0.0000000000000000000, -1.000000000000000000 ) ) ;
#34 =( LENGTH_UNIT ( ) NAMED_UNIT ( * ) SI_UNIT ( $, .METRE. ) );
#35 = FACE_OUTER_BOUND ( 'NONE', #120, .T. ) ;
#36 =( NAMED_UNIT ( * ) SI_UNIT ( $, .STERADIAN. ) SOLID_ANGLE_UNIT ( ) );
#37 = APPLICATION_CONTEXT ( 'automotive_design' ) ;
#38 = CARTESIAN_POINT ( 'NONE',  ( -0.06250000000000002776, 0.0000000000000000000, 1.485000000000000764 ) ) ;
#39 = COLOUR_RGB ( '',0.7921568627450980005, 0.8196078431372548767, 0.9333333333333333481 ) ;
#40 = FACE_OUTER_BOUND ( 'NONE', #99, .T. ) ;
#41 = DIRECTION ( 'NONE',  ( 0.0000000000000000000, 0.0000000000000000000, -1.000000000000000000 ) ) ;
#42 = PLANE ( 'NONE',  #214 ) ;
#43 = EDGE_CURVE ( 'NONE', #238, #80, #44, .T. ) ;
#44 = CIRCLE ( 'NONE', #208, 0.02342655000000000085 ) ;
#45 = DIRECTION ( 'NONE',  ( -1.224646799147353700E-16, -0.0000000000000000000, -1.000000000000000000 ) ) ;
#46 = DIRECTION ( 'NONE',  ( -1.224646799147353700E-16, -0.0000000000000000000, -1.000000000000000000 ) ) ;
#47 = PLANE ( 'NONE',  #54 ) ;
#48 = EDGE_CURVE ( 'NONE', #4, #232, #106, .T. ) ;
#49 = DIRECTION ( 'NONE',  ( -0.0000000000000000000, -0.0000000000000000000, -1.000000000000000000 ) ) ;
#50 = AXIS2_PLACEMENT_3D ( 'NONE', #296, #111, #247 ) ;
#51 = ORIENTED_EDGE ( 'NONE', *, *, #233, .F. ) ;
#52 = ORIENTED_EDGE ( 'NONE', *, *, #233, .T. ) ;
#53 = ORIENTED_EDGE ( 'NONE', *, *, #272, .T. ) ;
#54 = AXIS2_PLACEMENT_3D ( 'NONE', #276, #112, #152 ) ;
#55 = ORIENTED_EDGE ( 'NONE', *, *, #119, .T. ) ;
#56 = VERTEX_POINT ( 'NONE', #242 ) ;
#57 = CARTESIAN_POINT ( 'NONE',  ( 0.02342655000000000778, 0.0000000000000000000, 0.1089999999999999997 ) ) ;
#58 = AXIS2_PLACEMENT_3D ( 'NONE', #244, #104, #191 ) ;
#59 = LENGTH_MEASURE_WITH_UNIT ( LENGTH_MEASURE( 0.02539999999999999897 ), #34 );
#60 = CIRCLE ( 'NONE', #71, 0.06250000000000002776 ) ;
#61 = DIMENSIONAL_EXPONENTS ( 1.000000000000000000, 0.0000000000000000000, 0.0000000000000000000, 0.0000000000000000000, 0.0000000000000000000, 0.0000000000000000000, 0.0000000000000000000 ) ;
#62 = FACE_OUTER_BOUND ( 'NONE', #31, .T. ) ;
#63 = FILL_AREA_STYLE ('',( #139 ) ) ;
#64 = DIRECTION ( 'NONE',  ( -1.224646799147353700E-16, -0.0000000000000000000, -1.000000000000000000 ) ) ;
#65 = AXIS2_PLACEMENT_3D ( 'NONE', #198, #148, #11 ) ;
#66 = CARTESIAN_POINT ( 'NONE',  ( -0.04750000000000064587, 0.0000000000000000000, 1.500000000000000222 ) ) ;
#67 = LINE ( 'NONE', #230, #14 ) ;
#68 = EDGE_CURVE ( 'NONE', #56, #117, #223, .T. ) ;
#69 = LINE ( 'NONE', #115, #163 ) ;
#70 = DIRECTION ( 'NONE',  ( 1.000000000000000000, 0.0000000000000000000, -0.0000000000000000000 ) ) ;
#71 = AXIS2_PLACEMENT_3D ( 'NONE', #90, #46, #176 ) ;
#72 = CYLINDRICAL_SURFACE ( 'NONE', #235, 0.06250000000000002776 ) ;
#73 = FACE_OUTER_BOUND ( 'NONE', #26, .T. ) ;
#74 = VECTOR ( 'NONE', #168, 39.37007874015748854 ) ;
#75 = STYLED_ITEM ( 'NONE', ( #146 ), #286 ) ;
#76 = ORIENTED_EDGE ( 'NONE', *, *, #285, .F. ) ;
#77 = EDGE_CURVE ( 'NONE', #4, #9, #102, .T. ) ;
#78 =( CONVERSION_BASED_UNIT ( 'INCH', #25 ) LENGTH_UNIT ( ) NAMED_UNIT ( #147 ) );
#79 = FACE_OUTER_BOUND ( 'NONE', #281, .T. ) ;
#80 = VERTEX_POINT ( 'NONE', #241 ) ;
#81 = AXIS2_PLACEMENT_3D ( 'NONE', #144, #64, #122 ) ;
#82 = ORIENTED_EDGE ( 'NONE', *, *, #23, .F. ) ;
#83 = VERTEX_POINT ( 'NONE', #66 ) ;
#84 = DIRECTION ( 'NONE',  ( 0.1736481776669313859, 0.0000000000000000000, 0.9848077530122077983 ) ) ;
#85 = DIRECTION ( 'NONE',  ( -1.000000000000000000, 0.0000000000000000000, 1.224646799147353700E-16 ) ) ;
#86 = CARTESIAN_POINT ( 'NONE',  ( 0.04750000000000064587, 5.817072295950006528E-18, 1.500000000000000222 ) ) ;
#87 = UNCERTAINTY_MEASURE_WITH_UNIT (LENGTH_MEASURE( 1.000000000000000082E-05 ), #78, 'distance_accuracy_value', 'NONE');
#88 = CIRCLE ( 'NONE', #220, 0.06250000000000002776 ) ;
#89 = DIRECTION ( 'NONE',  ( -1.000000000000000000, 0.0000000000000000000, 1.224646799147353700E-16 ) ) ;
#90 = CARTESIAN_POINT ( 'NONE',  ( 4.048640026209108604E-17, 0.0000000000000000000, 0.3305965466147405274 ) ) ;
#91 = DIRECTION ( 'NONE',  ( 0.0000000000000000000, 0.0000000000000000000, 1.000000000000000000 ) ) ;
#92 = DIRECTION ( 'NONE',  ( -0.0000000000000000000, -0.0000000000000000000, -1.000000000000000000 ) ) ;
#93 = DIRECTION ( 'NONE',  ( -1.224646799147353700E-16, -0.0000000000000000000, -1.000000000000000000 ) ) ;
#94 = SHAPE_DEFINITION_REPRESENTATION ( #221, #286 ) ;
#95 = ADVANCED_FACE ( 'NONE', ( #35 ), #15, .T. ) ;
#96 = VERTEX_POINT ( 'NONE', #38 ) ;
#97 = AXIS2_PLACEMENT_3D ( 'NONE', #20, #24, #205 ) ;
#98 = ORIENTED_EDGE ( 'NONE', *, *, #68, .F. ) ;
#99 = EDGE_LOOP ( 'NONE', ( #138, #53, #166, #7 ) ) ;
#100 = ADVANCED_FACE ( 'NONE', ( #62 ), #164, .T. ) ;
#101 = ORIENTED_EDGE ( 'NONE', *, *, #201, .T. ) ;
#102 = CIRCLE ( 'NONE', #81, 0.02342654999999999391 ) ;
#103 = ORIENTED_EDGE ( 'NONE', *, *, #68, .T. ) ;
#104 = DIRECTION ( 'NONE',  ( 0.0000000000000000000, 0.0000000000000000000, -1.000000000000000000 ) ) ;
#105 = SURFACE_STYLE_FILL_AREA ( #63 ) ;
#106 = LINE ( 'NONE', #57, #150 ) ;
#107 = MECHANICAL_DESIGN_GEOMETRIC_PRESENTATION_REPRESENTATION (  '', ( #183 ), #250 ) ;
#108 = CARTESIAN_POINT ( 'NONE',  ( 0.0000000000000000000, 0.0000000000000000000, 0.0000000000000000000 ) ) ;
#109 = PRESENTATION_STYLE_ASSIGNMENT (( #216 ) ) ;
#110 = LINE ( 'NONE', #265, #145 ) ;
#111 = DIRECTION ( 'NONE',  ( 0.0000000000000000000, 0.0000000000000000000, 1.000000000000000000 ) ) ;
#112 = DIRECTION ( 'NONE',  ( 0.0000000000000000000, 0.0000000000000000000, 1.000000000000000000 ) ) ;
#113 = DIRECTION ( 'NONE',  ( -1.000000000000000000, 0.0000000000000000000, 0.0000000000000000000 ) ) ;
#114 = DIRECTION ( 'NONE',  ( -1.000000000000000000, 0.0000000000000000000, 1.224646799147353700E-16 ) ) ;
#115 = CARTESIAN_POINT ( 'NONE',  ( -0.04750000000000064587, 0.0000000000000000000, 1.500000000000000222 ) ) ;
#116 = ORIENTED_EDGE ( 'NONE', *, *, #131, .T. ) ;
#117 = VERTEX_POINT ( 'NONE', #126 ) ;
#118 = AXIS2_PLACEMENT_3D ( 'NONE', #277, #12, #218 ) ;
#119 = EDGE_CURVE ( 'NONE', #4, #80, #110, .T. ) ;
#120 = EDGE_LOOP ( 'NONE', ( #6, #215, #189, #261 ) ) ;
#121 = ORIENTED_EDGE ( 'NONE', *, *, #291, .T. ) ;
#122 = DIRECTION ( 'NONE',  ( -1.000000000000000000, 0.0000000000000000000, 0.0000000000000000000 ) ) ;
#123 = SURFACE_SIDE_STYLE ('',( #105 ) ) ;
#124 = EDGE_CURVE ( 'NONE', #232, #187, #17, .T. ) ;
#125 = SURFACE_STYLE_FILL_AREA ( #222 ) ;
#126 = CARTESIAN_POINT ( 'NONE',  ( 0.06250000000000002776, 7.654042494670959086E-18, 1.485000000000000764 ) ) ;
#127 = PRESENTATION_LAYER_ASSIGNMENT (  '', '', ( #75 ) ) ;
#128 = MANIFOLD_SOLID_BREP ( 'Cut-Revolve1', #231 ) ;
#129 = AXIS2_PLACEMENT_3D ( 'NONE', #175, #270, #190 ) ;
#130 =( NAMED_UNIT ( * ) PLANE_ANGLE_UNIT ( ) SI_UNIT ( $, .RADIAN. ) );
#131 = EDGE_CURVE ( 'NONE', #9, #4, #245, .T. ) ;
#132 = DIRECTION ( 'NONE',  ( 0.0000000000000000000, 0.0000000000000000000, -1.000000000000000000 ) ) ;
#133 = EDGE_CURVE ( 'NONE', #9, #238, #67, .T. ) ;
#134 = FACE_OUTER_BOUND ( 'NONE', #5, .T. ) ;
#135 = FACE_OUTER_BOUND ( 'NONE', #257, .T. ) ;
#136 = CIRCLE ( 'NONE', #50, 0.04750000000000064587 ) ;
#137 = CARTESIAN_POINT ( 'NONE',  ( -0.02342654999999998350, 2.868924947256542179E-18, 0.1089999999999999997 ) ) ;
#138 = ORIENTED_EDGE ( 'NONE', *, *, #23, .T. ) ;
#139 = FILL_AREA_STYLE_COLOUR ( '', #32 ) ;
#140 = ORIENTED_EDGE ( 'NONE', *, *, #77, .F. ) ;
#141 = ORIENTED_EDGE ( 'NONE', *, *, #256, .T. ) ;
#142 = DIMENSIONAL_EXPONENTS ( 1.000000000000000000, 0.0000000000000000000, 0.0000000000000000000, 0.0000000000000000000, 0.0000000000000000000, 0.0000000000000000000, 0.0000000000000000000 ) ;
#143 = EDGE_LOOP ( 'NONE', ( #283, #279, #141, #282 ) ) ;
#144 = CARTESIAN_POINT ( 'NONE',  ( 1.334865011070615584E-17, 0.0000000000000000000, 0.1089999999999999997 ) ) ;
#145 = VECTOR ( 'NONE', #33, 39.37007874015748143 ) ;
#146 = PRESENTATION_STYLE_ASSIGNMENT (( #243 ) ) ;
#147 = DIMENSIONAL_EXPONENTS ( 1.000000000000000000, 0.0000000000000000000, 0.0000000000000000000, 0.0000000000000000000, 0.0000000000000000000, 0.0000000000000000000, 0.0000000000000000000 ) ;
#148 = DIRECTION ( 'NONE',  ( -0.0000000000000000000, -0.0000000000000000000, -1.000000000000000000 ) ) ;
#149 = DIRECTION ( 'NONE',  ( -1.224646799147353700E-16, -0.0000000000000000000, -1.000000000000000000 ) ) ;
#150 = VECTOR ( 'NONE', #84, 39.37007874015748143 ) ;
#151 =( NAMED_UNIT ( * ) SI_UNIT ( $, .STERADIAN. ) SOLID_ANGLE_UNIT ( ) );
#152 = DIRECTION ( 'NONE',  ( 1.000000000000000000, 0.0000000000000000000, -0.0000000000000000000 ) ) ;
#153 = CARTESIAN_POINT ( 'NONE',  ( -0.06250000000000002776, 0.0000000000000000000, 1.500000000000000222 ) ) ;
#154 = PRODUCT_DEFINITION_FORMATION_WITH_SPECIFIED_SOURCE ( 'ANY', '', #172, .NOT_KNOWN. ) ;
#155 = AXIS2_PLACEMENT_3D ( 'NONE', #219, #203, #177 ) ;
#156 = AXIS2_PLACEMENT_3D ( 'NONE', #22, #158, #114 ) ;
#157 = CARTESIAN_POINT ( 'NONE',  ( 0.06250000000000006939, 7.654042494670963708E-18, 0.3305965466147405274 ) ) ;
#158 = DIRECTION ( 'NONE',  ( -1.224646799147353700E-16, -0.0000000000000000000, -1.000000000000000000 ) ) ;
#159 = CONICAL_SURFACE ( 'NONE', #199, 0.04750000000000064587, 0.7853981633974466137 ) ;
#160 = APPLICATION_PROTOCOL_DEFINITION ( 'draft international standard', 'automotive_design', 1998, #193 ) ;
#161 = ORIENTED_EDGE ( 'NONE', *, *, #260, .T. ) ;
#162 = ORIENTED_EDGE ( 'NONE', *, *, #278, .F. ) ;
#163 = VECTOR ( 'NONE', #275, 39.37007874015748854 ) ;
#164 = CONICAL_SURFACE ( 'NONE', #264, 0.04750000000000064587, 0.7853981633974466137 ) ;
#165 = ORIENTED_EDGE ( 'NONE', *, *, #201, .F. ) ;
#166 = ORIENTED_EDGE ( 'NONE', *, *, #256, .F. ) ;
#167 = EDGE_CURVE ( 'NONE', #96, #187, #249, .T. ) ;
#168 = DIRECTION ( 'NONE',  ( 0.7071067811865462405, 8.659560562354916834E-17, -0.7071067811865486830 ) ) ;
#169 =( CONVERSION_BASED_UNIT ( 'INCH', #289 ) LENGTH_UNIT ( ) NAMED_UNIT ( #142 ) );
#170 = ADVANCED_FACE ( 'NONE', ( #134 ), #47, .F. ) ;
#171 = DIRECTION ( 'NONE',  ( -1.224646799147353700E-16, -0.0000000000000000000, -1.000000000000000000 ) ) ;
#172 = PRODUCT ( 'Micro_GEM-046-2X', 'Micro_GEM-046-2X', '', ( #209 ) ) ;
#173 = CARTESIAN_POINT ( 'NONE',  ( 0.0000000000000000000, 0.0000000000000000000, 1.500000000000000222 ) ) ;
#174 = AXIS2_PLACEMENT_3D ( 'NONE', #181, #202, #229 ) ;
#175 = CARTESIAN_POINT ( 'NONE',  ( 1.334865011070615584E-17, 0.0000000000000000000, 0.1089999999999999997 ) ) ;
#176 = DIRECTION ( 'NONE',  ( 1.000000000000000000, 0.0000000000000000000, 0.0000000000000000000 ) ) ;
#177 = DIRECTION ( 'NONE',  ( -1.000000000000000000, 0.0000000000000000000, 0.0000000000000000000 ) ) ;
#178 = VECTOR ( 'NONE', #273, 39.37007874015748143 ) ;
#179 = CARTESIAN_POINT ( 'NONE',  ( 0.0000000000000000000, 0.0000000000000000000, 1.485000000000000764 ) ) ;
#180 = ADVANCED_FACE ( 'NONE', ( #254 ), #8, .T. ) ;
#181 = CARTESIAN_POINT ( 'NONE',  ( 1.334865011070615584E-17, 0.0000000000000000000, 0.1089999999999999997 ) ) ;
#182 =( CONVERSION_BASED_UNIT ( 'INCH', #59 ) LENGTH_UNIT ( ) NAMED_UNIT ( #61 ) );
#183 = STYLED_ITEM ( 'NONE', ( #109 ), #128 ) ;
#184 = CONICAL_SURFACE ( 'NONE', #129, 0.02342654999999999391, 0.1745329251994338915 ) ;
#185 = CARTESIAN_POINT ( 'NONE',  ( -0.02342654999999998350, 5.261483720963751017E-18, 0.1089999999999999997 ) ) ;
#186 = ORIENTED_EDGE ( 'NONE', *, *, #43, .T. ) ;
#187 = VERTEX_POINT ( 'NONE', #294 ) ;
#188 = PRODUCT_DEFINITION ( 'UNKNOWN', '', #154, #195 ) ;
#189 = ORIENTED_EDGE ( 'NONE', *, *, #133, .T. ) ;
#190 = DIRECTION ( 'NONE',  ( 1.000000000000000000, 0.0000000000000000000, 0.0000000000000000000 ) ) ;
#191 = DIRECTION ( 'NONE',  ( 1.000000000000000000, 0.0000000000000000000, 0.0000000000000000000 ) ) ;
#192 =( LENGTH_UNIT ( ) NAMED_UNIT ( * ) SI_UNIT ( $, .METRE. ) );
#193 = APPLICATION_CONTEXT ( 'automotive_design' ) ;
#194 = CARTESIAN_POINT ( 'NONE',  ( 3.513419753651716505E-34, 0.0000000000000000000, 2.868924947256543719E-18 ) ) ;
#195 = PRODUCT_DEFINITION_CONTEXT ( 'detailed design', #37, 'design' ) ;
#196 = DIRECTION ( 'NONE',  ( 1.000000000000000000, 0.0000000000000000000, 0.0000000000000000000 ) ) ;
#197 = CARTESIAN_POINT ( 'NONE',  ( 0.0000000000000000000, 0.0000000000000000000, 1.500000000000000222 ) ) ;
#198 = CARTESIAN_POINT ( 'NONE',  ( 0.0000000000000000000, 0.0000000000000000000, 1.500000000000000222 ) ) ;
#199 = AXIS2_PLACEMENT_3D ( 'NONE', #197, #13, #284 ) ;
#200 = FACE_OUTER_BOUND ( 'NONE', #258, .T. ) ;
#201 = EDGE_CURVE ( 'NONE', #83, #56, #136, .T. ) ;
#202 = DIRECTION ( 'NONE',  ( 1.224646799147353700E-16, 0.0000000000000000000, 1.000000000000000000 ) ) ;
#203 = DIRECTION ( 'NONE',  ( -1.224646799147353700E-16, -0.0000000000000000000, -1.000000000000000000 ) ) ;
#204 = DIRECTION ( 'NONE',  ( 1.000000000000000000, 0.0000000000000000000, 0.0000000000000000000 ) ) ;
#205 = DIRECTION ( 'NONE',  ( 1.000000000000000000, 0.0000000000000000000, 0.0000000000000000000 ) ) ;
#206 = APPLICATION_PROTOCOL_DEFINITION ( 'draft international standard', 'automotive_design', 1998, #37 ) ;
#207 = ORIENTED_EDGE ( 'NONE', *, *, #43, .F. ) ;
#208 = AXIS2_PLACEMENT_3D ( 'NONE', #194, #267, #89 ) ;
#209 = PRODUCT_CONTEXT ( 'NONE', #193, 'mechanical' ) ;
#210 = CARTESIAN_POINT ( 'NONE',  ( 0.02342655000000000778, 0.0000000000000000000, 0.1089999999999999997 ) ) ;
#211 = ORIENTED_EDGE ( 'NONE', *, *, #48, .T. ) ;
#212 = ORIENTED_EDGE ( 'NONE', *, *, #291, .F. ) ;
#213 = PRODUCT_RELATED_PRODUCT_CATEGORY ( 'part', '', ( #172 ) ) ;
#214 = AXIS2_PLACEMENT_3D ( 'NONE', #255, #91, #70 ) ;
#215 = ORIENTED_EDGE ( 'NONE', *, *, #77, .T. ) ;
#216 = SURFACE_STYLE_USAGE ( .BOTH. , #290 ) ;
#217 = ADVANCED_FACE ( 'NONE', ( #73 ), #42, .T. ) ;
#218 = DIRECTION ( 'NONE',  ( 1.000000000000000000, 0.0000000000000000000, 0.0000000000000000000 ) ) ;
#219 = CARTESIAN_POINT ( 'NONE',  ( 1.334865011070615584E-17, 0.0000000000000000000, 0.1089999999999999997 ) ) ;
#220 = AXIS2_PLACEMENT_3D ( 'NONE', #179, #132, #204 ) ;
#221 = PRODUCT_DEFINITION_SHAPE ( 'NONE', 'NONE',  #188 ) ;
#222 = FILL_AREA_STYLE ('',( #293 ) ) ;
#223 = LINE ( 'NONE', #86, #74 ) ;
#224 = DIRECTION ( 'NONE',  ( -1.000000000000000000, 0.0000000000000000000, 1.224646799147353700E-16 ) ) ;
#225 = PRESENTATION_LAYER_ASSIGNMENT (  '', '', ( #183 ) ) ;
#226 = VECTOR ( 'NONE', #92, 39.37007874015748143 ) ;
#227 = DIRECTION ( 'NONE',  ( -0.1736481776669311916, 2.126576849575783316E-17, 0.9848077530122080203 ) ) ;
#228 = LINE ( 'NONE', #21, #226 ) ;
#229 = DIRECTION ( 'NONE',  ( 1.000000000000000000, 0.0000000000000000000, 0.0000000000000000000 ) ) ;
#230 = CARTESIAN_POINT ( 'NONE',  ( -0.02342655000000000085, 0.0000000000000000000, 2.868924947256543719E-18 ) ) ;
#231 = CLOSED_SHELL ( 'NONE', ( #239, #180, #100, #28, #269, #217, #10, #295, #95, #170 ) ) ;
#232 = VERTEX_POINT ( 'NONE', #157 ) ;
#233 = EDGE_CURVE ( 'NONE', #117, #96, #88, .T. ) ;
#234 = ORIENTED_EDGE ( 'NONE', *, *, #272, .F. ) ;
#235 = AXIS2_PLACEMENT_3D ( 'NONE', #297, #49, #113 ) ;
#236 =( GEOMETRIC_REPRESENTATION_CONTEXT ( 3 ) GLOBAL_UNCERTAINTY_ASSIGNED_CONTEXT ( ( #248 ) ) GLOBAL_UNIT_ASSIGNED_CONTEXT ( ( #182, #266, #27 ) ) REPRESENTATION_CONTEXT ( 'NONE', 'WORKASPACE' ) );
#237 = ORIENTED_EDGE ( 'NONE', *, *, #285, .T. ) ;
#238 = VERTEX_POINT ( 'NONE', #252 ) ;
#239 = ADVANCED_FACE ( 'NONE', ( #200 ), #18, .T. ) ;
#240 = ORIENTED_EDGE ( 'NONE', *, *, #124, .F. ) ;
#241 = CARTESIAN_POINT ( 'NONE',  ( 0.02342655000000000085, 2.868924947256542564E-18, 0.0000000000000000000 ) ) ;
#242 = CARTESIAN_POINT ( 'NONE',  ( 0.04750000000000064587, 6.735557395310483192E-18, 1.500000000000000222 ) ) ;
#243 = SURFACE_STYLE_USAGE ( .BOTH. , #123 ) ;
#244 = CARTESIAN_POINT ( 'NONE',  ( 0.0000000000000000000, 0.0000000000000000000, 1.485000000000000764 ) ) ;
#245 = CIRCLE ( 'NONE', #155, 0.02342654999999999391 ) ;
#246 = MECHANICAL_DESIGN_GEOMETRIC_PRESENTATION_REPRESENTATION (  '', ( #75 ), #299 ) ;
#247 = DIRECTION ( 'NONE',  ( 1.000000000000000000, 0.0000000000000000000, 0.0000000000000000000 ) ) ;
#248 = UNCERTAINTY_MEASURE_WITH_UNIT (LENGTH_MEASURE( 1.000000000000000082E-05 ), #182, 'distance_accuracy_value', 'NONE');
#249 = LINE ( 'NONE', #153, #178 ) ;
#250 =( GEOMETRIC_REPRESENTATION_CONTEXT ( 3 ) GLOBAL_UNCERTAINTY_ASSIGNED_CONTEXT ( ( #253 ) ) GLOBAL_UNIT_ASSIGNED_CONTEXT ( ( #169, #130, #151 ) ) REPRESENTATION_CONTEXT ( 'NONE', 'WORKASPACE' ) );
#251 = CIRCLE ( 'NONE', #97, 0.04750000000000064587 ) ;
#252 = CARTESIAN_POINT ( 'NONE',  ( -0.02342655000000000085, 0.0000000000000000000, 5.737849894513087439E-18 ) ) ;
#253 = UNCERTAINTY_MEASURE_WITH_UNIT (LENGTH_MEASURE( 1.000000000000000082E-05 ), #169, 'distance_accuracy_value', 'NONE');
#254 = FACE_OUTER_BOUND ( 'NONE', #143, .T. ) ;
#255 = CARTESIAN_POINT ( 'NONE',  ( 0.0000000000000000000, 0.0000000000000000000, 1.500000000000000222 ) ) ;
#256 = EDGE_CURVE ( 'NONE', #187, #232, #60, .T. ) ;
#257 = EDGE_LOOP ( 'NONE', ( #234, #52, #262, #240 ) ) ;
#258 = EDGE_LOOP ( 'NONE', ( #116, #55, #207, #280 ) ) ;
#259 = VECTOR ( 'NONE', #227, 39.37007874015747433 ) ;
#260 = EDGE_CURVE ( 'NONE', #80, #238, #19, .T. ) ;
#261 = ORIENTED_EDGE ( 'NONE', *, *, #260, .F. ) ;
#262 = ORIENTED_EDGE ( 'NONE', *, *, #167, .T. ) ;
#263 =( LENGTH_UNIT ( ) NAMED_UNIT ( * ) SI_UNIT ( $, .METRE. ) );
#264 = AXIS2_PLACEMENT_3D ( 'NONE', #173, #41, #16 ) ;
#265 = CARTESIAN_POINT ( 'NONE',  ( 0.02342655000000000085, 2.868924947256542564E-18, -2.868924947256543719E-18 ) ) ;
#266 =( NAMED_UNIT ( * ) PLANE_ANGLE_UNIT ( ) SI_UNIT ( $, .RADIAN. ) );
#267 = DIRECTION ( 'NONE',  ( -1.224646799147353700E-16, -0.0000000000000000000, -1.000000000000000000 ) ) ;
#268 = CARTESIAN_POINT ( 'NONE',  ( 4.048640026209108604E-17, 0.0000000000000000000, 0.3305965466147405274 ) ) ;
#269 = ADVANCED_FACE ( 'NONE', ( #135 ), #72, .T. ) ;
#270 = DIRECTION ( 'NONE',  ( 1.224646799147353700E-16, 0.0000000000000000000, 1.000000000000000000 ) ) ;
#271 = LINE ( 'NONE', #137, #259 ) ;
#272 = EDGE_CURVE ( 'NONE', #117, #232, #228, .T. ) ;
#273 = DIRECTION ( 'NONE',  ( -0.0000000000000000000, -0.0000000000000000000, -1.000000000000000000 ) ) ;
#274 = AXIS2_PLACEMENT_3D ( 'NONE', #268, #171, #196 ) ;
#275 = DIRECTION ( 'NONE',  ( -0.7071067811865462405, 0.0000000000000000000, -0.7071067811865486830 ) ) ;
#276 = CARTESIAN_POINT ( 'NONE',  ( 0.0000000000000000000, 0.0000000000000000000, 0.0000000000000000000 ) ) ;
#277 = CARTESIAN_POINT ( 'NONE',  ( 0.0000000000000000000, 0.0000000000000000000, 0.0000000000000000000 ) ) ;
#278 = EDGE_CURVE ( 'NONE', #9, #187, #271, .T. ) ;
#279 = ORIENTED_EDGE ( 'NONE', *, *, #278, .T. ) ;
#280 = ORIENTED_EDGE ( 'NONE', *, *, #133, .F. ) ;
#281 = EDGE_LOOP ( 'NONE', ( #98, #165, #237, #51 ) ) ;
#282 = ORIENTED_EDGE ( 'NONE', *, *, #48, .F. ) ;
#283 = ORIENTED_EDGE ( 'NONE', *, *, #131, .F. ) ;
#284 = DIRECTION ( 'NONE',  ( -1.000000000000000000, 0.0000000000000000000, 0.0000000000000000000 ) ) ;
#285 = EDGE_CURVE ( 'NONE', #83, #96, #69, .T. ) ;
#286 = ADVANCED_BREP_SHAPE_REPRESENTATION ( 'Micro_GEM-046-2X', ( #128, #118 ), #236 ) ;
#287 = AXIS2_PLACEMENT_3D ( 'NONE', #1, #45, #224 ) ;
#288 = CIRCLE ( 'NONE', #58, 0.06250000000000002776 ) ;
#289 = LENGTH_MEASURE_WITH_UNIT ( LENGTH_MEASURE( 0.02539999999999999897 ), #263 );
#290 = SURFACE_SIDE_STYLE ('',( #125 ) ) ;
#291 = EDGE_CURVE ( 'NONE', #56, #83, #251, .T. ) ;
#292 = CYLINDRICAL_SURFACE ( 'NONE', #65, 0.06250000000000002776 ) ;
#293 = FILL_AREA_STYLE_COLOUR ( '', #39 ) ;
#294 = CARTESIAN_POINT ( 'NONE',  ( -0.06249999999999997918, 0.0000000000000000000, 0.3305965466147405274 ) ) ;
#295 = ADVANCED_FACE ( 'NONE', ( #2 ), #184, .T. ) ;
#296 = CARTESIAN_POINT ( 'NONE',  ( 0.0000000000000000000, 0.0000000000000000000, 1.500000000000000222 ) ) ;
#297 = CARTESIAN_POINT ( 'NONE',  ( 0.0000000000000000000, 0.0000000000000000000, 1.500000000000000222 ) ) ;
#298 = AXIS2_PLACEMENT_3D ( 'NONE', #108, #149, #85 ) ;
#299 =( GEOMETRIC_REPRESENTATION_CONTEXT ( 3 ) GLOBAL_UNCERTAINTY_ASSIGNED_CONTEXT ( ( #87 ) ) GLOBAL_UNIT_ASSIGNED_CONTEXT ( ( #78, #3, #36 ) ) REPRESENTATION_CONTEXT ( 'NONE', 'WORKASPACE' ) );
ENDSEC;
END-ISO-10303-21;
