ISO-10303-21;
HEADER;
FILE_DESCRIPTION (( 'STEP AP214' ),
    '1' );
FILE_NAME ('59903.STEP',
    '2023-06-22T23:48:22',
    ( '' ),
    ( '' ),
    'SwSTEP 2.0',
    'SolidWorks 2023',
    '' );
FILE_SCHEMA (( 'AUTOMOTIVE_DESIGN' ));
ENDSEC;

DATA;
#1 = DIRECTION ( 'NONE',  ( -3.061616997868383018E-17, 1.000000000000000000, -0.000000000000000000 ) ) ;
#2 = FILL_AREA_STYLE_COLOUR ( '', #177 ) ;
#3 = EDGE_CURVE ( 'NONE', #202, #290, #183, .T. ) ;
#4 = DIRECTION ( 'NONE',  ( -0.000000000000000000, -1.000000000000000000, -0.000000000000000000 ) ) ;
#5 = MECHANICAL_DESIGN_GEOMETRIC_PRESENTATION_REPRESENTATION (  '', ( #50 ), #153 ) ;
#6 =( CONVERSION_BASED_UNIT ( 'INCH', #268 ) LENGTH_UNIT ( ) NAMED_UNIT ( #17 ) );
#7 = ORIENTED_EDGE ( 'NONE', *, *, #125, .F. ) ;
#8 =( NAMED_UNIT ( * ) SI_UNIT ( $, .STERADIAN. ) SOLID_ANGLE_UNIT ( ) );
#9 =( LENGTH_UNIT ( ) NAMED_UNIT ( * ) SI_UNIT ( $, .METRE. ) );
#10 = EDGE_CURVE ( 'NONE', #294, #202, #120, .T. ) ;
#11 = DIRECTION ( 'NONE',  ( -0.000000000000000000, -1.000000000000000000, -0.000000000000000000 ) ) ;
#12 =( NAMED_UNIT ( * ) SI_UNIT ( $, .STERADIAN. ) SOLID_ANGLE_UNIT ( ) );
#13 = AXIS2_PLACEMENT_3D ( 'NONE', #74, #1, #175 ) ;
#14 = ORIENTED_EDGE ( 'NONE', *, *, #65, .T. ) ;
#15 = CARTESIAN_POINT ( 'NONE',  ( 0.000000000000000000, 0.000000000000000000, 0.000000000000000000 ) ) ;
#16 =( NAMED_UNIT ( * ) SI_UNIT ( $, .STERADIAN. ) SOLID_ANGLE_UNIT ( ) );
#17 = DIMENSIONAL_EXPONENTS ( 1.000000000000000000, 0.000000000000000000, 0.000000000000000000, 0.000000000000000000, 0.000000000000000000, 0.000000000000000000, 0.000000000000000000 ) ;
#18 = COLOUR_RGB ( '',1.000000000000000000, 0.000000000000000000, 0.000000000000000000 ) ;
#19 = DIRECTION ( 'NONE',  ( 0.000000000000000000, 0.000000000000000000, -1.000000000000000000 ) ) ;
#20 =( NAMED_UNIT ( * ) SI_UNIT ( $, .STERADIAN. ) SOLID_ANGLE_UNIT ( ) );
#21 = PRESENTATION_STYLE_ASSIGNMENT (( #139 ) ) ;
#22 = CARTESIAN_POINT ( 'NONE',  ( 0.000000000000000000, 0.000000000000000000, 0.000000000000000000 ) ) ;
#23 = PRESENTATION_STYLE_ASSIGNMENT (( #237 ) ) ;
#24 = CYLINDRICAL_SURFACE ( 'NONE', #60, 0.1250000000000000000 ) ;
#25 = VECTOR ( 'NONE', #245, 39.37007874015748143 ) ;
#26 = SURFACE_SIDE_STYLE ('',( #282 ) ) ;
#27 = SURFACE_STYLE_FILL_AREA ( #284 ) ;
#28 = PRODUCT ( '59903', '59903', '', ( #262 ) ) ;
#29 = CARTESIAN_POINT ( 'NONE',  ( 0.000000000000000000, 0.5000000000000001110, 0.000000000000000000 ) ) ;
#30 = SURFACE_STYLE_USAGE ( .BOTH. , #215 ) ;
#31 = CIRCLE ( 'NONE', #114, 0.1250000000000000555 ) ;
#32 = EDGE_LOOP ( 'NONE', ( #59, #38, #14, #248 ) ) ;
#33 = DIRECTION ( 'NONE',  ( 0.000000000000000000, 0.000000000000000000, -1.000000000000000000 ) ) ;
#34 = CIRCLE ( 'NONE', #308, 0.1250000000000000555 ) ;
#35 = ORIENTED_EDGE ( 'NONE', *, *, #172, .F. ) ;
#36 = PRESENTATION_STYLE_ASSIGNMENT (( #124 ) ) ;
#37 = CARTESIAN_POINT ( 'NONE',  ( -6.123233995736766036E-17, 2.500000000000000000, 0.000000000000000000 ) ) ;
#38 = ORIENTED_EDGE ( 'NONE', *, *, #274, .T. ) ;
#39 = ADVANCED_FACE ( 'NONE', ( #249 ), #205, .T. ) ;
#40 = SURFACE_SIDE_STYLE ('',( #191 ) ) ;
#41 = UNCERTAINTY_MEASURE_WITH_UNIT (LENGTH_MEASURE( 1.000000000000000082E-05 ), #152, 'distance_accuracy_value', 'NONE');
#42 =( CONVERSION_BASED_UNIT ( 'INCH', #212 ) LENGTH_UNIT ( ) NAMED_UNIT ( #224 ) );
#43 =( NAMED_UNIT ( * ) SI_UNIT ( $, .STERADIAN. ) SOLID_ANGLE_UNIT ( ) );
#44 = DIRECTION ( 'NONE',  ( -0.000000000000000000, -1.000000000000000000, -0.000000000000000000 ) ) ;
#45 = DIMENSIONAL_EXPONENTS ( 1.000000000000000000, 0.000000000000000000, 0.000000000000000000, 0.000000000000000000, 0.000000000000000000, 0.000000000000000000, 0.000000000000000000 ) ;
#46 = MECHANICAL_DESIGN_GEOMETRIC_PRESENTATION_REPRESENTATION (  '', ( #150 ), #277 ) ;
#47 = CIRCLE ( 'NONE', #219, 0.1250000000000000000 ) ;
#48 = CARTESIAN_POINT ( 'NONE',  ( -6.123233995736766036E-17, 2.500000000000000000, 0.000000000000000000 ) ) ;
#49 = FILL_AREA_STYLE ('',( #169 ) ) ;
#50 = STYLED_ITEM ( 'NONE', ( #76 ), #113 ) ;
#51 = FACE_OUTER_BOUND ( 'NONE', #55, .T. ) ;
#52 = FACE_OUTER_BOUND ( 'NONE', #223, .T. ) ;
#53 = DIRECTION ( 'NONE',  ( 0.000000000000000000, -0.000000000000000000, 1.000000000000000000 ) ) ;
#54 = VECTOR ( 'NONE', #4, 39.37007874015748143 ) ;
#55 = EDGE_LOOP ( 'NONE', ( #299, #81, #266, #84 ) ) ;
#56 = LENGTH_MEASURE_WITH_UNIT ( LENGTH_MEASURE( 0.02539999999999999897 ), #231 );
#57 = ORIENTED_EDGE ( 'NONE', *, *, #172, .T. ) ;
#58 = EDGE_CURVE ( 'NONE', #64, #290, #184, .T. ) ;
#59 = ORIENTED_EDGE ( 'NONE', *, *, #3, .F. ) ;
#60 = AXIS2_PLACEMENT_3D ( 'NONE', #15, #44, #305 ) ;
#61 = CIRCLE ( 'NONE', #129, 0.1250000000000000000 ) ;
#62 =( NAMED_UNIT ( * ) SI_UNIT ( $, .STERADIAN. ) SOLID_ANGLE_UNIT ( ) );
#63 = CARTESIAN_POINT ( 'NONE',  ( 0.000000000000000000, 0.5000000000000000000, 0.000000000000000000 ) ) ;
#64 = VERTEX_POINT ( 'NONE', #110 ) ;
#65 = EDGE_CURVE ( 'NONE', #294, #64, #220, .T. ) ;
#66 = LENGTH_MEASURE_WITH_UNIT ( LENGTH_MEASURE( 0.02539999999999999897 ), #9 );
#67 = AXIS2_PLACEMENT_3D ( 'NONE', #63, #157, #160 ) ;
#68 = AXIS2_PLACEMENT_3D ( 'NONE', #102, #287, #53 ) ;
#69 = DIRECTION ( 'NONE',  ( 0.000000000000000000, -1.000000000000000000, -0.000000000000000000 ) ) ;
#70 =( CONVERSION_BASED_UNIT ( 'INCH', #117 ) LENGTH_UNIT ( ) NAMED_UNIT ( #168 ) );
#71 = FILL_AREA_STYLE ('',( #171 ) ) ;
#72 = AXIS2_PLACEMENT_3D ( 'NONE', #140, #96, #213 ) ;
#73 = DIRECTION ( 'NONE',  ( -0.000000000000000000, -1.000000000000000000, -0.000000000000000000 ) ) ;
#74 = CARTESIAN_POINT ( 'NONE',  ( 0.000000000000000000, 0.5000000000000001110, 0.000000000000000000 ) ) ;
#75 = FILL_AREA_STYLE_COLOUR ( '', #298 ) ;
#76 = PRESENTATION_STYLE_ASSIGNMENT (( #148 ) ) ;
#77 = AXIS2_PLACEMENT_3D ( 'NONE', #29, #173, #105 ) ;
#78 = ADVANCED_BREP_SHAPE_REPRESENTATION ( '59903', ( #226, #130, #178 ), #112 ) ;
#79 = ADVANCED_FACE ( 'NONE', ( #201 ), #187, .F. ) ;
#80 =( NAMED_UNIT ( * ) PLANE_ANGLE_UNIT ( ) SI_UNIT ( $, .RADIAN. ) );
#81 = ORIENTED_EDGE ( 'NONE', *, *, #259, .T. ) ;
#82 = STYLED_ITEM ( 'NONE', ( #170 ), #203 ) ;
#83 = DIRECTION ( 'NONE',  ( -3.061616997868383018E-17, 1.000000000000000000, -0.000000000000000000 ) ) ;
#84 = ORIENTED_EDGE ( 'NONE', *, *, #195, .F. ) ;
#85 = ORIENTED_EDGE ( 'NONE', *, *, #274, .F. ) ;
#86 = APPLICATION_CONTEXT ( 'automotive_design' ) ;
#87 = STYLED_ITEM ( 'NONE', ( #23 ), #226 ) ;
#88 = EDGE_LOOP ( 'NONE', ( #221, #35 ) ) ;
#89 = FACE_OUTER_BOUND ( 'NONE', #32, .T. ) ;
#90 =( NAMED_UNIT ( * ) PLANE_ANGLE_UNIT ( ) SI_UNIT ( $, .RADIAN. ) );
#91 = COLOUR_RGB ( '',1.000000000000000000, 0.000000000000000000, 0.000000000000000000 ) ;
#92 = PRESENTATION_LAYER_ASSIGNMENT (  '', '', ( #87 ) ) ;
#93 = SURFACE_STYLE_USAGE ( .BOTH. , #26 ) ;
#94 = CARTESIAN_POINT ( 'NONE',  ( 0.000000000000000000, 0.000000000000000000, 0.000000000000000000 ) ) ;
#95 = LENGTH_MEASURE_WITH_UNIT ( LENGTH_MEASURE( 0.02539999999999999897 ), #208 );
#96 = DIRECTION ( 'NONE',  ( -3.061616997868383018E-17, 1.000000000000000000, 0.000000000000000000 ) ) ;
#97 = STYLED_ITEM ( 'NONE', ( #229 ), #182 ) ;
#98 = LINE ( 'NONE', #300, #159 ) ;
#99 = CARTESIAN_POINT ( 'NONE',  ( 0.000000000000000000, 0.5000000000000000000, -0.1250000000000000000 ) ) ;
#100 = PRESENTATION_LAYER_ASSIGNMENT (  '', '', ( #150 ) ) ;
#101 = MECHANICAL_DESIGN_GEOMETRIC_PRESENTATION_REPRESENTATION (  '', ( #247 ), #244 ) ;
#102 = CARTESIAN_POINT ( 'NONE',  ( 0.000000000000000000, 0.5000000000000000000, 0.000000000000000000 ) ) ;
#103 = APPLICATION_CONTEXT ( 'automotive_design' ) ;
#104 = EDGE_CURVE ( 'NONE', #138, #267, #31, .T. ) ;
#105 = DIRECTION ( 'NONE',  ( -1.000000000000000000, 0.000000000000000000, 0.000000000000000000 ) ) ;
#106 =( NAMED_UNIT ( * ) PLANE_ANGLE_UNIT ( ) SI_UNIT ( $, .RADIAN. ) );
#107 = UNCERTAINTY_MEASURE_WITH_UNIT (LENGTH_MEASURE( 1.000000000000000082E-05 ), #42, 'distance_accuracy_value', 'NONE');
#108 = CARTESIAN_POINT ( 'NONE',  ( 0.000000000000000000, 0.000000000000000000, -0.1250000000000000000 ) ) ;
#109 = ORIENTED_EDGE ( 'NONE', *, *, #278, .T. ) ;
#110 = CARTESIAN_POINT ( 'NONE',  ( 0.000000000000000000, 0.000000000000000000, -0.1250000000000000000 ) ) ;
#111 = COLOUR_RGB ( '',0.7921568627450980005, 0.8196078431372548767, 0.9333333333333333481 ) ;
#112 =( GEOMETRIC_REPRESENTATION_CONTEXT ( 3 ) GLOBAL_UNCERTAINTY_ASSIGNED_CONTEXT ( ( #156 ) ) GLOBAL_UNIT_ASSIGNED_CONTEXT ( ( #70, #276, #43 ) ) REPRESENTATION_CONTEXT ( 'NONE', 'WORKASPACE' ) );
#113 = ADVANCED_FACE ( 'NONE', ( #89 ), #24, .T. ) ;
#114 = AXIS2_PLACEMENT_3D ( 'NONE', #48, #303, #254 ) ;
#115 = DIRECTION ( 'NONE',  ( -1.000000000000000000, 0.000000000000000000, 0.000000000000000000 ) ) ;
#116 = CLOSED_SHELL ( 'NONE', ( #155, #79, #39, #243 ) ) ;
#117 = LENGTH_MEASURE_WITH_UNIT ( LENGTH_MEASURE( 0.02539999999999999897 ), #296 );
#118 = FILL_AREA_STYLE ('',( #141 ) ) ;
#119 = APPLICATION_PROTOCOL_DEFINITION ( 'draft international standard', 'automotive_design', 1998, #86 ) ;
#120 = CIRCLE ( 'NONE', #67, 0.1250000000000000000 ) ;
#121 = COLOUR_RGB ( '',1.000000000000000000, 0.000000000000000000, 0.000000000000000000 ) ;
#122 = DIRECTION ( 'NONE',  ( -3.061616997868383018E-17, 1.000000000000000000, -0.000000000000000000 ) ) ;
#123 = FILL_AREA_STYLE_COLOUR ( '', #91 ) ;
#124 = SURFACE_STYLE_USAGE ( .BOTH. , #161 ) ;
#125 = EDGE_CURVE ( 'NONE', #267, #138, #34, .T. ) ;
#126 = PRODUCT_RELATED_PRODUCT_CATEGORY ( 'part', '', ( #28 ) ) ;
#127 = SURFACE_SIDE_STYLE ('',( #27 ) ) ;
#128 = MECHANICAL_DESIGN_GEOMETRIC_PRESENTATION_REPRESENTATION (  '', ( #97 ), #206 ) ;
#129 = AXIS2_PLACEMENT_3D ( 'NONE', #143, #281, #19 ) ;
#130 = MANIFOLD_SOLID_BREP ( 'Revolve - Tool Body (Straight Shanked)', #116 ) ;
#131 = ORIENTED_EDGE ( 'NONE', *, *, #195, .T. ) ;
#132 = VERTEX_POINT ( 'NONE', #193 ) ;
#133 = AXIS2_PLACEMENT_3D ( 'NONE', #309, #122, #260 ) ;
#134 = EDGE_LOOP ( 'NONE', ( #204, #227 ) ) ;
#135 = SURFACE_STYLE_FILL_AREA ( #49 ) ;
#136 = UNCERTAINTY_MEASURE_WITH_UNIT (LENGTH_MEASURE( 1.000000000000000082E-05 ), #6, 'distance_accuracy_value', 'NONE');
#137 = CARTESIAN_POINT ( 'NONE',  ( 0.000000000000000000, 0.000000000000000000, 0.000000000000000000 ) ) ;
#138 = VERTEX_POINT ( 'NONE', #147 ) ;
#139 = SURFACE_STYLE_USAGE ( .BOTH. , #40 ) ;
#140 = CARTESIAN_POINT ( 'NONE',  ( 5.858436651022881281E-35, 0.5000000000000000000, 0.000000000000000000 ) ) ;
#141 = FILL_AREA_STYLE_COLOUR ( '', #18 ) ;
#142 = UNCERTAINTY_MEASURE_WITH_UNIT (LENGTH_MEASURE( 1.000000000000000082E-05 ), #232, 'distance_accuracy_value', 'NONE');
#143 = CARTESIAN_POINT ( 'NONE',  ( 0.000000000000000000, 0.5000000000000000000, 0.000000000000000000 ) ) ;
#144 =( GEOMETRIC_REPRESENTATION_CONTEXT ( 3 ) GLOBAL_UNCERTAINTY_ASSIGNED_CONTEXT ( ( #142 ) ) GLOBAL_UNIT_ASSIGNED_CONTEXT ( ( #232, #253, #20 ) ) REPRESENTATION_CONTEXT ( 'NONE', 'WORKASPACE' ) );
#145 = FILL_AREA_STYLE ('',( #75 ) ) ;
#146 = FILL_AREA_STYLE ('',( #2 ) ) ;
#147 = CARTESIAN_POINT ( 'NONE',  ( -0.1250000000000001388, 2.500000000000000000, 0.000000000000000000 ) ) ;
#148 = SURFACE_STYLE_USAGE ( .BOTH. , #127 ) ;
#149 = DIRECTION ( 'NONE',  ( 0.000000000000000000, 0.000000000000000000, -1.000000000000000000 ) ) ;
#150 = STYLED_ITEM ( 'NONE', ( #21 ), #130 ) ;
#151 =( LENGTH_UNIT ( ) NAMED_UNIT ( * ) SI_UNIT ( $, .METRE. ) );
#152 =( CONVERSION_BASED_UNIT ( 'INCH', #56 ) LENGTH_UNIT ( ) NAMED_UNIT ( #45 ) );
#153 =( GEOMETRIC_REPRESENTATION_CONTEXT ( 3 ) GLOBAL_UNCERTAINTY_ASSIGNED_CONTEXT ( ( #136 ) ) GLOBAL_UNIT_ASSIGNED_CONTEXT ( ( #6, #222, #62 ) ) REPRESENTATION_CONTEXT ( 'NONE', 'WORKASPACE' ) );
#154 =( GEOMETRIC_REPRESENTATION_CONTEXT ( 3 ) GLOBAL_UNCERTAINTY_ASSIGNED_CONTEXT ( ( #189 ) ) GLOBAL_UNIT_ASSIGNED_CONTEXT ( ( #264, #106, #174 ) ) REPRESENTATION_CONTEXT ( 'NONE', 'WORKASPACE' ) );
#155 = ADVANCED_FACE ( 'NONE', ( #51 ), #211, .T. ) ;
#156 = UNCERTAINTY_MEASURE_WITH_UNIT (LENGTH_MEASURE( 1.000000000000000082E-05 ), #70, 'distance_accuracy_value', 'NONE');
#157 = DIRECTION ( 'NONE',  ( -0.000000000000000000, -1.000000000000000000, -0.000000000000000000 ) ) ;
#158 = ORIENTED_EDGE ( 'NONE', *, *, #3, .T. ) ;
#159 = VECTOR ( 'NONE', #190, 39.37007874015748143 ) ;
#160 = DIRECTION ( 'NONE',  ( 0.000000000000000000, 0.000000000000000000, -1.000000000000000000 ) ) ;
#161 = SURFACE_SIDE_STYLE ('',( #135 ) ) ;
#162 = EDGE_LOOP ( 'NONE', ( #181, #85 ) ) ;
#163 =( NAMED_UNIT ( * ) PLANE_ANGLE_UNIT ( ) SI_UNIT ( $, .RADIAN. ) );
#164 = CLOSED_SHELL ( 'NONE', ( #203, #238, #113, #182 ) ) ;
#165 = PRODUCT_DEFINITION_FORMATION_WITH_SPECIFIED_SOURCE ( 'ANY', '', #28, .NOT_KNOWN. ) ;
#166 =( LENGTH_UNIT ( ) NAMED_UNIT ( * ) SI_UNIT ( $, .METRE. ) );
#167 = DIRECTION ( 'NONE',  ( 0.000000000000000000, 0.000000000000000000, -1.000000000000000000 ) ) ;
#168 = DIMENSIONAL_EXPONENTS ( 1.000000000000000000, 0.000000000000000000, 0.000000000000000000, 0.000000000000000000, 0.000000000000000000, 0.000000000000000000, 0.000000000000000000 ) ;
#169 = FILL_AREA_STYLE_COLOUR ( '', #121 ) ;
#170 = PRESENTATION_STYLE_ASSIGNMENT (( #93 ) ) ;
#171 = FILL_AREA_STYLE_COLOUR ( '', #111 ) ;
#172 = EDGE_CURVE ( 'NONE', #132, #200, #257, .T. ) ;
#173 = DIRECTION ( 'NONE',  ( -3.061616997868383018E-17, 1.000000000000000000, -0.000000000000000000 ) ) ;
#174 =( NAMED_UNIT ( * ) SI_UNIT ( $, .STERADIAN. ) SOLID_ANGLE_UNIT ( ) );
#175 = DIRECTION ( 'NONE',  ( -1.000000000000000000, 0.000000000000000000, 0.000000000000000000 ) ) ;
#176 = APPLICATION_PROTOCOL_DEFINITION ( 'draft international standard', 'automotive_design', 1998, #103 ) ;
#177 = COLOUR_RGB ( '',1.000000000000000000, 0.000000000000000000, 0.000000000000000000 ) ;
#178 = AXIS2_PLACEMENT_3D ( 'NONE', #94, #234, #252 ) ;
#179 = ORIENTED_EDGE ( 'NONE', *, *, #259, .F. ) ;
#180 = ORIENTED_EDGE ( 'NONE', *, *, #58, .F. ) ;
#181 = ORIENTED_EDGE ( 'NONE', *, *, #10, .F. ) ;
#182 = ADVANCED_FACE ( 'NONE', ( #52 ), #198, .T. ) ;
#183 = LINE ( 'NONE', #272, #25 ) ;
#184 = CIRCLE ( 'NONE', #240, 0.1250000000000000000 ) ;
#185 = AXIS2_PLACEMENT_3D ( 'NONE', #258, #214, #167 ) ;
#186 = ORIENTED_EDGE ( 'NONE', *, *, #10, .T. ) ;
#187 = PLANE ( 'NONE',  #72 ) ;
#188 = PRESENTATION_LAYER_ASSIGNMENT (  '', '', ( #50 ) ) ;
#189 = UNCERTAINTY_MEASURE_WITH_UNIT (LENGTH_MEASURE( 1.000000000000000082E-05 ), #264, 'distance_accuracy_value', 'NONE');
#190 = DIRECTION ( 'NONE',  ( -3.061616997868383018E-17, 1.000000000000000000, -0.000000000000000000 ) ) ;
#191 = SURFACE_STYLE_FILL_AREA ( #71 ) ;
#192 = SURFACE_SIDE_STYLE ('',( #194 ) ) ;
#193 = CARTESIAN_POINT ( 'NONE',  ( 0.1250000000000000278, 0.5000000000000001110, 1.530808498934192125E-17 ) ) ;
#194 = SURFACE_STYLE_FILL_AREA ( #145 ) ;
#195 = EDGE_CURVE ( 'NONE', #200, #138, #210, .T. ) ;
#196 = SHAPE_DEFINITION_REPRESENTATION ( #263, #78 ) ;
#197 = VECTOR ( 'NONE', #239, 39.37007874015748143 ) ;
#198 = PLANE ( 'NONE',  #297 ) ;
#199 = UNCERTAINTY_MEASURE_WITH_UNIT (LENGTH_MEASURE( 1.000000000000000082E-05 ), #295, 'distance_accuracy_value', 'NONE');
#200 = VERTEX_POINT ( 'NONE', #283 ) ;
#201 = FACE_OUTER_BOUND ( 'NONE', #88, .T. ) ;
#202 = VERTEX_POINT ( 'NONE', #306 ) ;
#203 = ADVANCED_FACE ( 'NONE', ( #301 ), #256, .T. ) ;
#204 = ORIENTED_EDGE ( 'NONE', *, *, #104, .T. ) ;
#205 = CYLINDRICAL_SURFACE ( 'NONE', #218, 0.1250000000000000278 ) ;
#206 =( GEOMETRIC_REPRESENTATION_CONTEXT ( 3 ) GLOBAL_UNCERTAINTY_ASSIGNED_CONTEXT ( ( #199 ) ) GLOBAL_UNIT_ASSIGNED_CONTEXT ( ( #295, #163, #12 ) ) REPRESENTATION_CONTEXT ( 'NONE', 'WORKASPACE' ) );
#207 = CARTESIAN_POINT ( 'NONE',  ( -6.123233995736766036E-17, 2.500000000000000000, 0.000000000000000000 ) ) ;
#208 =( LENGTH_UNIT ( ) NAMED_UNIT ( * ) SI_UNIT ( $, .METRE. ) );
#209 = CARTESIAN_POINT ( 'NONE',  ( 0.1250000000000000000, 2.500000000000000000, 0.000000000000000000 ) ) ;
#210 = LINE ( 'NONE', #279, #197 ) ;
#211 = CYLINDRICAL_SURFACE ( 'NONE', #133, 0.1250000000000000278 ) ;
#212 = LENGTH_MEASURE_WITH_UNIT ( LENGTH_MEASURE( 0.02539999999999999897 ), #166 );
#213 = DIRECTION ( 'NONE',  ( -1.000000000000000000, -3.061616997868383018E-17, 0.000000000000000000 ) ) ;
#214 = DIRECTION ( 'NONE',  ( -0.000000000000000000, -1.000000000000000000, -0.000000000000000000 ) ) ;
#215 = SURFACE_SIDE_STYLE ('',( #242 ) ) ;
#216 = DIRECTION ( 'NONE',  ( 0.000000000000000000, 0.000000000000000000, -1.000000000000000000 ) ) ;
#217 = PLANE ( 'NONE',  #68 ) ;
#218 = AXIS2_PLACEMENT_3D ( 'NONE', #37, #83, #225 ) ;
#219 = AXIS2_PLACEMENT_3D ( 'NONE', #22, #73, #216 ) ;
#220 = LINE ( 'NONE', #108, #54 ) ;
#221 = ORIENTED_EDGE ( 'NONE', *, *, #286, .F. ) ;
#222 =( NAMED_UNIT ( * ) PLANE_ANGLE_UNIT ( ) SI_UNIT ( $, .RADIAN. ) );
#223 = EDGE_LOOP ( 'NONE', ( #250, #109 ) ) ;
#224 = DIMENSIONAL_EXPONENTS ( 1.000000000000000000, 0.000000000000000000, 0.000000000000000000, 0.000000000000000000, 0.000000000000000000, 0.000000000000000000, 0.000000000000000000 ) ;
#225 = DIRECTION ( 'NONE',  ( -1.000000000000000000, 0.000000000000000000, 0.000000000000000000 ) ) ;
#226 = MANIFOLD_SOLID_BREP ( 'Revolve - Cutting Edge', #164 ) ;
#227 = ORIENTED_EDGE ( 'NONE', *, *, #125, .T. ) ;
#228 = AXIS2_PLACEMENT_3D ( 'NONE', #209, #307, #304 ) ;
#229 = PRESENTATION_STYLE_ASSIGNMENT (( #30 ) ) ;
#230 = PLANE ( 'NONE',  #228 ) ;
#231 =( LENGTH_UNIT ( ) NAMED_UNIT ( * ) SI_UNIT ( $, .METRE. ) );
#232 =( CONVERSION_BASED_UNIT ( 'INCH', #95 ) LENGTH_UNIT ( ) NAMED_UNIT ( #292 ) );
#233 = PRESENTATION_LAYER_ASSIGNMENT (  '', '', ( #82 ) ) ;
#234 = DIRECTION ( 'NONE',  ( 0.000000000000000000, 0.000000000000000000, 1.000000000000000000 ) ) ;
#235 = CARTESIAN_POINT ( 'NONE',  ( 1.530808498934191509E-17, 0.000000000000000000, 0.1250000000000000000 ) ) ;
#236 = FACE_OUTER_BOUND ( 'NONE', #134, .T. ) ;
#237 = SURFACE_STYLE_USAGE ( .BOTH. , #192 ) ;
#238 = ADVANCED_FACE ( 'NONE', ( #246 ), #217, .T. ) ;
#239 = DIRECTION ( 'NONE',  ( -3.061616997868383018E-17, 1.000000000000000000, -0.000000000000000000 ) ) ;
#240 = AXIS2_PLACEMENT_3D ( 'NONE', #137, #11, #33 ) ;
#241 = CIRCLE ( 'NONE', #13, 0.1250000000000000000 ) ;
#242 = SURFACE_STYLE_FILL_AREA ( #146 ) ;
#243 = ADVANCED_FACE ( 'NONE', ( #236 ), #230, .F. ) ;
#244 =( GEOMETRIC_REPRESENTATION_CONTEXT ( 3 ) GLOBAL_UNCERTAINTY_ASSIGNED_CONTEXT ( ( #41 ) ) GLOBAL_UNIT_ASSIGNED_CONTEXT ( ( #152, #80, #8 ) ) REPRESENTATION_CONTEXT ( 'NONE', 'WORKASPACE' ) );
#245 = DIRECTION ( 'NONE',  ( -0.000000000000000000, -1.000000000000000000, -0.000000000000000000 ) ) ;
#246 = FACE_OUTER_BOUND ( 'NONE', #162, .T. ) ;
#247 = STYLED_ITEM ( 'NONE', ( #36 ), #238 ) ;
#248 = ORIENTED_EDGE ( 'NONE', *, *, #278, .F. ) ;
#249 = FACE_OUTER_BOUND ( 'NONE', #269, .T. ) ;
#250 = ORIENTED_EDGE ( 'NONE', *, *, #58, .T. ) ;
#251 = DIRECTION ( 'NONE',  ( -3.061616997868383018E-17, 1.000000000000000000, -0.000000000000000000 ) ) ;
#252 = DIRECTION ( 'NONE',  ( 1.000000000000000000, 0.000000000000000000, 0.000000000000000000 ) ) ;
#253 =( NAMED_UNIT ( * ) PLANE_ANGLE_UNIT ( ) SI_UNIT ( $, .RADIAN. ) );
#254 = DIRECTION ( 'NONE',  ( -1.000000000000000000, 0.000000000000000000, 0.000000000000000000 ) ) ;
#255 = CARTESIAN_POINT ( 'NONE',  ( 0.1250000000000000278, 2.500000000000000000, 1.530808498934192125E-17 ) ) ;
#256 = CYLINDRICAL_SURFACE ( 'NONE', #185, 0.1250000000000000000 ) ;
#257 = CIRCLE ( 'NONE', #77, 0.1250000000000000000 ) ;
#258 = CARTESIAN_POINT ( 'NONE',  ( 0.000000000000000000, 0.000000000000000000, 0.000000000000000000 ) ) ;
#259 = EDGE_CURVE ( 'NONE', #132, #267, #98, .T. ) ;
#260 = DIRECTION ( 'NONE',  ( -1.000000000000000000, 0.000000000000000000, 0.000000000000000000 ) ) ;
#261 =( LENGTH_UNIT ( ) NAMED_UNIT ( * ) SI_UNIT ( $, .METRE. ) );
#262 = PRODUCT_CONTEXT ( 'NONE', #86, 'mechanical' ) ;
#263 = PRODUCT_DEFINITION_SHAPE ( 'NONE', 'NONE',  #289 ) ;
#264 =( CONVERSION_BASED_UNIT ( 'INCH', #288 ) LENGTH_UNIT ( ) NAMED_UNIT ( #273 ) );
#265 = PRESENTATION_LAYER_ASSIGNMENT (  '', '', ( #97 ) ) ;
#266 = ORIENTED_EDGE ( 'NONE', *, *, #104, .F. ) ;
#267 = VERTEX_POINT ( 'NONE', #255 ) ;
#268 = LENGTH_MEASURE_WITH_UNIT ( LENGTH_MEASURE( 0.02539999999999999897 ), #151 );
#269 = EDGE_LOOP ( 'NONE', ( #179, #57, #131, #7 ) ) ;
#270 = MECHANICAL_DESIGN_GEOMETRIC_PRESENTATION_REPRESENTATION (  '', ( #82 ), #144 ) ;
#271 = MECHANICAL_DESIGN_GEOMETRIC_PRESENTATION_REPRESENTATION (  '', ( #87 ), #154 ) ;
#272 = CARTESIAN_POINT ( 'NONE',  ( 1.530808498934191509E-17, 0.000000000000000000, 0.1250000000000000000 ) ) ;
#273 = DIMENSIONAL_EXPONENTS ( 1.000000000000000000, 0.000000000000000000, 0.000000000000000000, 0.000000000000000000, 0.000000000000000000, 0.000000000000000000, 0.000000000000000000 ) ;
#274 = EDGE_CURVE ( 'NONE', #202, #294, #61, .T. ) ;
#275 = EDGE_LOOP ( 'NONE', ( #186, #158, #180, #291 ) ) ;
#276 =( NAMED_UNIT ( * ) PLANE_ANGLE_UNIT ( ) SI_UNIT ( $, .RADIAN. ) );
#277 =( GEOMETRIC_REPRESENTATION_CONTEXT ( 3 ) GLOBAL_UNCERTAINTY_ASSIGNED_CONTEXT ( ( #107 ) ) GLOBAL_UNIT_ASSIGNED_CONTEXT ( ( #42, #90, #16 ) ) REPRESENTATION_CONTEXT ( 'NONE', 'WORKASPACE' ) );
#278 = EDGE_CURVE ( 'NONE', #290, #64, #47, .T. ) ;
#279 = CARTESIAN_POINT ( 'NONE',  ( -0.1250000000000001110, 2.500000000000000000, 0.000000000000000000 ) ) ;
#280 = PRODUCT_DEFINITION_CONTEXT ( 'detailed design', #103, 'design' ) ;
#281 = DIRECTION ( 'NONE',  ( -0.000000000000000000, -1.000000000000000000, -0.000000000000000000 ) ) ;
#282 = SURFACE_STYLE_FILL_AREA ( #118 ) ;
#283 = CARTESIAN_POINT ( 'NONE',  ( -0.1250000000000000000, 0.5000000000000001110, 0.000000000000000000 ) ) ;
#284 = FILL_AREA_STYLE ('',( #123 ) ) ;
#285 = PRESENTATION_LAYER_ASSIGNMENT (  '', '', ( #247 ) ) ;
#286 = EDGE_CURVE ( 'NONE', #200, #132, #241, .T. ) ;
#287 = DIRECTION ( 'NONE',  ( 0.000000000000000000, 1.000000000000000000, 0.000000000000000000 ) ) ;
#288 = LENGTH_MEASURE_WITH_UNIT ( LENGTH_MEASURE( 0.02539999999999999897 ), #261 );
#289 = PRODUCT_DEFINITION ( 'UNKNOWN', '', #165, #280 ) ;
#290 = VERTEX_POINT ( 'NONE', #235 ) ;
#291 = ORIENTED_EDGE ( 'NONE', *, *, #65, .F. ) ;
#292 = DIMENSIONAL_EXPONENTS ( 1.000000000000000000, 0.000000000000000000, 0.000000000000000000, 0.000000000000000000, 0.000000000000000000, 0.000000000000000000, 0.000000000000000000 ) ;
#293 = CARTESIAN_POINT ( 'NONE',  ( 0.000000000000000000, 0.000000000000000000, 0.000000000000000000 ) ) ;
#294 = VERTEX_POINT ( 'NONE', #99 ) ;
#295 =( CONVERSION_BASED_UNIT ( 'INCH', #66 ) LENGTH_UNIT ( ) NAMED_UNIT ( #302 ) );
#296 =( LENGTH_UNIT ( ) NAMED_UNIT ( * ) SI_UNIT ( $, .METRE. ) );
#297 = AXIS2_PLACEMENT_3D ( 'NONE', #293, #69, #149 ) ;
#298 = COLOUR_RGB ( '',0.7921568627450980005, 0.8196078431372548767, 0.9333333333333333481 ) ;
#299 = ORIENTED_EDGE ( 'NONE', *, *, #286, .T. ) ;
#300 = CARTESIAN_POINT ( 'NONE',  ( 0.1249999999999999584, 2.500000000000000000, 1.530808498934191817E-17 ) ) ;
#301 = FACE_OUTER_BOUND ( 'NONE', #275, .T. ) ;
#302 = DIMENSIONAL_EXPONENTS ( 1.000000000000000000, 0.000000000000000000, 0.000000000000000000, 0.000000000000000000, 0.000000000000000000, 0.000000000000000000, 0.000000000000000000 ) ;
#303 = DIRECTION ( 'NONE',  ( -3.061616997868383018E-17, 1.000000000000000000, -0.000000000000000000 ) ) ;
#304 = DIRECTION ( 'NONE',  ( 1.000000000000000000, 3.061616997868383018E-17, 0.000000000000000000 ) ) ;
#305 = DIRECTION ( 'NONE',  ( 0.000000000000000000, 0.000000000000000000, -1.000000000000000000 ) ) ;
#306 = CARTESIAN_POINT ( 'NONE',  ( 1.530808498934191509E-17, 0.5000000000000000000, 0.1250000000000000000 ) ) ;
#307 = DIRECTION ( 'NONE',  ( 3.061616997868383018E-17, -1.000000000000000000, 0.000000000000000000 ) ) ;
#308 = AXIS2_PLACEMENT_3D ( 'NONE', #207, #251, #115 ) ;
#309 = CARTESIAN_POINT ( 'NONE',  ( -6.123233995736766036E-17, 2.500000000000000000, 0.000000000000000000 ) ) ;
ENDSEC;
END-ISO-10303-21;
