ISO-10303-21;
HEADER;
FILE_DESCRIPTION (( 'STEP AP214' ),
    '1' );
FILE_NAME ('Micro_GEC-250-2-020.STEP',
    '2021-09-03T17:13:46',
    ( '' ),
    ( '' ),
    'SwSTEP 2.0',
    'SolidWorks 2020',
    '' );
FILE_SCHEMA (( 'AUTOMOTIVE_DESIGN' ));
ENDSEC;

DATA;
#1 = EDGE_CURVE ( 'NONE', #316, #195, #263, .T. ) ;
#2 = DIRECTION ( 'NONE',  ( -1.224646799147353207E-16, -0.0000000000000000000, -1.000000000000000000 ) ) ;
#3 = CYLINDRICAL_SURFACE ( 'NONE', #285, 0.1250000000000000000 ) ;
#4 = DIRECTION ( 'NONE',  ( 0.1736481776669313026, 0.0000000000000000000, 0.9848077530122077983 ) ) ;
#5 = LENGTH_MEASURE_WITH_UNIT ( LENGTH_MEASURE( 0.02539999999999999897 ), #245 );
#6 = DIRECTION ( 'NONE',  ( -1.000000000000000000, 0.0000000000000000000, 0.0000000000000000000 ) ) ;
#7 =( NAMED_UNIT ( * ) PLANE_ANGLE_UNIT ( ) SI_UNIT ( $, .RADIAN. ) );
#8 = DIRECTION ( 'NONE',  ( -1.000000000000000000, 0.0000000000000000000, 0.0000000000000000000 ) ) ;
#9 = CARTESIAN_POINT ( 'NONE',  ( 0.0000000000000000000, 0.0000000000000000000, 0.0000000000000000000 ) ) ;
#10 = SURFACE_SIDE_STYLE ('',( #88 ) ) ;
#11 = ORIENTED_EDGE ( 'NONE', *, *, #142, .T. ) ;
#12 = ORIENTED_EDGE ( 'NONE', *, *, #1, .F. ) ;
#13 = DIRECTION ( 'NONE',  ( -1.224646799147353207E-16, -0.0000000000000000000, -1.000000000000000000 ) ) ;
#14 = ORIENTED_EDGE ( 'NONE', *, *, #1, .T. ) ;
#15 = ORIENTED_EDGE ( 'NONE', *, *, #92, .T. ) ;
#16 = LENGTH_MEASURE_WITH_UNIT ( LENGTH_MEASURE( 0.02539999999999999897 ), #249 );
#17 = VERTEX_POINT ( 'NONE', #123 ) ;
#18 = PRODUCT_CONTEXT ( 'NONE', #255, 'mechanical' ) ;
#19 = ORIENTED_EDGE ( 'NONE', *, *, #127, .T. ) ;
#20 = LINE ( 'NONE', #202, #224 ) ;
#21 = ORIENTED_EDGE ( 'NONE', *, *, #294, .F. ) ;
#22 = CARTESIAN_POINT ( 'NONE',  ( 0.0000000000000000000, 0.0000000000000000000, 0.0000000000000000000 ) ) ;
#23 = DIRECTION ( 'NONE',  ( -1.000000000000000000, 0.0000000000000000000, 1.224646799147353454E-16 ) ) ;
#24 = ORIENTED_EDGE ( 'NONE', *, *, #60, .F. ) ;
#25 =( CONVERSION_BASED_UNIT ( 'INCH', #16 ) LENGTH_UNIT ( ) NAMED_UNIT ( #77 ) );
#26 = DIRECTION ( 'NONE',  ( 0.0000000000000000000, 0.0000000000000000000, 1.000000000000000000 ) ) ;
#27 = DIRECTION ( 'NONE',  ( 1.000000000000000000, 0.0000000000000000000, 0.0000000000000000000 ) ) ;
#28 = CARTESIAN_POINT ( 'NONE',  ( 0.1048749999999999960, 0.0000000000000000000, 0.02000000000000000042 ) ) ;
#29 = LINE ( 'NONE', #33, #163 ) ;
#30 = EDGE_CURVE ( 'NONE', #278, #268, #168, .T. ) ;
#31 = DIMENSIONAL_EXPONENTS ( 1.000000000000000000, 0.0000000000000000000, 0.0000000000000000000, 0.0000000000000000000, 0.0000000000000000000, 0.0000000000000000000, 0.0000000000000000000 ) ;
#32 = CARTESIAN_POINT ( 'NONE',  ( 0.0000000000000000000, 0.0000000000000000000, 2.500000000000000000 ) ) ;
#33 = CARTESIAN_POINT ( 'NONE',  ( -0.1248749999999999166, 1.529277690435257475E-17, 0.7500000000000001110 ) ) ;
#34 = FILL_AREA_STYLE_COLOUR ( '', #120 ) ;
#35 = VERTEX_POINT ( 'NONE', #203 ) ;
#36 = ADVANCED_FACE ( 'NONE', ( #318 ), #161, .T. ) ;
#37 = FACE_OUTER_BOUND ( 'NONE', #227, .T. ) ;
#38 = ORIENTED_EDGE ( 'NONE', *, *, #67, .F. ) ;
#39 = ADVANCED_FACE ( 'NONE', ( #320 ), #140, .T. ) ;
#40 = ORIENTED_EDGE ( 'NONE', *, *, #351, .F. ) ;
#41 = AXIS2_PLACEMENT_3D ( 'NONE', #130, #233, #344 ) ;
#42 = CARTESIAN_POINT ( 'NONE',  ( 9.193532640014472135E-17, 0.0000000000000000000, 0.7507089102274522308 ) ) ;
#43 = CIRCLE ( 'NONE', #193, 0.1248749999999999999 ) ;
#44 = VERTEX_POINT ( 'NONE', #107 ) ;
#45 = DIRECTION ( 'NONE',  ( 1.000000000000000000, 0.0000000000000000000, 0.0000000000000000000 ) ) ;
#46 = AXIS2_PLACEMENT_3D ( 'NONE', #71, #176, #341 ) ;
#47 = AXIS2_PLACEMENT_3D ( 'NONE', #95, #246, #6 ) ;
#48 = APPLICATION_PROTOCOL_DEFINITION ( 'draft international standard', 'automotive_design', 1998, #255 ) ;
#49 = VERTEX_POINT ( 'NONE', #211 ) ;
#50 = AXIS2_PLACEMENT_3D ( 'NONE', #84, #105, #185 ) ;
#51 = CARTESIAN_POINT ( 'NONE',  ( 0.0000000000000000000, 0.0000000000000000000, 2.500000000000000000 ) ) ;
#52 = CARTESIAN_POINT ( 'NONE',  ( 0.0000000000000000000, 0.0000000000000000000, 2.485000000000000320 ) ) ;
#53 = ORIENTED_EDGE ( 'NONE', *, *, #351, .T. ) ;
#54 = FACE_OUTER_BOUND ( 'NONE', #210, .T. ) ;
#55 = DIRECTION ( 'NONE',  ( 0.0000000000000000000, 0.0000000000000000000, 1.000000000000000000 ) ) ;
#56 = DIRECTION ( 'NONE',  ( -1.224646799147353207E-16, -0.0000000000000000000, -1.000000000000000000 ) ) ;
#57 = ORIENTED_EDGE ( 'NONE', *, *, #267, .T. ) ;
#58 = CIRCLE ( 'NONE', #292, 0.1250000000000000000 ) ;
#59 = FACE_OUTER_BOUND ( 'NONE', #262, .T. ) ;
#60 = EDGE_CURVE ( 'NONE', #75, #70, #302, .T. ) ;
#61 = UNCERTAINTY_MEASURE_WITH_UNIT (LENGTH_MEASURE( 1.000000000000000082E-05 ), #247, 'distance_accuracy_value', 'NONE');
#62 = DIRECTION ( 'NONE',  ( 0.0000000000000000000, 0.0000000000000000000, 1.000000000000000000 ) ) ;
#63 = ADVANCED_FACE ( 'NONE', ( #238 ), #180, .T. ) ;
#64 = CARTESIAN_POINT ( 'NONE',  ( 0.1248750000000000970, 0.0000000000000000000, 0.7500000000000001110 ) ) ;
#65 = AXIS2_PLACEMENT_3D ( 'NONE', #141, #276, #313 ) ;
#66 = VECTOR ( 'NONE', #4, 39.37007874015748143 ) ;
#67 = EDGE_CURVE ( 'NONE', #17, #171, #58, .T. ) ;
#68 = CIRCLE ( 'NONE', #305, 0.02000000000000000042 ) ;
#69 = DIRECTION ( 'NONE',  ( -0.7071067811865499042, 0.0000000000000000000, -0.7071067811865451302 ) ) ;
#70 = VERTEX_POINT ( 'NONE', #323 ) ;
#71 = CARTESIAN_POINT ( 'NONE',  ( 9.184850993605150903E-17, 0.0000000000000000000, 0.7500000000000001110 ) ) ;
#72 = FACE_OUTER_BOUND ( 'NONE', #116, .T. ) ;
#73 = SHAPE_DEFINITION_REPRESENTATION ( #250, #155 ) ;
#74 = PLANE ( 'NONE',  #251 ) ;
#75 = VERTEX_POINT ( 'NONE', #297 ) ;
#76 = CYLINDRICAL_SURFACE ( 'NONE', #47, 0.1250000000000000000 ) ;
#77 = DIMENSIONAL_EXPONENTS ( 1.000000000000000000, 0.0000000000000000000, 0.0000000000000000000, 0.0000000000000000000, 0.0000000000000000000, 0.0000000000000000000, 0.0000000000000000000 ) ;
#78 = DIRECTION ( 'NONE',  ( 0.0000000000000000000, 0.0000000000000000000, -1.000000000000000000 ) ) ;
#79 = ORIENTED_EDGE ( 'NONE', *, *, #222, .F. ) ;
#80 = LINE ( 'NONE', #64, #66 ) ;
#81 = DIRECTION ( 'NONE',  ( -1.000000000000000000, 1.224646799147353947E-16, 0.0000000000000000000 ) ) ;
#82 =( NAMED_UNIT ( * ) SI_UNIT ( $, .STERADIAN. ) SOLID_ANGLE_UNIT ( ) );
#83 =( LENGTH_UNIT ( ) NAMED_UNIT ( * ) SI_UNIT ( $, .METRE. ) );
#84 = CARTESIAN_POINT ( 'NONE',  ( 2.449293598294706769E-18, 0.0000000000000000000, 0.02000000000000000042 ) ) ;
#85 = ADVANCED_FACE ( 'NONE', ( #59 ), #136, .T. ) ;
#86 = LINE ( 'NONE', #310, #350 ) ;
#87 = PRODUCT_DEFINITION_FORMATION_WITH_SPECIFIED_SOURCE ( 'ANY', '', #281, .NOT_KNOWN. ) ;
#88 = SURFACE_STYLE_FILL_AREA ( #334 ) ;
#89 = ORIENTED_EDGE ( 'NONE', *, *, #67, .T. ) ;
#90 = EDGE_CURVE ( 'NONE', #44, #195, #112, .T. ) ;
#91 = PRESENTATION_STYLE_ASSIGNMENT (( #170 ) ) ;
#92 = EDGE_CURVE ( 'NONE', #268, #171, #29, .T. ) ;
#93 = MANIFOLD_SOLID_BREP ( 'Fillet1', #345 ) ;
#94 = DIRECTION ( 'NONE',  ( 1.000000000000000000, 0.0000000000000000000, 0.0000000000000000000 ) ) ;
#95 = CARTESIAN_POINT ( 'NONE',  ( 0.0000000000000000000, 0.0000000000000000000, 2.500000000000000000 ) ) ;
#96 = ORIENTED_EDGE ( 'NONE', *, *, #148, .T. ) ;
#97 = PRODUCT_DEFINITION_CONTEXT ( 'detailed design', #272, 'design' ) ;
#98 = ORIENTED_EDGE ( 'NONE', *, *, #265, .F. ) ;
#99 = ORIENTED_EDGE ( 'NONE', *, *, #90, .F. ) ;
#100 = PRODUCT_DEFINITION ( 'UNKNOWN', '', #87, #97 ) ;
#101 = DIRECTION ( 'NONE',  ( 1.000000000000000000, 0.0000000000000000000, 0.0000000000000000000 ) ) ;
#102 = EDGE_LOOP ( 'NONE', ( #308, #15, #11, #121 ) ) ;
#103 = CIRCLE ( 'NONE', #258, 0.1250000000000000000 ) ;
#104 = CARTESIAN_POINT ( 'NONE',  ( -0.1248749999999999166, 1.530043094684724646E-17, 0.7500000000000001110 ) ) ;
#105 = DIRECTION ( 'NONE',  ( 0.0000000000000000000, 0.0000000000000000000, 1.000000000000000000 ) ) ;
#106 = ADVANCED_FACE ( 'NONE', ( #331 ), #3, .T. ) ;
#107 = CARTESIAN_POINT ( 'NONE',  ( 0.1250000000000000000, 1.530808498934191509E-17, 2.485000000000000320 ) ) ;
#108 = DIRECTION ( 'NONE',  ( 0.7071067811865499042, 8.659560562354961208E-17, -0.7071067811865451302 ) ) ;
#109 = CIRCLE ( 'NONE', #307, 0.1100000000000001948 ) ;
#110 = SURFACE_STYLE_FILL_AREA ( #295 ) ;
#111 = DIRECTION ( 'NONE',  ( 1.000000000000000000, 0.0000000000000000000, -0.0000000000000000000 ) ) ;
#112 = CIRCLE ( 'NONE', #119, 0.1250000000000000000 ) ;
#113 = SURFACE_SIDE_STYLE ('',( #110 ) ) ;
#114 = AXIS2_PLACEMENT_3D ( 'NONE', #22, #349, #179 ) ;
#115 = AXIS2_PLACEMENT_3D ( 'NONE', #42, #124, #45 ) ;
#116 = EDGE_LOOP ( 'NONE', ( #286, #225, #57, #159 ) ) ;
#117 = ORIENTED_EDGE ( 'NONE', *, *, #138, .T. ) ;
#118 = EDGE_LOOP ( 'NONE', ( #298, #96 ) ) ;
#119 = AXIS2_PLACEMENT_3D ( 'NONE', #209, #134, #241 ) ;
#120 = COLOUR_RGB ( '',0.7921568627450980005, 0.8196078431372548767, 0.9333333333333333481 ) ;
#121 = ORIENTED_EDGE ( 'NONE', *, *, #275, .F. ) ;
#122 = ORIENTED_EDGE ( 'NONE', *, *, #127, .F. ) ;
#123 = CARTESIAN_POINT ( 'NONE',  ( 0.1250000000000000833, 1.530808498934192433E-17, 0.7507089102274522308 ) ) ;
#124 = DIRECTION ( 'NONE',  ( -1.224646799147353207E-16, -0.0000000000000000000, -1.000000000000000000 ) ) ;
#125 = ORIENTED_EDGE ( 'NONE', *, *, #90, .T. ) ;
#126 = DIRECTION ( 'NONE',  ( 1.000000000000000000, 0.0000000000000000000, -0.0000000000000000000 ) ) ;
#127 = EDGE_CURVE ( 'NONE', #195, #171, #86, .T. ) ;
#128 = DIRECTION ( 'NONE',  ( -0.0000000000000000000, -0.0000000000000000000, -1.000000000000000000 ) ) ;
#129 = CARTESIAN_POINT ( 'NONE',  ( 0.1248749999999999999, 1.529277690435257475E-17, -1.529277690435257475E-17 ) ) ;
#130 = CARTESIAN_POINT ( 'NONE',  ( 0.0000000000000000000, 0.0000000000000000000, 2.500000000000000000 ) ) ;
#131 = DIRECTION ( 'NONE',  ( 1.000000000000000000, 0.0000000000000000000, 0.0000000000000000000 ) ) ;
#132 = DIRECTION ( 'NONE',  ( 1.000000000000000000, 0.0000000000000000000, 0.0000000000000000000 ) ) ;
#133 = DIRECTION ( 'NONE',  ( 0.0000000000000000000, 0.0000000000000000000, 1.000000000000000000 ) ) ;
#134 = DIRECTION ( 'NONE',  ( 0.0000000000000000000, 0.0000000000000000000, -1.000000000000000000 ) ) ;
#135 = CARTESIAN_POINT ( 'NONE',  ( 0.1100000000000001948, 1.438959988998141146E-17, 2.500000000000000000 ) ) ;
#136 = TOROIDAL_SURFACE ( 'NONE', #252, 0.1048749999999999960, 0.02000000000000000042 ) ;
#137 = DIRECTION ( 'NONE',  ( -0.1736481776669311083, 2.126576849575782084E-17, 0.9848077530122080203 ) ) ;
#138 = EDGE_CURVE ( 'NONE', #268, #278, #217, .T. ) ;
#139 = CYLINDRICAL_SURFACE ( 'NONE', #300, 0.1248749999999999999 ) ;
#140 = CONICAL_SURFACE ( 'NONE', #343, 0.1248749999999999999, 0.1745329251994338082 ) ;
#141 = CARTESIAN_POINT ( 'NONE',  ( 9.184850993605150903E-17, 0.0000000000000000000, 0.7500000000000001110 ) ) ;
#142 = EDGE_CURVE ( 'NONE', #171, #17, #254, .T. ) ;
#143 = ORIENTED_EDGE ( 'NONE', *, *, #156, .F. ) ;
#144 = CARTESIAN_POINT ( 'NONE',  ( 2.449293598294707154E-18, 0.0000000000000000000, 0.02000000000000000389 ) ) ;
#145 = ORIENTED_EDGE ( 'NONE', *, *, #275, .T. ) ;
#146 = DIRECTION ( 'NONE',  ( 0.0000000000000000000, 0.0000000000000000000, 1.000000000000000000 ) ) ;
#147 = ORIENTED_EDGE ( 'NONE', *, *, #267, .F. ) ;
#148 = EDGE_CURVE ( 'NONE', #287, #316, #347, .T. ) ;
#149 = VECTOR ( 'NONE', #69, 39.37007874015748143 ) ;
#150 = AXIS2_PLACEMENT_3D ( 'NONE', #192, #235, #153 ) ;
#151 = AXIS2_PLACEMENT_3D ( 'NONE', #288, #128, #160 ) ;
#152 = ORIENTED_EDGE ( 'NONE', *, *, #60, .T. ) ;
#153 = DIRECTION ( 'NONE',  ( 1.000000000000000000, 0.0000000000000000000, 0.0000000000000000000 ) ) ;
#154 = ORIENTED_EDGE ( 'NONE', *, *, #148, .F. ) ;
#155 = ADVANCED_BREP_SHAPE_REPRESENTATION ( 'Micro_GEC-250-2-020', ( #93, #114 ), #312 ) ;
#156 = EDGE_CURVE ( 'NONE', #44, #17, #20, .T. ) ;
#157 = CARTESIAN_POINT ( 'NONE',  ( 0.0000000000000000000, 0.0000000000000000000, 2.500000000000000000 ) ) ;
#158 = AXIS2_PLACEMENT_3D ( 'NONE', #212, #133, #111 ) ;
#159 = ORIENTED_EDGE ( 'NONE', *, *, #197, .T. ) ;
#160 = DIRECTION ( 'NONE',  ( 1.000000000000000000, 0.0000000000000000000, 0.0000000000000000000 ) ) ;
#161 = CONICAL_SURFACE ( 'NONE', #325, 0.1248749999999999999, 0.1745329251994338082 ) ;
#162 = CARTESIAN_POINT ( 'NONE',  ( 9.193532640014472135E-17, 0.0000000000000000000, 0.7507089102274522308 ) ) ;
#163 = VECTOR ( 'NONE', #137, 39.37007874015747433 ) ;
#164 = FILL_AREA_STYLE_COLOUR ( '', #329 ) ;
#165 = ADVANCED_FACE ( 'NONE', ( #72 ), #178, .T. ) ;
#166 = ORIENTED_EDGE ( 'NONE', *, *, #253, .F. ) ;
#167 = CIRCLE ( 'NONE', #151, 0.1048749999999999960 ) ;
#168 = CIRCLE ( 'NONE', #46, 0.1248749999999999999 ) ;
#169 = DIRECTION ( 'NONE',  ( -1.000000000000000000, 0.0000000000000000000, 1.224646799147353454E-16 ) ) ;
#170 = SURFACE_STYLE_USAGE ( .BOTH. , #10 ) ;
#171 = VERTEX_POINT ( 'NONE', #342 ) ;
#172 = DIRECTION ( 'NONE',  ( -0.0000000000000000000, -0.0000000000000000000, -1.000000000000000000 ) ) ;
#173 = DIRECTION ( 'NONE',  ( 1.224646799147353207E-16, 0.0000000000000000000, 1.000000000000000000 ) ) ;
#174 = AXIS2_PLACEMENT_3D ( 'NONE', #157, #257, #232 ) ;
#175 = MECHANICAL_DESIGN_GEOMETRIC_PRESENTATION_REPRESENTATION (  '', ( #321 ), #239 ) ;
#176 = DIRECTION ( 'NONE',  ( -1.224646799147353207E-16, -0.0000000000000000000, -1.000000000000000000 ) ) ;
#177 =( NAMED_UNIT ( * ) SI_UNIT ( $, .STERADIAN. ) SOLID_ANGLE_UNIT ( ) );
#178 = CYLINDRICAL_SURFACE ( 'NONE', #309, 0.1248749999999999999 ) ;
#179 = DIRECTION ( 'NONE',  ( 1.000000000000000000, 0.0000000000000000000, 0.0000000000000000000 ) ) ;
#180 = TOROIDAL_SURFACE ( 'NONE', #50, 0.1048749999999999960, 0.02000000000000000042 ) ;
#181 = EDGE_LOOP ( 'NONE', ( #194, #314 ) ) ;
#182 = APPLICATION_PROTOCOL_DEFINITION ( 'draft international standard', 'automotive_design', 1998, #272 ) ;
#183 = FACE_OUTER_BOUND ( 'NONE', #181, .T. ) ;
#184 =( NAMED_UNIT ( * ) PLANE_ANGLE_UNIT ( ) SI_UNIT ( $, .RADIAN. ) );
#185 = DIRECTION ( 'NONE',  ( 1.000000000000000000, 0.0000000000000000000, 0.0000000000000000000 ) ) ;
#186 = CARTESIAN_POINT ( 'NONE',  ( -0.1100000000000001948, 0.0000000000000000000, 2.500000000000000000 ) ) ;
#187 = CARTESIAN_POINT ( 'NONE',  ( 0.0000000000000000000, 0.0000000000000000000, 2.500000000000000000 ) ) ;
#188 = UNCERTAINTY_MEASURE_WITH_UNIT (LENGTH_MEASURE( 1.000000000000000082E-05 ), #221, 'distance_accuracy_value', 'NONE');
#189 = ADVANCED_FACE ( 'NONE', ( #204 ), #74, .T. ) ;
#190 = SURFACE_STYLE_USAGE ( .BOTH. , #113 ) ;
#191 = ADVANCED_FACE ( 'NONE', ( #37 ), #139, .T. ) ;
#192 = CARTESIAN_POINT ( 'NONE',  ( 2.449293598294706769E-18, 0.0000000000000000000, 0.0000000000000000000 ) ) ;
#193 = AXIS2_PLACEMENT_3D ( 'NONE', #144, #146, #228 ) ;
#194 = ORIENTED_EDGE ( 'NONE', *, *, #248, .T. ) ;
#195 = VERTEX_POINT ( 'NONE', #277 ) ;
#196 = AXIS2_PLACEMENT_3D ( 'NONE', #208, #237, #81 ) ;
#197 = EDGE_CURVE ( 'NONE', #70, #75, #43, .T. ) ;
#198 = CONICAL_SURFACE ( 'NONE', #236, 0.1100000000000001948, 0.7853981633974517207 ) ;
#199 = ORIENTED_EDGE ( 'NONE', *, *, #332, .T. ) ;
#200 = ADVANCED_FACE ( 'NONE', ( #242 ), #306, .T. ) ;
#201 = CARTESIAN_POINT ( 'NONE',  ( -0.1100000000000001948, 0.0000000000000000000, 2.500000000000000000 ) ) ;
#202 = CARTESIAN_POINT ( 'NONE',  ( 0.1250000000000000000, 1.530808498934191509E-17, 2.500000000000000000 ) ) ;
#203 = CARTESIAN_POINT ( 'NONE',  ( -0.1048749999999999960, 1.406813010520521809E-17, 0.0000000000000000000 ) ) ;
#204 = FACE_OUTER_BOUND ( 'NONE', #118, .T. ) ;
#205 = CIRCLE ( 'NONE', #196, 0.01999999999999999001 ) ;
#206 = DIRECTION ( 'NONE',  ( 1.224646799147353207E-16, 0.0000000000000000000, 1.000000000000000000 ) ) ;
#207 = DIRECTION ( 'NONE',  ( 0.0000000000000000000, 0.0000000000000000000, -1.000000000000000000 ) ) ;
#208 = CARTESIAN_POINT ( 'NONE',  ( -0.1048749999999999960, 1.284348330605786605E-17, 0.02000000000000000042 ) ) ;
#209 = CARTESIAN_POINT ( 'NONE',  ( 0.0000000000000000000, 0.0000000000000000000, 2.485000000000000320 ) ) ;
#210 = EDGE_LOOP ( 'NONE', ( #230, #226, #279, #122 ) ) ;
#211 = CARTESIAN_POINT ( 'NONE',  ( 0.1048749999999999960, 0.0000000000000000000, 0.0000000000000000000 ) ) ;
#212 = CARTESIAN_POINT ( 'NONE',  ( 0.0000000000000000000, 0.0000000000000000000, 0.0000000000000000000 ) ) ;
#213 = DIRECTION ( 'NONE',  ( 1.000000000000000000, 0.0000000000000000000, 0.0000000000000000000 ) ) ;
#214 =( GEOMETRIC_REPRESENTATION_CONTEXT ( 3 ) GLOBAL_UNCERTAINTY_ASSIGNED_CONTEXT ( ( #273 ) ) GLOBAL_UNIT_ASSIGNED_CONTEXT ( ( #25, #184, #177 ) ) REPRESENTATION_CONTEXT ( 'NONE', 'WORKASPACE' ) );
#215 = ORIENTED_EDGE ( 'NONE', *, *, #294, .T. ) ;
#216 = PRESENTATION_STYLE_ASSIGNMENT (( #190 ) ) ;
#217 = CIRCLE ( 'NONE', #65, 0.1248749999999999999 ) ;
#218 = EDGE_LOOP ( 'NONE', ( #154, #215, #79, #12 ) ) ;
#219 = CARTESIAN_POINT ( 'NONE',  ( -0.1248749999999999999, 0.0000000000000000000, 1.529277690435257475E-17 ) ) ;
#220 =( NAMED_UNIT ( * ) PLANE_ANGLE_UNIT ( ) SI_UNIT ( $, .RADIAN. ) );
#221 =( CONVERSION_BASED_UNIT ( 'INCH', #5 ) LENGTH_UNIT ( ) NAMED_UNIT ( #31 ) );
#222 = EDGE_CURVE ( 'NONE', #195, #44, #103, .T. ) ;
#223 = STYLED_ITEM ( 'NONE', ( #91 ), #155 ) ;
#224 = VECTOR ( 'NONE', #317, 39.37007874015748143 ) ;
#225 = ORIENTED_EDGE ( 'NONE', *, *, #30, .T. ) ;
#226 = ORIENTED_EDGE ( 'NONE', *, *, #156, .T. ) ;
#227 = EDGE_LOOP ( 'NONE', ( #117, #199, #152, #147 ) ) ;
#228 = DIRECTION ( 'NONE',  ( 1.000000000000000000, 0.0000000000000000000, 0.0000000000000000000 ) ) ;
#229 = ADVANCED_FACE ( 'NONE', ( #54 ), #76, .T. ) ;
#230 = ORIENTED_EDGE ( 'NONE', *, *, #222, .T. ) ;
#231 = ORIENTED_EDGE ( 'NONE', *, *, #30, .F. ) ;
#232 = DIRECTION ( 'NONE',  ( 1.000000000000000000, 0.0000000000000000000, 0.0000000000000000000 ) ) ;
#233 = DIRECTION ( 'NONE',  ( 0.0000000000000000000, 0.0000000000000000000, -1.000000000000000000 ) ) ;
#234 = CARTESIAN_POINT ( 'NONE',  ( 9.184850993605150903E-17, 0.0000000000000000000, 0.7500000000000001110 ) ) ;
#235 = DIRECTION ( 'NONE',  ( -0.0000000000000000000, -0.0000000000000000000, -1.000000000000000000 ) ) ;
#236 = AXIS2_PLACEMENT_3D ( 'NONE', #299, #78, #301 ) ;
#237 = DIRECTION ( 'NONE',  ( 1.224646799147353207E-16, 1.000000000000000000, -0.0000000000000000000 ) ) ;
#238 = FACE_OUTER_BOUND ( 'NONE', #338, .T. ) ;
#239 =( GEOMETRIC_REPRESENTATION_CONTEXT ( 3 ) GLOBAL_UNCERTAINTY_ASSIGNED_CONTEXT ( ( #188 ) ) GLOBAL_UNIT_ASSIGNED_CONTEXT ( ( #221, #220, #82 ) ) REPRESENTATION_CONTEXT ( 'NONE', 'WORKASPACE' ) );
#240 = DIRECTION ( 'NONE',  ( -1.224646799147353207E-16, -0.0000000000000000000, -1.000000000000000000 ) ) ;
#241 = DIRECTION ( 'NONE',  ( 1.000000000000000000, 0.0000000000000000000, 0.0000000000000000000 ) ) ;
#242 = FACE_OUTER_BOUND ( 'NONE', #339, .T. ) ;
#243 = VECTOR ( 'NONE', #108, 39.37007874015748143 ) ;
#244 = LINE ( 'NONE', #219, #319 ) ;
#245 =( LENGTH_UNIT ( ) NAMED_UNIT ( * ) SI_UNIT ( $, .METRE. ) );
#246 = DIRECTION ( 'NONE',  ( -0.0000000000000000000, -0.0000000000000000000, -1.000000000000000000 ) ) ;
#247 =( CONVERSION_BASED_UNIT ( 'INCH', #328 ) LENGTH_UNIT ( ) NAMED_UNIT ( #290 ) );
#248 = EDGE_CURVE ( 'NONE', #49, #35, #304, .T. ) ;
#249 =( LENGTH_UNIT ( ) NAMED_UNIT ( * ) SI_UNIT ( $, .METRE. ) );
#250 = PRODUCT_DEFINITION_SHAPE ( 'NONE', 'NONE',  #100 ) ;
#251 = AXIS2_PLACEMENT_3D ( 'NONE', #51, #26, #126 ) ;
#252 = AXIS2_PLACEMENT_3D ( 'NONE', #269, #271, #132 ) ;
#253 = EDGE_CURVE ( 'NONE', #35, #49, #167, .T. ) ;
#254 = CIRCLE ( 'NONE', #115, 0.1250000000000000000 ) ;
#255 = APPLICATION_CONTEXT ( 'automotive_design' ) ;
#256 = ORIENTED_EDGE ( 'NONE', *, *, #248, .F. ) ;
#257 = DIRECTION ( 'NONE',  ( 0.0000000000000000000, 0.0000000000000000000, 1.000000000000000000 ) ) ;
#258 = AXIS2_PLACEMENT_3D ( 'NONE', #52, #207, #101 ) ;
#259 = ORIENTED_EDGE ( 'NONE', *, *, #92, .F. ) ;
#260 = DIRECTION ( 'NONE',  ( -1.224646799147353207E-16, -0.0000000000000000000, -1.000000000000000000 ) ) ;
#261 = PRODUCT_RELATED_PRODUCT_CATEGORY ( 'part', '', ( #281 ) ) ;
#262 = EDGE_LOOP ( 'NONE', ( #166, #326, #24, #40 ) ) ;
#263 = LINE ( 'NONE', #201, #149 ) ;
#264 = CARTESIAN_POINT ( 'NONE',  ( 0.1100000000000001948, 1.347111479062090784E-17, 2.500000000000000000 ) ) ;
#265 = EDGE_CURVE ( 'NONE', #35, #70, #205, .T. ) ;
#266 = LINE ( 'NONE', #264, #243 ) ;
#267 = EDGE_CURVE ( 'NONE', #268, #70, #244, .T. ) ;
#268 = VERTEX_POINT ( 'NONE', #104 ) ;
#269 = CARTESIAN_POINT ( 'NONE',  ( 2.449293598294706769E-18, 0.0000000000000000000, 0.02000000000000000042 ) ) ;
#270 = PLANE ( 'NONE',  #158 ) ;
#271 = DIRECTION ( 'NONE',  ( 0.0000000000000000000, 0.0000000000000000000, 1.000000000000000000 ) ) ;
#272 = APPLICATION_CONTEXT ( 'automotive_design' ) ;
#273 = UNCERTAINTY_MEASURE_WITH_UNIT (LENGTH_MEASURE( 1.000000000000000082E-05 ), #25, 'distance_accuracy_value', 'NONE');
#274 = PRESENTATION_LAYER_ASSIGNMENT (  '', '', ( #223 ) ) ;
#275 = EDGE_CURVE ( 'NONE', #278, #17, #80, .T. ) ;
#276 = DIRECTION ( 'NONE',  ( -1.224646799147353207E-16, -0.0000000000000000000, -1.000000000000000000 ) ) ;
#277 = CARTESIAN_POINT ( 'NONE',  ( -0.1250000000000000000, 0.0000000000000000000, 2.485000000000000320 ) ) ;
#278 = VERTEX_POINT ( 'NONE', #322 ) ;
#279 = ORIENTED_EDGE ( 'NONE', *, *, #142, .F. ) ;
#280 = EDGE_CURVE ( 'NONE', #316, #287, #109, .T. ) ;
#281 = PRODUCT ( 'Micro_GEC-250-2-020', 'Micro_GEC-250-2-020', '', ( #18 ) ) ;
#282 = EDGE_LOOP ( 'NONE', ( #259, #231, #145, #89 ) ) ;
#283 = ADVANCED_FACE ( 'NONE', ( #183 ), #270, .F. ) ;
#284 = DIRECTION ( 'NONE',  ( 1.000000000000000000, 0.0000000000000000000, 0.0000000000000000000 ) ) ;
#285 = AXIS2_PLACEMENT_3D ( 'NONE', #32, #303, #8 ) ;
#286 = ORIENTED_EDGE ( 'NONE', *, *, #332, .F. ) ;
#287 = VERTEX_POINT ( 'NONE', #135 ) ;
#288 = CARTESIAN_POINT ( 'NONE',  ( 2.449293598294706769E-18, 0.0000000000000000000, 0.0000000000000000000 ) ) ;
#289 = CARTESIAN_POINT ( 'NONE',  ( 0.0000000000000000000, 0.0000000000000000000, 0.0000000000000000000 ) ) ;
#290 = DIMENSIONAL_EXPONENTS ( 1.000000000000000000, 0.0000000000000000000, 0.0000000000000000000, 0.0000000000000000000, 0.0000000000000000000, 0.0000000000000000000, 0.0000000000000000000 ) ;
#291 = ORIENTED_EDGE ( 'NONE', *, *, #197, .F. ) ;
#292 = AXIS2_PLACEMENT_3D ( 'NONE', #162, #56, #213 ) ;
#293 = EDGE_LOOP ( 'NONE', ( #143, #125, #19, #38 ) ) ;
#294 = EDGE_CURVE ( 'NONE', #287, #44, #266, .T. ) ;
#295 = FILL_AREA_STYLE ('',( #164 ) ) ;
#296 = DIRECTION ( 'NONE',  ( 0.0000000000000000000, 0.0000000000000000000, -1.000000000000000000 ) ) ;
#297 = CARTESIAN_POINT ( 'NONE',  ( 0.1248749999999999999, 1.529277690435257475E-17, 0.02000000000000000389 ) ) ;
#298 = ORIENTED_EDGE ( 'NONE', *, *, #280, .T. ) ;
#299 = CARTESIAN_POINT ( 'NONE',  ( 0.0000000000000000000, 0.0000000000000000000, 2.500000000000000000 ) ) ;
#300 = AXIS2_PLACEMENT_3D ( 'NONE', #9, #13, #169 ) ;
#301 = DIRECTION ( 'NONE',  ( -1.000000000000000000, 0.0000000000000000000, 0.0000000000000000000 ) ) ;
#302 = CIRCLE ( 'NONE', #335, 0.1248749999999999999 ) ;
#303 = DIRECTION ( 'NONE',  ( -0.0000000000000000000, -0.0000000000000000000, -1.000000000000000000 ) ) ;
#304 = CIRCLE ( 'NONE', #150, 0.1048749999999999960 ) ;
#305 = AXIS2_PLACEMENT_3D ( 'NONE', #28, #324, #296 ) ;
#306 = CONICAL_SURFACE ( 'NONE', #41, 0.1100000000000001948, 0.7853981633974517207 ) ;
#307 = AXIS2_PLACEMENT_3D ( 'NONE', #187, #55, #131 ) ;
#308 = ORIENTED_EDGE ( 'NONE', *, *, #138, .F. ) ;
#309 = AXIS2_PLACEMENT_3D ( 'NONE', #289, #260, #23 ) ;
#310 = CARTESIAN_POINT ( 'NONE',  ( -0.1250000000000000000, 0.0000000000000000000, 2.500000000000000000 ) ) ;
#311 = CARTESIAN_POINT ( 'NONE',  ( 9.184850993605150903E-17, 0.0000000000000000000, 0.7500000000000001110 ) ) ;
#312 =( GEOMETRIC_REPRESENTATION_CONTEXT ( 3 ) GLOBAL_UNCERTAINTY_ASSIGNED_CONTEXT ( ( #61 ) ) GLOBAL_UNIT_ASSIGNED_CONTEXT ( ( #247, #7, #333 ) ) REPRESENTATION_CONTEXT ( 'NONE', 'WORKASPACE' ) );
#313 = DIRECTION ( 'NONE',  ( -1.000000000000000000, 0.0000000000000000000, 0.0000000000000000000 ) ) ;
#314 = ORIENTED_EDGE ( 'NONE', *, *, #253, .T. ) ;
#315 = ADVANCED_FACE ( 'NONE', ( #330 ), #198, .T. ) ;
#316 = VERTEX_POINT ( 'NONE', #186 ) ;
#317 = DIRECTION ( 'NONE',  ( -0.0000000000000000000, -0.0000000000000000000, -1.000000000000000000 ) ) ;
#318 = FACE_OUTER_BOUND ( 'NONE', #282, .T. ) ;
#319 = VECTOR ( 'NONE', #2, 39.37007874015748143 ) ;
#320 = FACE_OUTER_BOUND ( 'NONE', #102, .T. ) ;
#321 = STYLED_ITEM ( 'NONE', ( #216 ), #93 ) ;
#322 = CARTESIAN_POINT ( 'NONE',  ( 0.1248750000000000970, 0.0000000000000000000, 0.7500000000000001110 ) ) ;
#323 = CARTESIAN_POINT ( 'NONE',  ( -0.1248749999999999999, 0.0000000000000000000, 0.02000000000000000389 ) ) ;
#324 = DIRECTION ( 'NONE',  ( 0.0000000000000000000, -1.000000000000000000, 0.0000000000000000000 ) ) ;
#325 = AXIS2_PLACEMENT_3D ( 'NONE', #234, #206, #94 ) ;
#326 = ORIENTED_EDGE ( 'NONE', *, *, #265, .T. ) ;
#327 = CARTESIAN_POINT ( 'NONE',  ( 2.449293598294707154E-18, 0.0000000000000000000, 0.02000000000000000389 ) ) ;
#328 = LENGTH_MEASURE_WITH_UNIT ( LENGTH_MEASURE( 0.02539999999999999897 ), #83 );
#329 = COLOUR_RGB ( '',0.7921568627450980005, 0.8196078431372548767, 0.9333333333333333481 ) ;
#330 = FACE_OUTER_BOUND ( 'NONE', #218, .T. ) ;
#331 = FACE_OUTER_BOUND ( 'NONE', #293, .T. ) ;
#332 = EDGE_CURVE ( 'NONE', #278, #75, #348, .T. ) ;
#333 =( NAMED_UNIT ( * ) SI_UNIT ( $, .STERADIAN. ) SOLID_ANGLE_UNIT ( ) );
#334 = FILL_AREA_STYLE ('',( #34 ) ) ;
#335 = AXIS2_PLACEMENT_3D ( 'NONE', #327, #62, #27 ) ;
#336 = MECHANICAL_DESIGN_GEOMETRIC_PRESENTATION_REPRESENTATION (  '', ( #223 ), #214 ) ;
#337 = ORIENTED_EDGE ( 'NONE', *, *, #280, .F. ) ;
#338 = EDGE_LOOP ( 'NONE', ( #98, #256, #53, #291 ) ) ;
#339 = EDGE_LOOP ( 'NONE', ( #21, #337, #14, #99 ) ) ;
#340 = PRESENTATION_LAYER_ASSIGNMENT (  '', '', ( #321 ) ) ;
#341 = DIRECTION ( 'NONE',  ( -1.000000000000000000, 0.0000000000000000000, 0.0000000000000000000 ) ) ;
#342 = CARTESIAN_POINT ( 'NONE',  ( -0.1249999999999999167, 0.0000000000000000000, 0.7507089102274522308 ) ) ;
#343 = AXIS2_PLACEMENT_3D ( 'NONE', #311, #173, #284 ) ;
#344 = DIRECTION ( 'NONE',  ( -1.000000000000000000, 0.0000000000000000000, 0.0000000000000000000 ) ) ;
#345 = CLOSED_SHELL ( 'NONE', ( #85, #191, #39, #315, #229, #106, #189, #200, #36, #165, #283, #63 ) ) ;
#346 = VECTOR ( 'NONE', #240, 39.37007874015748143 ) ;
#347 = CIRCLE ( 'NONE', #174, 0.1100000000000001948 ) ;
#348 = LINE ( 'NONE', #129, #346 ) ;
#349 = DIRECTION ( 'NONE',  ( 0.0000000000000000000, 0.0000000000000000000, 1.000000000000000000 ) ) ;
#350 = VECTOR ( 'NONE', #172, 39.37007874015748143 ) ;
#351 = EDGE_CURVE ( 'NONE', #49, #75, #68, .T. ) ;
ENDSEC;
END-ISO-10303-21;
