ISO-10303-21;
HEADER;
FILE_DESCRIPTION (( 'STEP AP214' ),
    '1' );
FILE_NAME ('Micro_GEMM-030-3.STEP',
    '2021-09-01T21:25:38',
    ( '' ),
    ( '' ),
    'SwSTEP 2.0',
    'SolidWorks 2020',
    '' );
FILE_SCHEMA (( 'AUTOMOTIVE_DESIGN' ));
ENDSEC;

DATA;
#1 = DIRECTION ( 'NONE',  ( 0.0000000000000000000, 0.0000000000000000000, -1.000000000000000000 ) ) ;
#2 = EDGE_CURVE ( 'NONE', #243, #72, #82, .T. ) ;
#3 = CONICAL_SURFACE ( 'NONE', #219, 0.05899594499999999409, 0.1745329251994339192 ) ;
#4 = ORIENTED_EDGE ( 'NONE', *, *, #151, .T. ) ;
#5 = ORIENTED_EDGE ( 'NONE', *, *, #235, .T. ) ;
#6 = EDGE_LOOP ( 'NONE', ( #102, #97, #32, #28 ) ) ;
#7 = ADVANCED_FACE ( 'NONE', ( #103 ), #3, .T. ) ;
#8 = AXIS2_PLACEMENT_3D ( 'NONE', #274, #201, #253 ) ;
#9 = CARTESIAN_POINT ( 'NONE',  ( 0.05905499999999998251, 7.232151672364692341E-18, 1.481063000000000240 ) ) ;
#10 = ADVANCED_FACE ( 'NONE', ( #290 ), #59, .T. ) ;
#11 = LENGTH_MEASURE_WITH_UNIT ( LENGTH_MEASURE( 0.02539999999999999897 ), #207 );
#12 = DIRECTION ( 'NONE',  ( 0.0000000000000000000, 0.0000000000000000000, 1.000000000000000000 ) ) ;
#13 =( NAMED_UNIT ( * ) PLANE_ANGLE_UNIT ( ) SI_UNIT ( $, .RADIAN. ) );
#14 = LENGTH_MEASURE_WITH_UNIT ( LENGTH_MEASURE( 0.02539999999999999897 ), #286 );
#15 = DIRECTION ( 'NONE',  ( 1.000000000000000000, 0.0000000000000000000, 0.0000000000000000000 ) ) ;
#16 = CARTESIAN_POINT ( 'NONE',  ( 0.05899594500000002878, 0.0000000000000000000, 0.2755909999999999749 ) ) ;
#17 = AXIS2_PLACEMENT_3D ( 'NONE', #275, #25, #40 ) ;
#18 = VECTOR ( 'NONE', #225, 39.37007874015748143 ) ;
#19 = LINE ( 'NONE', #22, #118 ) ;
#20 = DIRECTION ( 'NONE',  ( 0.0000000000000000000, 0.0000000000000000000, 1.000000000000000000 ) ) ;
#21 = CYLINDRICAL_SURFACE ( 'NONE', #84, 0.05899594499999999409 ) ;
#22 = CARTESIAN_POINT ( 'NONE',  ( -0.04405500000000001082, 0.0000000000000000000, 1.496062999999999921 ) ) ;
#23 = CIRCLE ( 'NONE', #179, 0.05905499999999998251 ) ;
#24 =( GEOMETRIC_REPRESENTATION_CONTEXT ( 3 ) GLOBAL_UNCERTAINTY_ASSIGNED_CONTEXT ( ( #143 ) ) GLOBAL_UNIT_ASSIGNED_CONTEXT ( ( #198, #13, #46 ) ) REPRESENTATION_CONTEXT ( 'NONE', 'WORKASPACE' ) );
#25 = DIRECTION ( 'NONE',  ( 0.0000000000000000000, 0.0000000000000000000, 1.000000000000000000 ) ) ;
#26 = AXIS2_PLACEMENT_3D ( 'NONE', #78, #114, #62 ) ;
#27 = STYLED_ITEM ( 'NONE', ( #77 ), #295 ) ;
#28 = ORIENTED_EDGE ( 'NONE', *, *, #151, .F. ) ;
#29 = DIMENSIONAL_EXPONENTS ( 1.000000000000000000, 0.0000000000000000000, 0.0000000000000000000, 0.0000000000000000000, 0.0000000000000000000, 0.0000000000000000000, 0.0000000000000000000 ) ;
#30 = EDGE_CURVE ( 'NONE', #74, #72, #257, .T. ) ;
#31 = EDGE_LOOP ( 'NONE', ( #128, #75, #171, #193 ) ) ;
#32 = ORIENTED_EDGE ( 'NONE', *, *, #101, .T. ) ;
#33 = FILL_AREA_STYLE ('',( #54 ) ) ;
#34 = FACE_OUTER_BOUND ( 'NONE', #242, .T. ) ;
#35 = DIRECTION ( 'NONE',  ( -1.224646799147352961E-16, -0.0000000000000000000, -1.000000000000000000 ) ) ;
#36 = DIRECTION ( 'NONE',  ( -1.000000000000000000, 0.0000000000000000000, 0.0000000000000000000 ) ) ;
#37 = DIRECTION ( 'NONE',  ( 0.0000000000000000000, 0.0000000000000000000, -1.000000000000000000 ) ) ;
#38 = PRODUCT ( 'Micro_GEMM-030-3', 'Micro_GEMM-030-3', '', ( #65 ) ) ;
#39 =( CONVERSION_BASED_UNIT ( 'INCH', #14 ) LENGTH_UNIT ( ) NAMED_UNIT ( #81 ) );
#40 = DIRECTION ( 'NONE',  ( 1.000000000000000000, 0.0000000000000000000, 0.0000000000000000000 ) ) ;
#41 = DIRECTION ( 'NONE',  ( 1.000000000000000000, 0.0000000000000000000, 0.0000000000000000000 ) ) ;
#42 = DIRECTION ( 'NONE',  ( -1.224646799147352961E-16, -0.0000000000000000000, -1.000000000000000000 ) ) ;
#43 = DIRECTION ( 'NONE',  ( 1.000000000000000000, 0.0000000000000000000, 0.0000000000000000000 ) ) ;
#44 = CARTESIAN_POINT ( 'NONE',  ( -0.05899594499999995939, 7.224919520692329689E-18, 0.2755909999999999749 ) ) ;
#45 = COLOUR_RGB ( '',0.7921568627450980005, 0.8196078431372548767, 0.9333333333333333481 ) ;
#46 =( NAMED_UNIT ( * ) SI_UNIT ( $, .STERADIAN. ) SOLID_ANGLE_UNIT ( ) );
#47 = LINE ( 'NONE', #137, #95 ) ;
#48 = AXIS2_PLACEMENT_3D ( 'NONE', #251, #83, #156 ) ;
#49 = VERTEX_POINT ( 'NONE', #9 ) ;
#50 = ORIENTED_EDGE ( 'NONE', *, *, #185, .T. ) ;
#51 = ORIENTED_EDGE ( 'NONE', *, *, #161, .T. ) ;
#52 = EDGE_LOOP ( 'NONE', ( #261, #51, #50, #110 ) ) ;
#53 = COLOUR_RGB ( '',0.7921568627450980005, 0.8196078431372548767, 0.9333333333333333481 ) ;
#54 = FILL_AREA_STYLE_COLOUR ( '', #45 ) ;
#55 = DIRECTION ( 'NONE',  ( 1.000000000000000000, 0.0000000000000000000, 0.0000000000000000000 ) ) ;
#56 = DIRECTION ( 'NONE',  ( -1.000000000000000000, 0.0000000000000000000, 0.0000000000000000000 ) ) ;
#57 = ADVANCED_FACE ( 'NONE', ( #175 ), #200, .F. ) ;
#58 = CONICAL_SURFACE ( 'NONE', #8, 0.04405500000000001082, 0.7853981633974570498 ) ;
#59 = CYLINDRICAL_SURFACE ( 'NONE', #105, 0.05905499999999998251 ) ;
#60 = EDGE_CURVE ( 'NONE', #167, #122, #68, .T. ) ;
#61 = CARTESIAN_POINT ( 'NONE',  ( 3.375016360238180974E-17, 0.0000000000000000000, 0.2755909999999999749 ) ) ;
#62 = DIRECTION ( 'NONE',  ( 1.000000000000000000, 0.0000000000000000000, 0.0000000000000000000 ) ) ;
#63 = LINE ( 'NONE', #255, #145 ) ;
#64 = DIRECTION ( 'NONE',  ( 0.7071067811865536790, 8.659560562355008046E-17, -0.7071067811865412445 ) ) ;
#65 = PRODUCT_CONTEXT ( 'NONE', #202, 'mechanical' ) ;
#66 = CARTESIAN_POINT ( 'NONE',  ( 0.0000000000000000000, 0.0000000000000000000, 1.496062999999999921 ) ) ;
#67 = CLOSED_SHELL ( 'NONE', ( #80, #7, #216, #205, #10, #218, #247, #276, #129, #57 ) ) ;
#68 = CIRCLE ( 'NONE', #187, 0.05899594499999999409 ) ;
#69 = CIRCLE ( 'NONE', #259, 0.05899594499999999409 ) ;
#70 = ORIENTED_EDGE ( 'NONE', *, *, #170, .T. ) ;
#71 = APPLICATION_CONTEXT ( 'automotive_design' ) ;
#72 = VERTEX_POINT ( 'NONE', #245 ) ;
#73 =( GEOMETRIC_REPRESENTATION_CONTEXT ( 3 ) GLOBAL_UNCERTAINTY_ASSIGNED_CONTEXT ( ( #283 ) ) GLOBAL_UNIT_ASSIGNED_CONTEXT ( ( #39, #291, #113 ) ) REPRESENTATION_CONTEXT ( 'NONE', 'WORKASPACE' ) );
#74 = VERTEX_POINT ( 'NONE', #246 ) ;
#75 = ORIENTED_EDGE ( 'NONE', *, *, #121, .T. ) ;
#76 = CARTESIAN_POINT ( 'NONE',  ( 0.0000000000000000000, 0.0000000000000000000, 1.496062999999999921 ) ) ;
#77 = PRESENTATION_STYLE_ASSIGNMENT (( #134 ) ) ;
#78 = CARTESIAN_POINT ( 'NONE',  ( 0.0000000000000000000, 0.0000000000000000000, 1.481063000000000240 ) ) ;
#79 = CARTESIAN_POINT ( 'NONE',  ( 0.05905499999999998251, 7.232151672364692341E-18, 1.496062999999999921 ) ) ;
#80 = ADVANCED_FACE ( 'NONE', ( #34 ), #266, .T. ) ;
#81 = DIMENSIONAL_EXPONENTS ( 1.000000000000000000, 0.0000000000000000000, 0.0000000000000000000, 0.0000000000000000000, 0.0000000000000000000, 0.0000000000000000000, 0.0000000000000000000 ) ;
#82 = LINE ( 'NONE', #106, #123 ) ;
#83 = DIRECTION ( 'NONE',  ( -1.224646799147352961E-16, -0.0000000000000000000, -1.000000000000000000 ) ) ;
#84 = AXIS2_PLACEMENT_3D ( 'NONE', #92, #115, #212 ) ;
#85 = AXIS2_PLACEMENT_3D ( 'NONE', #213, #20, #116 ) ;
#86 = DIRECTION ( 'NONE',  ( 0.1736481776669314137, 0.0000000000000000000, 0.9848077530122077983 ) ) ;
#87 = EDGE_LOOP ( 'NONE', ( #196, #149, #135, #146 ) ) ;
#88 = CARTESIAN_POINT ( 'NONE',  ( 3.375016360238180974E-17, 0.0000000000000000000, 0.2755909999999999749 ) ) ;
#89 = DIRECTION ( 'NONE',  ( -1.224646799147352961E-16, -0.0000000000000000000, -1.000000000000000000 ) ) ;
#90 = LINE ( 'NONE', #44, #234 ) ;
#91 = CIRCLE ( 'NONE', #125, 0.05899594499999999409 ) ;
#92 = CARTESIAN_POINT ( 'NONE',  ( 0.0000000000000000000, 0.0000000000000000000, 0.0000000000000000000 ) ) ;
#93 = PRODUCT_DEFINITION ( 'UNKNOWN', '', #220, #265 ) ;
#94 = FACE_OUTER_BOUND ( 'NONE', #109, .T. ) ;
#95 = VECTOR ( 'NONE', #89, 39.37007874015748143 ) ;
#96 = ORIENTED_EDGE ( 'NONE', *, *, #211, .T. ) ;
#97 = ORIENTED_EDGE ( 'NONE', *, *, #148, .T. ) ;
#98 = MANIFOLD_SOLID_BREP ( 'Cut-Revolve1', #67 ) ;
#99 = EDGE_LOOP ( 'NONE', ( #70, #217 ) ) ;
#100 = AXIS2_PLACEMENT_3D ( 'NONE', #215, #120, #299 ) ;
#101 = EDGE_CURVE ( 'NONE', #209, #167, #63, .T. ) ;
#102 = ORIENTED_EDGE ( 'NONE', *, *, #194, .F. ) ;
#103 = FACE_OUTER_BOUND ( 'NONE', #52, .T. ) ;
#104 = LINE ( 'NONE', #16, #138 ) ;
#105 = AXIS2_PLACEMENT_3D ( 'NONE', #76, #203, #56 ) ;
#106 = CARTESIAN_POINT ( 'NONE',  ( -0.05905499999999998251, 0.0000000000000000000, 1.496062999999999921 ) ) ;
#107 = CONICAL_SURFACE ( 'NONE', #298, 0.04405500000000001082, 0.7853981633974570498 ) ;
#108 = DIRECTION ( 'NONE',  ( 1.000000000000000000, 0.0000000000000000000, -0.0000000000000000000 ) ) ;
#109 = EDGE_LOOP ( 'NONE', ( #147, #285, #282, #180 ) ) ;
#110 = ORIENTED_EDGE ( 'NONE', *, *, #235, .F. ) ;
#111 =( NAMED_UNIT ( * ) SI_UNIT ( $, .STERADIAN. ) SOLID_ANGLE_UNIT ( ) );
#112 = CIRCLE ( 'NONE', #26, 0.05905499999999998251 ) ;
#113 =( NAMED_UNIT ( * ) SI_UNIT ( $, .STERADIAN. ) SOLID_ANGLE_UNIT ( ) );
#114 = DIRECTION ( 'NONE',  ( 0.0000000000000000000, 0.0000000000000000000, -1.000000000000000000 ) ) ;
#115 = DIRECTION ( 'NONE',  ( -1.224646799147352961E-16, -0.0000000000000000000, -1.000000000000000000 ) ) ;
#116 = DIRECTION ( 'NONE',  ( 1.000000000000000000, 0.0000000000000000000, 0.0000000000000000000 ) ) ;
#117 = DIRECTION ( 'NONE',  ( -0.0000000000000000000, -0.0000000000000000000, -1.000000000000000000 ) ) ;
#118 = VECTOR ( 'NONE', #210, 39.37007874015748854 ) ;
#119 = EDGE_CURVE ( 'NONE', #49, #243, #112, .T. ) ;
#120 = DIRECTION ( 'NONE',  ( -1.224646799147352961E-16, -0.0000000000000000000, -1.000000000000000000 ) ) ;
#121 = EDGE_CURVE ( 'NONE', #260, #49, #296, .T. ) ;
#122 = VERTEX_POINT ( 'NONE', #163 ) ;
#123 = VECTOR ( 'NONE', #183, 39.37007874015748143 ) ;
#124 =( GEOMETRIC_REPRESENTATION_CONTEXT ( 3 ) GLOBAL_UNCERTAINTY_ASSIGNED_CONTEXT ( ( #277 ) ) GLOBAL_UNIT_ASSIGNED_CONTEXT ( ( #250, #177, #111 ) ) REPRESENTATION_CONTEXT ( 'NONE', 'WORKASPACE' ) );
#125 = AXIS2_PLACEMENT_3D ( 'NONE', #160, #214, #256 ) ;
#126 = MECHANICAL_DESIGN_GEOMETRIC_PRESENTATION_REPRESENTATION (  '', ( #27 ), #24 ) ;
#127 = ORIENTED_EDGE ( 'NONE', *, *, #60, .F. ) ;
#128 = ORIENTED_EDGE ( 'NONE', *, *, #173, .F. ) ;
#129 = ADVANCED_FACE ( 'NONE', ( #189 ), #21, .T. ) ;
#130 = CIRCLE ( 'NONE', #239, 0.04405500000000001082 ) ;
#131 = VERTEX_POINT ( 'NONE', #184 ) ;
#132 = FACE_OUTER_BOUND ( 'NONE', #263, .T. ) ;
#133 = ORIENTED_EDGE ( 'NONE', *, *, #264, .T. ) ;
#134 = SURFACE_STYLE_USAGE ( .BOTH. , #222 ) ;
#135 = ORIENTED_EDGE ( 'NONE', *, *, #2, .T. ) ;
#136 = LINE ( 'NONE', #79, #18 ) ;
#137 = CARTESIAN_POINT ( 'NONE',  ( 0.05899594499999999409, 7.224919520692329689E-18, -7.224919520692328148E-18 ) ) ;
#138 = VECTOR ( 'NONE', #86, 39.37007874015748143 ) ;
#139 = DIRECTION ( 'NONE',  ( 1.000000000000000000, 0.0000000000000000000, 0.0000000000000000000 ) ) ;
#140 = EDGE_CURVE ( 'NONE', #243, #49, #23, .T. ) ;
#141 = DIRECTION ( 'NONE',  ( -0.1736481776669312194, 2.126576849575783625E-17, 0.9848077530122080203 ) ) ;
#142 = CIRCLE ( 'NONE', #197, 0.05899594499999999409 ) ;
#143 = UNCERTAINTY_MEASURE_WITH_UNIT (LENGTH_MEASURE( 1.000000000000000082E-05 ), #198, 'distance_accuracy_value', 'NONE');
#144 = ORIENTED_EDGE ( 'NONE', *, *, #119, .F. ) ;
#145 = VECTOR ( 'NONE', #165, 39.37007874015748143 ) ;
#146 = ORIENTED_EDGE ( 'NONE', *, *, #30, .F. ) ;
#147 = ORIENTED_EDGE ( 'NONE', *, *, #140, .T. ) ;
#148 = EDGE_CURVE ( 'NONE', #241, #209, #142, .T. ) ;
#149 = ORIENTED_EDGE ( 'NONE', *, *, #119, .T. ) ;
#150 = DIMENSIONAL_EXPONENTS ( 1.000000000000000000, 0.0000000000000000000, 0.0000000000000000000, 0.0000000000000000000, 0.0000000000000000000, 0.0000000000000000000, 0.0000000000000000000 ) ;
#151 = EDGE_CURVE ( 'NONE', #122, #167, #91, .T. ) ;
#152 = SURFACE_STYLE_USAGE ( .BOTH. , #289 ) ;
#153 = LENGTH_MEASURE_WITH_UNIT ( LENGTH_MEASURE( 0.02539999999999999897 ), #223 );
#154 = DIRECTION ( 'NONE',  ( 1.224646799147352961E-16, 0.0000000000000000000, 1.000000000000000000 ) ) ;
#155 = STYLED_ITEM ( 'NONE', ( #271 ), #98 ) ;
#156 = DIRECTION ( 'NONE',  ( -1.000000000000000000, 0.0000000000000000000, 1.224646799147352961E-16 ) ) ;
#157 = FILL_AREA_STYLE ('',( #182 ) ) ;
#158 = ORIENTED_EDGE ( 'NONE', *, *, #121, .F. ) ;
#159 = SURFACE_STYLE_FILL_AREA ( #157 ) ;
#160 = CARTESIAN_POINT ( 'NONE',  ( 8.847974565113086764E-34, 0.0000000000000000000, 7.224919520692328148E-18 ) ) ;
#161 = EDGE_CURVE ( 'NONE', #209, #72, #90, .T. ) ;
#162 = DIRECTION ( 'NONE',  ( -1.000000000000000000, 0.0000000000000000000, 0.0000000000000000000 ) ) ;
#163 = CARTESIAN_POINT ( 'NONE',  ( 0.05899594499999999409, 7.224919520692329689E-18, 0.0000000000000000000 ) ) ;
#164 = SHAPE_DEFINITION_REPRESENTATION ( #240, #295 ) ;
#165 = DIRECTION ( 'NONE',  ( -1.224646799147352961E-16, -0.0000000000000000000, -1.000000000000000000 ) ) ;
#166 = AXIS2_PLACEMENT_3D ( 'NONE', #221, #12, #272 ) ;
#167 = VERTEX_POINT ( 'NONE', #254 ) ;
#168 = EDGE_LOOP ( 'NONE', ( #280, #244, #5, #192 ) ) ;
#169 = VECTOR ( 'NONE', #64, 39.37007874015748854 ) ;
#170 = EDGE_CURVE ( 'NONE', #131, #260, #130, .T. ) ;
#171 = ORIENTED_EDGE ( 'NONE', *, *, #140, .F. ) ;
#172 = EDGE_LOOP ( 'NONE', ( #292, #4 ) ) ;
#173 = EDGE_CURVE ( 'NONE', #260, #131, #297, .T. ) ;
#174 = MECHANICAL_DESIGN_GEOMETRIC_PRESENTATION_REPRESENTATION (  '', ( #155 ), #124 ) ;
#175 = FACE_OUTER_BOUND ( 'NONE', #172, .T. ) ;
#176 = SURFACE_STYLE_FILL_AREA ( #33 ) ;
#177 =( NAMED_UNIT ( * ) PLANE_ANGLE_UNIT ( ) SI_UNIT ( $, .RADIAN. ) );
#178 = FACE_OUTER_BOUND ( 'NONE', #168, .T. ) ;
#179 = AXIS2_PLACEMENT_3D ( 'NONE', #278, #1, #43 ) ;
#180 = ORIENTED_EDGE ( 'NONE', *, *, #2, .F. ) ;
#181 = PRODUCT_RELATED_PRODUCT_CATEGORY ( 'part', '', ( #38 ) ) ;
#182 = FILL_AREA_STYLE_COLOUR ( '', #53 ) ;
#183 = DIRECTION ( 'NONE',  ( -0.0000000000000000000, -0.0000000000000000000, -1.000000000000000000 ) ) ;
#184 = CARTESIAN_POINT ( 'NONE',  ( -0.04405500000000001082, 0.0000000000000000000, 1.496062999999999921 ) ) ;
#185 = EDGE_CURVE ( 'NONE', #72, #74, #191, .T. ) ;
#186 = DIRECTION ( 'NONE',  ( 0.0000000000000000000, 0.0000000000000000000, 1.000000000000000000 ) ) ;
#187 = AXIS2_PLACEMENT_3D ( 'NONE', #269, #35, #206 ) ;
#188 = CARTESIAN_POINT ( 'NONE',  ( 0.04405500000000001082, 5.395181473643666598E-18, 1.496062999999999921 ) ) ;
#189 = FACE_OUTER_BOUND ( 'NONE', #6, .T. ) ;
#190 = APPLICATION_PROTOCOL_DEFINITION ( 'draft international standard', 'automotive_design', 1998, #71 ) ;
#191 = CIRCLE ( 'NONE', #100, 0.05905499999999998251 ) ;
#192 = ORIENTED_EDGE ( 'NONE', *, *, #30, .T. ) ;
#193 = ORIENTED_EDGE ( 'NONE', *, *, #211, .F. ) ;
#194 = EDGE_CURVE ( 'NONE', #241, #122, #47, .T. ) ;
#195 = AXIS2_PLACEMENT_3D ( 'NONE', #273, #267, #108 ) ;
#196 = ORIENTED_EDGE ( 'NONE', *, *, #228, .F. ) ;
#197 = AXIS2_PLACEMENT_3D ( 'NONE', #252, #42, #162 ) ;
#198 =( CONVERSION_BASED_UNIT ( 'INCH', #11 ) LENGTH_UNIT ( ) NAMED_UNIT ( #150 ) );
#199 = PRESENTATION_LAYER_ASSIGNMENT (  '', '', ( #27 ) ) ;
#200 = PLANE ( 'NONE',  #166 ) ;
#201 = DIRECTION ( 'NONE',  ( 0.0000000000000000000, 0.0000000000000000000, -1.000000000000000000 ) ) ;
#202 = APPLICATION_CONTEXT ( 'automotive_design' ) ;
#203 = DIRECTION ( 'NONE',  ( -0.0000000000000000000, -0.0000000000000000000, -1.000000000000000000 ) ) ;
#204 = DIRECTION ( 'NONE',  ( -1.000000000000000000, 0.0000000000000000000, 0.0000000000000000000 ) ) ;
#205 = ADVANCED_FACE ( 'NONE', ( #94 ), #258, .T. ) ;
#206 = DIRECTION ( 'NONE',  ( -1.000000000000000000, 0.0000000000000000000, 1.224646799147352961E-16 ) ) ;
#207 =( LENGTH_UNIT ( ) NAMED_UNIT ( * ) SI_UNIT ( $, .METRE. ) );
#208 = AXIS2_PLACEMENT_3D ( 'NONE', #227, #232, #15 ) ;
#209 = VERTEX_POINT ( 'NONE', #237 ) ;
#210 = DIRECTION ( 'NONE',  ( -0.7071067811865536790, 0.0000000000000000000, -0.7071067811865412445 ) ) ;
#211 = EDGE_CURVE ( 'NONE', #131, #243, #19, .T. ) ;
#212 = DIRECTION ( 'NONE',  ( -1.000000000000000000, 0.0000000000000000000, 1.224646799147352961E-16 ) ) ;
#213 = CARTESIAN_POINT ( 'NONE',  ( 0.0000000000000000000, 0.0000000000000000000, 0.0000000000000000000 ) ) ;
#214 = DIRECTION ( 'NONE',  ( -1.224646799147352961E-16, -0.0000000000000000000, -1.000000000000000000 ) ) ;
#215 = CARTESIAN_POINT ( 'NONE',  ( 3.379117917267799633E-17, 0.0000000000000000000, 0.2759259175478573911 ) ) ;
#216 = ADVANCED_FACE ( 'NONE', ( #294 ), #58, .T. ) ;
#217 = ORIENTED_EDGE ( 'NONE', *, *, #173, .T. ) ;
#218 = ADVANCED_FACE ( 'NONE', ( #231 ), #288, .T. ) ;
#219 = AXIS2_PLACEMENT_3D ( 'NONE', #230, #287, #55 ) ;
#220 = PRODUCT_DEFINITION_FORMATION_WITH_SPECIFIED_SOURCE ( 'ANY', '', #38, .NOT_KNOWN. ) ;
#221 = CARTESIAN_POINT ( 'NONE',  ( 0.0000000000000000000, 0.0000000000000000000, 0.0000000000000000000 ) ) ;
#222 = SURFACE_SIDE_STYLE ('',( #159 ) ) ;
#223 =( LENGTH_UNIT ( ) NAMED_UNIT ( * ) SI_UNIT ( $, .METRE. ) );
#224 = PRESENTATION_LAYER_ASSIGNMENT (  '', '', ( #155 ) ) ;
#225 = DIRECTION ( 'NONE',  ( -0.0000000000000000000, -0.0000000000000000000, -1.000000000000000000 ) ) ;
#226 = CONICAL_SURFACE ( 'NONE', #279, 0.05899594499999999409, 0.1745329251994339192 ) ;
#227 = CARTESIAN_POINT ( 'NONE',  ( 3.379117917267799633E-17, 0.0000000000000000000, 0.2759259175478573911 ) ) ;
#228 = EDGE_CURVE ( 'NONE', #49, #74, #136, .T. ) ;
#229 = CARTESIAN_POINT ( 'NONE',  ( 0.0000000000000000000, 0.0000000000000000000, 1.496062999999999921 ) ) ;
#230 = CARTESIAN_POINT ( 'NONE',  ( 3.375016360238180974E-17, 0.0000000000000000000, 0.2755909999999999749 ) ) ;
#231 = FACE_OUTER_BOUND ( 'NONE', #99, .T. ) ;
#232 = DIRECTION ( 'NONE',  ( -1.224646799147352961E-16, -0.0000000000000000000, -1.000000000000000000 ) ) ;
#233 = DIRECTION ( 'NONE',  ( -1.224646799147352961E-16, -0.0000000000000000000, -1.000000000000000000 ) ) ;
#234 = VECTOR ( 'NONE', #141, 39.37007874015747433 ) ;
#235 = EDGE_CURVE ( 'NONE', #241, #74, #104, .T. ) ;
#236 = DIRECTION ( 'NONE',  ( -1.000000000000000000, 0.0000000000000000000, 0.0000000000000000000 ) ) ;
#237 = CARTESIAN_POINT ( 'NONE',  ( -0.05899594499999995939, 7.228535596528510244E-18, 0.2755909999999999749 ) ) ;
#238 = CARTESIAN_POINT ( 'NONE',  ( 0.0000000000000000000, 0.0000000000000000000, 1.496062999999999921 ) ) ;
#239 = AXIS2_PLACEMENT_3D ( 'NONE', #238, #186, #139 ) ;
#240 = PRODUCT_DEFINITION_SHAPE ( 'NONE', 'NONE',  #93 ) ;
#241 = VERTEX_POINT ( 'NONE', #270 ) ;
#242 = EDGE_LOOP ( 'NONE', ( #133, #281, #127, #262 ) ) ;
#243 = VERTEX_POINT ( 'NONE', #268 ) ;
#244 = ORIENTED_EDGE ( 'NONE', *, *, #148, .F. ) ;
#245 = CARTESIAN_POINT ( 'NONE',  ( -0.05905499999999994781, 0.0000000000000000000, 0.2759259175478573911 ) ) ;
#246 = CARTESIAN_POINT ( 'NONE',  ( 0.05905500000000002414, 7.232151672364696963E-18, 0.2759259175478573911 ) ) ;
#247 = ADVANCED_FACE ( 'NONE', ( #132 ), #107, .T. ) ;
#248 = AXIS2_PLACEMENT_3D ( 'NONE', #66, #117, #236 ) ;
#249 = CARTESIAN_POINT ( 'NONE',  ( 0.04405500000000001082, 6.313666573004179469E-18, 1.496062999999999921 ) ) ;
#250 =( CONVERSION_BASED_UNIT ( 'INCH', #153 ) LENGTH_UNIT ( ) NAMED_UNIT ( #29 ) );
#251 = CARTESIAN_POINT ( 'NONE',  ( 0.0000000000000000000, 0.0000000000000000000, 0.0000000000000000000 ) ) ;
#252 = CARTESIAN_POINT ( 'NONE',  ( 3.375016360238180974E-17, 0.0000000000000000000, 0.2755909999999999749 ) ) ;
#253 = DIRECTION ( 'NONE',  ( -1.000000000000000000, 0.0000000000000000000, 0.0000000000000000000 ) ) ;
#254 = CARTESIAN_POINT ( 'NONE',  ( -0.05899594499999999409, 0.0000000000000000000, 1.444983904138465630E-17 ) ) ;
#255 = CARTESIAN_POINT ( 'NONE',  ( -0.05899594499999999409, 0.0000000000000000000, 7.224919520692328148E-18 ) ) ;
#256 = DIRECTION ( 'NONE',  ( -1.000000000000000000, 0.0000000000000000000, 1.224646799147352961E-16 ) ) ;
#257 = CIRCLE ( 'NONE', #208, 0.05905499999999998251 ) ;
#258 = CYLINDRICAL_SURFACE ( 'NONE', #248, 0.05905499999999998251 ) ;
#259 = AXIS2_PLACEMENT_3D ( 'NONE', #88, #233, #204 ) ;
#260 = VERTEX_POINT ( 'NONE', #249 ) ;
#261 = ORIENTED_EDGE ( 'NONE', *, *, #264, .F. ) ;
#262 = ORIENTED_EDGE ( 'NONE', *, *, #101, .F. ) ;
#263 = EDGE_LOOP ( 'NONE', ( #158, #284, #96, #144 ) ) ;
#264 = EDGE_CURVE ( 'NONE', #209, #241, #69, .T. ) ;
#265 = PRODUCT_DEFINITION_CONTEXT ( 'detailed design', #71, 'design' ) ;
#266 = CYLINDRICAL_SURFACE ( 'NONE', #48, 0.05899594499999999409 ) ;
#267 = DIRECTION ( 'NONE',  ( 0.0000000000000000000, 0.0000000000000000000, 1.000000000000000000 ) ) ;
#268 = CARTESIAN_POINT ( 'NONE',  ( -0.05905499999999998251, 0.0000000000000000000, 1.481063000000000240 ) ) ;
#269 = CARTESIAN_POINT ( 'NONE',  ( 8.847974565113086764E-34, 0.0000000000000000000, 7.224919520692328148E-18 ) ) ;
#270 = CARTESIAN_POINT ( 'NONE',  ( 0.05899594500000002878, 0.0000000000000000000, 0.2755909999999999749 ) ) ;
#271 = PRESENTATION_STYLE_ASSIGNMENT (( #152 ) ) ;
#272 = DIRECTION ( 'NONE',  ( 1.000000000000000000, 0.0000000000000000000, -0.0000000000000000000 ) ) ;
#273 = CARTESIAN_POINT ( 'NONE',  ( 0.0000000000000000000, 0.0000000000000000000, 1.496062999999999921 ) ) ;
#274 = CARTESIAN_POINT ( 'NONE',  ( 0.0000000000000000000, 0.0000000000000000000, 1.496062999999999921 ) ) ;
#275 = CARTESIAN_POINT ( 'NONE',  ( 0.0000000000000000000, 0.0000000000000000000, 1.496062999999999921 ) ) ;
#276 = ADVANCED_FACE ( 'NONE', ( #178 ), #226, .T. ) ;
#277 = UNCERTAINTY_MEASURE_WITH_UNIT (LENGTH_MEASURE( 1.000000000000000082E-05 ), #250, 'distance_accuracy_value', 'NONE');
#278 = CARTESIAN_POINT ( 'NONE',  ( 0.0000000000000000000, 0.0000000000000000000, 1.481063000000000240 ) ) ;
#279 = AXIS2_PLACEMENT_3D ( 'NONE', #61, #154, #41 ) ;
#280 = ORIENTED_EDGE ( 'NONE', *, *, #161, .F. ) ;
#281 = ORIENTED_EDGE ( 'NONE', *, *, #194, .T. ) ;
#282 = ORIENTED_EDGE ( 'NONE', *, *, #185, .F. ) ;
#283 = UNCERTAINTY_MEASURE_WITH_UNIT (LENGTH_MEASURE( 1.000000000000000082E-05 ), #39, 'distance_accuracy_value', 'NONE');
#284 = ORIENTED_EDGE ( 'NONE', *, *, #170, .F. ) ;
#285 = ORIENTED_EDGE ( 'NONE', *, *, #228, .T. ) ;
#286 =( LENGTH_UNIT ( ) NAMED_UNIT ( * ) SI_UNIT ( $, .METRE. ) );
#287 = DIRECTION ( 'NONE',  ( 1.224646799147352961E-16, 0.0000000000000000000, 1.000000000000000000 ) ) ;
#288 = PLANE ( 'NONE',  #195 ) ;
#289 = SURFACE_SIDE_STYLE ('',( #176 ) ) ;
#290 = FACE_OUTER_BOUND ( 'NONE', #87, .T. ) ;
#291 =( NAMED_UNIT ( * ) PLANE_ANGLE_UNIT ( ) SI_UNIT ( $, .RADIAN. ) );
#292 = ORIENTED_EDGE ( 'NONE', *, *, #60, .T. ) ;
#293 = APPLICATION_PROTOCOL_DEFINITION ( 'draft international standard', 'automotive_design', 1998, #202 ) ;
#294 = FACE_OUTER_BOUND ( 'NONE', #31, .T. ) ;
#295 = ADVANCED_BREP_SHAPE_REPRESENTATION ( 'Micro_GEMM-030-3', ( #98, #85 ), #73 ) ;
#296 = LINE ( 'NONE', #188, #169 ) ;
#297 = CIRCLE ( 'NONE', #17, 0.04405500000000001082 ) ;
#298 = AXIS2_PLACEMENT_3D ( 'NONE', #229, #37, #36 ) ;
#299 = DIRECTION ( 'NONE',  ( 1.000000000000000000, 0.0000000000000000000, 0.0000000000000000000 ) ) ;
ENDSEC;
END-ISO-10303-21;
