ISO-10303-21;
HEADER;
FILE_DESCRIPTION (( 'STEP AP214' ),
    '1' );
FILE_NAME ('59646.STEP',
    '2023-07-24T15:19:04',
    ( '' ),
    ( '' ),
    'SwSTEP 2.0',
    'SolidWorks 2023',
    '' );
FILE_SCHEMA (( 'AUTOMOTIVE_DESIGN' ));
ENDSEC;

DATA;
#1 = DIRECTION ( 'NONE',  ( -1.000000000000000000, 0.000000000000000000, 0.000000000000000000 ) ) ;
#2 = EDGE_LOOP ( 'NONE', ( #24, #41 ) ) ;
#3 =( NAMED_UNIT ( * ) SI_UNIT ( $, .STERADIAN. ) SOLID_ANGLE_UNIT ( ) );
#4 = CARTESIAN_POINT ( 'NONE',  ( 0.000000000000000000, 24.00000000000000000, -8.000000000000000000 ) ) ;
#5 = FILL_AREA_STYLE ('',( #36 ) ) ;
#6 =( LENGTH_UNIT ( ) NAMED_UNIT ( * ) SI_UNIT ( .MILLI., .METRE. ) );
#7 = SURFACE_STYLE_FILL_AREA ( #5 ) ;
#8 = DIRECTION ( 'NONE',  ( 0.000000000000000000, 0.000000000000000000, -1.000000000000000000 ) ) ;
#9 = AXIS2_PLACEMENT_3D ( 'NONE', #307, #138, #163 ) ;
#10 = AXIS2_PLACEMENT_3D ( 'NONE', #59, #280, #115 ) ;
#11 = ORIENTED_EDGE ( 'NONE', *, *, #102, .T. ) ;
#12 = PRODUCT_CONTEXT ( 'NONE', #218, 'mechanical' ) ;
#13 = ADVANCED_FACE ( 'NONE', ( #315 ), #261, .T. ) ;
#14 = DIRECTION ( 'NONE',  ( -1.231212018341879827E-16, 1.000000000000000000, -0.000000000000000000 ) ) ;
#15 = ORIENTED_EDGE ( 'NONE', *, *, #42, .F. ) ;
#16 = DIRECTION ( 'NONE',  ( 1.231212018341879827E-16, -1.000000000000000000, 0.000000000000000000 ) ) ;
#17 = MANIFOLD_SOLID_BREP ( 'Revolve - Tool Body (Straight Shanked)', #258 ) ;
#18 = CARTESIAN_POINT ( 'NONE',  ( 0.000000000000000000, 0.000000000000000000, -7.000000000000000000 ) ) ;
#19 = DIRECTION ( 'NONE',  ( -1.231212018341879827E-16, 1.000000000000000000, -0.000000000000000000 ) ) ;
#20 = AXIS2_PLACEMENT_3D ( 'NONE', #100, #16, #153 ) ;
#21 = FILL_AREA_STYLE ('',( #50 ) ) ;
#22 = FILL_AREA_STYLE ('',( #185 ) ) ;
#23 = ORIENTED_EDGE ( 'NONE', *, *, #58, .T. ) ;
#24 = ORIENTED_EDGE ( 'NONE', *, *, #102, .F. ) ;
#25 = PRODUCT_DEFINITION ( 'UNKNOWN', '', #314, #132 ) ;
#26 = DIRECTION ( 'NONE',  ( -0.000000000000000000, -1.000000000000000000, -0.000000000000000000 ) ) ;
#27 = MECHANICAL_DESIGN_GEOMETRIC_PRESENTATION_REPRESENTATION (  '', ( #217 ), #240 ) ;
#28 = DIRECTION ( 'NONE',  ( -0.000000000000000000, -1.000000000000000000, -0.000000000000000000 ) ) ;
#29 = DIRECTION ( 'NONE',  ( 0.000000000000000000, 1.000000000000000000, 0.000000000000000000 ) ) ;
#30 = ADVANCED_FACE ( 'NONE', ( #234 ), #127, .T. ) ;
#31 =( LENGTH_UNIT ( ) NAMED_UNIT ( * ) SI_UNIT ( .MILLI., .METRE. ) );
#32 = UNCERTAINTY_MEASURE_WITH_UNIT (LENGTH_MEASURE( 1.000000000000000082E-05 ), #349, 'distance_accuracy_value', 'NONE');
#33 = CARTESIAN_POINT ( 'NONE',  ( 0.000000000000000000, 0.000000000000000000, 0.000000000000000000 ) ) ;
#34 = PRESENTATION_LAYER_ASSIGNMENT (  '', '', ( #151 ) ) ;
#35 = AXIS2_PLACEMENT_3D ( 'NONE', #142, #118, #191 ) ;
#36 = FILL_AREA_STYLE_COLOUR ( '', #121 ) ;
#37 = PRODUCT_DEFINITION_SHAPE ( 'NONE', 'NONE',  #25 ) ;
#38 = FILL_AREA_STYLE ('',( #147 ) ) ;
#39 = ADVANCED_FACE ( 'NONE', ( #77 ), #353, .F. ) ;
#40 = ORIENTED_EDGE ( 'NONE', *, *, #65, .T. ) ;
#41 = ORIENTED_EDGE ( 'NONE', *, *, #209, .F. ) ;
#42 = EDGE_CURVE ( 'NONE', #117, #103, #181, .T. ) ;
#43 = SURFACE_STYLE_USAGE ( .BOTH. , #207 ) ;
#44 = UNCERTAINTY_MEASURE_WITH_UNIT (LENGTH_MEASURE( 1.000000000000000082E-05 ), #148, 'distance_accuracy_value', 'NONE');
#45 = CLOSED_SHELL ( 'NONE', ( #352, #131, #30, #52, #13, #246 ) ) ;
#46 = AXIS2_PLACEMENT_3D ( 'NONE', #74, #177, #354 ) ;
#47 = AXIS2_PLACEMENT_3D ( 'NONE', #222, #213, #216 ) ;
#48 =( NAMED_UNIT ( * ) SI_UNIT ( $, .STERADIAN. ) SOLID_ANGLE_UNIT ( ) );
#49 = ORIENTED_EDGE ( 'NONE', *, *, #290, .T. ) ;
#50 = FILL_AREA_STYLE_COLOUR ( '', #204 ) ;
#51 = STYLED_ITEM ( 'NONE', ( #351 ), #30 ) ;
#52 = ADVANCED_FACE ( 'NONE', ( #203 ), #198, .T. ) ;
#53 = CARTESIAN_POINT ( 'NONE',  ( 0.000000000000000000, 1.000000000000000000, 0.000000000000000000 ) ) ;
#54 = CARTESIAN_POINT ( 'NONE',  ( 9.797174393178825657E-16, 0.000000000000000000, 8.000000000000000000 ) ) ;
#55 =( NAMED_UNIT ( * ) PLANE_ANGLE_UNIT ( ) SI_UNIT ( $, .RADIAN. ) );
#56 = ORIENTED_EDGE ( 'NONE', *, *, #109, .T. ) ;
#57 = EDGE_LOOP ( 'NONE', ( #281, #368 ) ) ;
#58 = EDGE_CURVE ( 'NONE', #288, #128, #326, .T. ) ;
#59 = CARTESIAN_POINT ( 'NONE',  ( -1.714505518806293652E-15, 89.00000000000000000, 0.000000000000000000 ) ) ;
#60 =( NAMED_UNIT ( * ) SI_UNIT ( $, .STERADIAN. ) SOLID_ANGLE_UNIT ( ) );
#61 = EDGE_LOOP ( 'NONE', ( #276, #56, #94, #172 ) ) ;
#62 =( GEOMETRIC_REPRESENTATION_CONTEXT ( 3 ) GLOBAL_UNCERTAINTY_ASSIGNED_CONTEXT ( ( #237 ) ) GLOBAL_UNIT_ASSIGNED_CONTEXT ( ( #98, #254, #199 ) ) REPRESENTATION_CONTEXT ( 'NONE', 'WORKASPACE' ) );
#63 = VERTEX_POINT ( 'NONE', #298 ) ;
#64 =( GEOMETRIC_REPRESENTATION_CONTEXT ( 3 ) GLOBAL_UNCERTAINTY_ASSIGNED_CONTEXT ( ( #347 ) ) GLOBAL_UNIT_ASSIGNED_CONTEXT ( ( #76, #269, #324 ) ) REPRESENTATION_CONTEXT ( 'NONE', 'WORKASPACE' ) );
#65 = EDGE_CURVE ( 'NONE', #128, #239, #79, .T. ) ;
#66 = DIRECTION ( 'NONE',  ( -0.000000000000000000, -1.000000000000000000, -0.000000000000000000 ) ) ;
#67 = VERTEX_POINT ( 'NONE', #18 ) ;
#68 = ORIENTED_EDGE ( 'NONE', *, *, #109, .F. ) ;
#69 = AXIS2_PLACEMENT_3D ( 'NONE', #116, #300, #225 ) ;
#70 = DIRECTION ( 'NONE',  ( -0.000000000000000000, -1.000000000000000000, -0.000000000000000000 ) ) ;
#71 = DIRECTION ( 'NONE',  ( 1.000000000000000000, 0.000000000000000000, 0.000000000000000000 ) ) ;
#72 = DIRECTION ( 'NONE',  ( 0.000000000000000000, 0.000000000000000000, -1.000000000000000000 ) ) ;
#73 = UNCERTAINTY_MEASURE_WITH_UNIT (LENGTH_MEASURE( 1.000000000000000082E-05 ), #345, 'distance_accuracy_value', 'NONE');
#74 = CARTESIAN_POINT ( 'NONE',  ( 0.000000000000000000, 1.000000000000000000, 0.000000000000000000 ) ) ;
#75 = EDGE_CURVE ( 'NONE', #67, #239, #266, .T. ) ;
#76 =( LENGTH_UNIT ( ) NAMED_UNIT ( * ) SI_UNIT ( .MILLI., .METRE. ) );
#77 = FACE_OUTER_BOUND ( 'NONE', #83, .T. ) ;
#78 = CARTESIAN_POINT ( 'NONE',  ( 9.184850993605147944E-16, 0.000000000000000000, 7.000000000000000000 ) ) ;
#79 = CIRCLE ( 'NONE', #135, 1.000000000000000000 ) ;
#80 = FACE_OUTER_BOUND ( 'NONE', #238, .T. ) ;
#81 = VECTOR ( 'NONE', #26, 1000.000000000000000 ) ;
#82 = SURFACE_SIDE_STYLE ('',( #333 ) ) ;
#83 = EDGE_LOOP ( 'NONE', ( #256, #248 ) ) ;
#84 = FILL_AREA_STYLE_COLOUR ( '', #179 ) ;
#85 = DIRECTION ( 'NONE',  ( -0.000000000000000000, -1.000000000000000000, -0.000000000000000000 ) ) ;
#86 = EDGE_CURVE ( 'NONE', #103, #110, #264, .T. ) ;
#87 = SURFACE_SIDE_STYLE ('',( #108 ) ) ;
#88 =( LENGTH_UNIT ( ) NAMED_UNIT ( * ) SI_UNIT ( .MILLI., .METRE. ) );
#89 = CIRCLE ( 'NONE', #122, 8.000000000000000000 ) ;
#90 = PLANE ( 'NONE',  #35 ) ;
#91 = SURFACE_STYLE_USAGE ( .BOTH. , #341 ) ;
#92 = SURFACE_STYLE_FILL_AREA ( #125 ) ;
#93 = COLOUR_RGB ( '',1.000000000000000000, 0.000000000000000000, 0.000000000000000000 ) ;
#94 = ORIENTED_EDGE ( 'NONE', *, *, #200, .T. ) ;
#95 = ORIENTED_EDGE ( 'NONE', *, *, #86, .F. ) ;
#96 = UNCERTAINTY_MEASURE_WITH_UNIT (LENGTH_MEASURE( 1.000000000000000082E-05 ), #161, 'distance_accuracy_value', 'NONE');
#97 = ADVANCED_FACE ( 'NONE', ( #367 ), #336, .T. ) ;
#98 =( LENGTH_UNIT ( ) NAMED_UNIT ( * ) SI_UNIT ( .MILLI., .METRE. ) );
#99 = DIRECTION ( 'NONE',  ( 0.000000000000000000, 0.000000000000000000, 1.000000000000000000 ) ) ;
#100 = CARTESIAN_POINT ( 'NONE',  ( 8.000000000000000000, 89.00000000000000000, 0.000000000000000000 ) ) ;
#101 = UNCERTAINTY_MEASURE_WITH_UNIT (LENGTH_MEASURE( 1.000000000000000082E-05 ), #88, 'distance_accuracy_value', 'NONE');
#102 = EDGE_CURVE ( 'NONE', #208, #117, #250, .T. ) ;
#103 = VERTEX_POINT ( 'NONE', #120 ) ;
#104 = CYLINDRICAL_SURFACE ( 'NONE', #291, 7.999999999999996447 ) ;
#105 = CIRCLE ( 'NONE', #320, 7.000000000000000000 ) ;
#106 = CIRCLE ( 'NONE', #363, 1.000000000000000000 ) ;
#107 = DIRECTION ( 'NONE',  ( -0.000000000000000000, -1.000000000000000000, -0.000000000000000000 ) ) ;
#108 = SURFACE_STYLE_FILL_AREA ( #22 ) ;
#109 = EDGE_CURVE ( 'NONE', #63, #286, #313, .T. ) ;
#110 = VERTEX_POINT ( 'NONE', #212 ) ;
#111 = LINE ( 'NONE', #305, #146 ) ;
#112 = AXIS2_PLACEMENT_3D ( 'NONE', #176, #14, #362 ) ;
#113 = AXIS2_PLACEMENT_3D ( 'NONE', #257, #99, #71 ) ;
#114 = ORIENTED_EDGE ( 'NONE', *, *, #224, .T. ) ;
#115 = DIRECTION ( 'NONE',  ( -1.000000000000000000, 0.000000000000000000, 0.000000000000000000 ) ) ;
#116 = CARTESIAN_POINT ( 'NONE',  ( 0.000000000000000000, 24.00000000000000000, 0.000000000000000000 ) ) ;
#117 = VERTEX_POINT ( 'NONE', #137 ) ;
#118 = DIRECTION ( 'NONE',  ( -1.231212018341879827E-16, 1.000000000000000000, 0.000000000000000000 ) ) ;
#119 = CARTESIAN_POINT ( 'NONE',  ( 0.000000000000000000, 1.000000000000000000, -8.000000000000000000 ) ) ;
#120 = CARTESIAN_POINT ( 'NONE',  ( 8.000000000000000000, 89.00000000000000000, 9.797174393178825657E-16 ) ) ;
#121 = COLOUR_RGB ( '',0.7921568627450980005, 0.8196078431372548767, 0.9333333333333333481 ) ;
#122 = AXIS2_PLACEMENT_3D ( 'NONE', #134, #243, #359 ) ;
#123 = STYLED_ITEM ( 'NONE', ( #283 ), #352 ) ;
#124 = FILL_AREA_STYLE ('',( #168 ) ) ;
#125 = FILL_AREA_STYLE ('',( #346 ) ) ;
#126 = SURFACE_STYLE_FILL_AREA ( #38 ) ;
#127 = PLANE ( 'NONE',  #129 ) ;
#128 = VERTEX_POINT ( 'NONE', #221 ) ;
#129 = AXIS2_PLACEMENT_3D ( 'NONE', #244, #155, #72 ) ;
#130 = COLOUR_RGB ( '',1.000000000000000000, 0.000000000000000000, 0.000000000000000000 ) ;
#131 = ADVANCED_FACE ( 'NONE', ( #80 ), #210, .T. ) ;
#132 = PRODUCT_DEFINITION_CONTEXT ( 'detailed design', #232, 'design' ) ;
#133 = CARTESIAN_POINT ( 'NONE',  ( 0.000000000000000000, 0.000000000000000000, 0.000000000000000000 ) ) ;
#134 = CARTESIAN_POINT ( 'NONE',  ( 0.000000000000000000, 1.000000000000000000, 0.000000000000000000 ) ) ;
#135 = AXIS2_PLACEMENT_3D ( 'NONE', #296, #272, #271 ) ;
#136 = DIRECTION ( 'NONE',  ( -0.000000000000000000, -1.000000000000000000, -0.000000000000000000 ) ) ;
#137 = CARTESIAN_POINT ( 'NONE',  ( 8.000000000000000000, 23.99999999999999289, 9.797174393178825657E-16 ) ) ;
#138 = DIRECTION ( 'NONE',  ( -1.231212018341879827E-16, 1.000000000000000000, -0.000000000000000000 ) ) ;
#139 = FACE_OUTER_BOUND ( 'NONE', #364, .T. ) ;
#140 = AXIS2_PLACEMENT_3D ( 'NONE', #334, #85, #231 ) ;
#141 = ADVANCED_FACE ( 'NONE', ( #330 ), #104, .T. ) ;
#142 = CARTESIAN_POINT ( 'NONE',  ( 6.288372600415925717E-15, 24.00000000000000000, 0.000000000000000000 ) ) ;
#143 = SURFACE_SIDE_STYLE ('',( #338 ) ) ;
#144 = PRESENTATION_STYLE_ASSIGNMENT (( #311 ) ) ;
#145 = FILL_AREA_STYLE ('',( #84 ) ) ;
#146 = VECTOR ( 'NONE', #28, 1000.000000000000000 ) ;
#147 = FILL_AREA_STYLE_COLOUR ( '', #319 ) ;
#148 =( LENGTH_UNIT ( ) NAMED_UNIT ( * ) SI_UNIT ( .MILLI., .METRE. ) );
#149 = ORIENTED_EDGE ( 'NONE', *, *, #209, .T. ) ;
#150 = EDGE_CURVE ( 'NONE', #128, #288, #89, .T. ) ;
#151 = STYLED_ITEM ( 'NONE', ( #287 ), #13 ) ;
#152 = MECHANICAL_DESIGN_GEOMETRIC_PRESENTATION_REPRESENTATION (  '', ( #259 ), #64 ) ;
#153 = DIRECTION ( 'NONE',  ( 1.000000000000000000, 1.231212018341879827E-16, 0.000000000000000000 ) ) ;
#154 = EDGE_CURVE ( 'NONE', #239, #67, #105, .T. ) ;
#155 = DIRECTION ( 'NONE',  ( 0.000000000000000000, -1.000000000000000000, -0.000000000000000000 ) ) ;
#156 = AXIS2_PLACEMENT_3D ( 'NONE', #33, #66, #8 ) ;
#157 = PRESENTATION_LAYER_ASSIGNMENT (  '', '', ( #217 ) ) ;
#158 = CIRCLE ( 'NONE', #140, 8.000000000000000000 ) ;
#159 = PRESENTATION_STYLE_ASSIGNMENT (( #43 ) ) ;
#160 = DIRECTION ( 'NONE',  ( 0.000000000000000000, 0.000000000000000000, -1.000000000000000000 ) ) ;
#161 =( LENGTH_UNIT ( ) NAMED_UNIT ( * ) SI_UNIT ( .MILLI., .METRE. ) );
#162 = SURFACE_SIDE_STYLE ('',( #126 ) ) ;
#163 = DIRECTION ( 'NONE',  ( -1.000000000000000000, 0.000000000000000000, 0.000000000000000000 ) ) ;
#164 = ORIENTED_EDGE ( 'NONE', *, *, #270, .F. ) ;
#165 =( GEOMETRIC_REPRESENTATION_CONTEXT ( 3 ) GLOBAL_UNCERTAINTY_ASSIGNED_CONTEXT ( ( #101 ) ) GLOBAL_UNIT_ASSIGNED_CONTEXT ( ( #88, #361, #60 ) ) REPRESENTATION_CONTEXT ( 'NONE', 'WORKASPACE' ) );
#166 = AXIS2_PLACEMENT_3D ( 'NONE', #187, #29, #370 ) ;
#167 = DIRECTION ( 'NONE',  ( -1.231212018341879827E-16, 1.000000000000000000, -0.000000000000000000 ) ) ;
#168 = FILL_AREA_STYLE_COLOUR ( '', #357 ) ;
#169 = ORIENTED_EDGE ( 'NONE', *, *, #214, .F. ) ;
#170 = PRESENTATION_LAYER_ASSIGNMENT (  '', '', ( #235 ) ) ;
#171 =( NAMED_UNIT ( * ) SI_UNIT ( $, .STERADIAN. ) SOLID_ANGLE_UNIT ( ) );
#172 = ORIENTED_EDGE ( 'NONE', *, *, #150, .F. ) ;
#173 =( NAMED_UNIT ( * ) PLANE_ANGLE_UNIT ( ) SI_UNIT ( $, .RADIAN. ) );
#174 = AXIS2_PLACEMENT_3D ( 'NONE', #133, #136, #263 ) ;
#175 =( GEOMETRIC_REPRESENTATION_CONTEXT ( 3 ) GLOBAL_UNCERTAINTY_ASSIGNED_CONTEXT ( ( #44 ) ) GLOBAL_UNIT_ASSIGNED_CONTEXT ( ( #148, #55, #306 ) ) REPRESENTATION_CONTEXT ( 'NONE', 'WORKASPACE' ) );
#176 = CARTESIAN_POINT ( 'NONE',  ( -1.714505518806293652E-15, 89.00000000000000000, 0.000000000000000000 ) ) ;
#177 = DIRECTION ( 'NONE',  ( -0.000000000000000000, -1.000000000000000000, -0.000000000000000000 ) ) ;
#178 = MECHANICAL_DESIGN_GEOMETRIC_PRESENTATION_REPRESENTATION (  '', ( #294 ), #165 ) ;
#179 = COLOUR_RGB ( '',1.000000000000000000, 0.000000000000000000, 0.000000000000000000 ) ;
#180 = DIRECTION ( 'NONE',  ( 0.000000000000000000, 0.000000000000000000, -1.000000000000000000 ) ) ;
#181 = LINE ( 'NONE', #265, #331 ) ;
#182 = MECHANICAL_DESIGN_GEOMETRIC_PRESENTATION_REPRESENTATION (  '', ( #235 ), #285 ) ;
#183 = FACE_OUTER_BOUND ( 'NONE', #2, .T. ) ;
#184 = SURFACE_STYLE_USAGE ( .BOTH. , #143 ) ;
#185 = FILL_AREA_STYLE_COLOUR ( '', #93 ) ;
#186 = ORIENTED_EDGE ( 'NONE', *, *, #75, .F. ) ;
#187 = CARTESIAN_POINT ( 'NONE',  ( 0.000000000000000000, 24.00000000000000000, 0.000000000000000000 ) ) ;
#188 = ADVANCED_BREP_SHAPE_REPRESENTATION ( '59646', ( #262, #17, #113 ), #267 ) ;
#189 = SURFACE_STYLE_USAGE ( .BOTH. , #87 ) ;
#190 = AXIS2_PLACEMENT_3D ( 'NONE', #327, #70, #180 ) ;
#191 = DIRECTION ( 'NONE',  ( -1.000000000000000000, -1.231212018341879827E-16, 0.000000000000000000 ) ) ;
#192 = ORIENTED_EDGE ( 'NONE', *, *, #200, .F. ) ;
#193 = SURFACE_STYLE_FILL_AREA ( #145 ) ;
#194 = PRESENTATION_STYLE_ASSIGNMENT (( #91 ) ) ;
#195 =( NAMED_UNIT ( * ) PLANE_ANGLE_UNIT ( ) SI_UNIT ( $, .RADIAN. ) );
#196 = COLOUR_RGB ( '',1.000000000000000000, 0.000000000000000000, 0.000000000000000000 ) ;
#197 = PRODUCT ( '59646', '59646', '', ( #12 ) ) ;
#198 = TOROIDAL_SURFACE ( 'NONE', #46, 7.000000000000000000, 1.000000000000000000 ) ;
#199 =( NAMED_UNIT ( * ) SI_UNIT ( $, .STERADIAN. ) SOLID_ANGLE_UNIT ( ) );
#200 = EDGE_CURVE ( 'NONE', #286, #288, #111, .T. ) ;
#201 = EDGE_LOOP ( 'NONE', ( #252, #348, #247, #343 ) ) ;
#202 = CARTESIAN_POINT ( 'NONE',  ( 0.000000000000000000, 1.000000000000000000, -7.000000000000000000 ) ) ;
#203 = FACE_OUTER_BOUND ( 'NONE', #201, .T. ) ;
#204 = COLOUR_RGB ( '',1.000000000000000000, 0.000000000000000000, 0.000000000000000000 ) ;
#205 = ADVANCED_FACE ( 'NONE', ( #183 ), #90, .F. ) ;
#206 = SHAPE_DEFINITION_REPRESENTATION ( #37, #188 ) ;
#207 = SURFACE_SIDE_STYLE ('',( #241 ) ) ;
#208 = VERTEX_POINT ( 'NONE', #275 ) ;
#209 = EDGE_CURVE ( 'NONE', #117, #208, #295, .T. ) ;
#210 = TOROIDAL_SURFACE ( 'NONE', #273, 7.000000000000000000, 1.000000000000000000 ) ;
#211 = CARTESIAN_POINT ( 'NONE',  ( -1.714505518806293849E-15, 89.00000000000000000, 0.000000000000000000 ) ) ;
#212 = CARTESIAN_POINT ( 'NONE',  ( -8.000000000000003553, 89.00000000000000000, 0.000000000000000000 ) ) ;
#213 = DIRECTION ( 'NONE',  ( -1.231212018341879827E-16, 1.000000000000000000, -0.000000000000000000 ) ) ;
#214 = EDGE_CURVE ( 'NONE', #208, #110, #219, .T. ) ;
#215 = MECHANICAL_DESIGN_GEOMETRIC_PRESENTATION_REPRESENTATION (  '', ( #151 ), #62 ) ;
#216 = DIRECTION ( 'NONE',  ( -1.000000000000000000, 0.000000000000000000, 0.000000000000000000 ) ) ;
#217 = STYLED_ITEM ( 'NONE', ( #309 ), #262 ) ;
#218 = APPLICATION_CONTEXT ( 'automotive_design' ) ;
#219 = LINE ( 'NONE', #329, #230 ) ;
#220 =( NAMED_UNIT ( * ) PLANE_ANGLE_UNIT ( ) SI_UNIT ( $, .RADIAN. ) );
#221 = CARTESIAN_POINT ( 'NONE',  ( 9.797174393178825657E-16, 1.000000000000000000, 8.000000000000000000 ) ) ;
#222 = CARTESIAN_POINT ( 'NONE',  ( 6.288372600415925717E-15, 23.99999999999999289, 0.000000000000000000 ) ) ;
#223 = FILL_AREA_STYLE_COLOUR ( '', #130 ) ;
#224 = EDGE_CURVE ( 'NONE', #63, #128, #302, .T. ) ;
#225 = DIRECTION ( 'NONE',  ( 0.000000000000000000, 0.000000000000000000, -1.000000000000000000 ) ) ;
#226 = ORIENTED_EDGE ( 'NONE', *, *, #58, .F. ) ;
#227 = SURFACE_SIDE_STYLE ('',( #193 ) ) ;
#228 =( GEOMETRIC_REPRESENTATION_CONTEXT ( 3 ) GLOBAL_UNCERTAINTY_ASSIGNED_CONTEXT ( ( #73 ) ) GLOBAL_UNIT_ASSIGNED_CONTEXT ( ( #345, #173, #171 ) ) REPRESENTATION_CONTEXT ( 'NONE', 'WORKASPACE' ) );
#229 = AXIS2_PLACEMENT_3D ( 'NONE', #360, #167, #1 ) ;
#230 = VECTOR ( 'NONE', #337, 1000.000000000000000 ) ;
#231 = DIRECTION ( 'NONE',  ( 0.000000000000000000, 0.000000000000000000, -1.000000000000000000 ) ) ;
#232 = APPLICATION_CONTEXT ( 'automotive_design' ) ;
#233 = EDGE_LOOP ( 'NONE', ( #15, #149, #282, #95 ) ) ;
#234 = FACE_OUTER_BOUND ( 'NONE', #57, .T. ) ;
#235 = STYLED_ITEM ( 'NONE', ( #144 ), #246 ) ;
#236 = SURFACE_SIDE_STYLE ('',( #92 ) ) ;
#237 = UNCERTAINTY_MEASURE_WITH_UNIT (LENGTH_MEASURE( 1.000000000000000082E-05 ), #98, 'distance_accuracy_value', 'NONE');
#238 = EDGE_LOOP ( 'NONE', ( #23, #40, #186, #317 ) ) ;
#239 = VERTEX_POINT ( 'NONE', #78 ) ;
#240 =( GEOMETRIC_REPRESENTATION_CONTEXT ( 3 ) GLOBAL_UNCERTAINTY_ASSIGNED_CONTEXT ( ( #293 ) ) GLOBAL_UNIT_ASSIGNED_CONTEXT ( ( #31, #251, #3 ) ) REPRESENTATION_CONTEXT ( 'NONE', 'WORKASPACE' ) );
#241 = SURFACE_STYLE_FILL_AREA ( #21 ) ;
#242 = DIRECTION ( 'NONE',  ( -1.231212018341879827E-16, 1.000000000000000000, -0.000000000000000000 ) ) ;
#243 = DIRECTION ( 'NONE',  ( -0.000000000000000000, -1.000000000000000000, -0.000000000000000000 ) ) ;
#244 = CARTESIAN_POINT ( 'NONE',  ( 0.000000000000000000, 0.000000000000000000, 0.000000000000000000 ) ) ;
#245 = PRESENTATION_STYLE_ASSIGNMENT (( #189 ) ) ;
#246 = ADVANCED_FACE ( 'NONE', ( #139 ), #279, .T. ) ;
#247 = ORIENTED_EDGE ( 'NONE', *, *, #365, .T. ) ;
#248 = ORIENTED_EDGE ( 'NONE', *, *, #86, .T. ) ;
#249 = STYLED_ITEM ( 'NONE', ( #194 ), #17 ) ;
#250 = CIRCLE ( 'NONE', #229, 7.999999999999992895 ) ;
#251 =( NAMED_UNIT ( * ) PLANE_ANGLE_UNIT ( ) SI_UNIT ( $, .RADIAN. ) );
#252 = ORIENTED_EDGE ( 'NONE', *, *, #65, .F. ) ;
#253 = CYLINDRICAL_SURFACE ( 'NONE', #301, 8.000000000000000000 ) ;
#254 =( NAMED_UNIT ( * ) PLANE_ANGLE_UNIT ( ) SI_UNIT ( $, .RADIAN. ) );
#255 =( NAMED_UNIT ( * ) SI_UNIT ( $, .STERADIAN. ) SOLID_ANGLE_UNIT ( ) );
#256 = ORIENTED_EDGE ( 'NONE', *, *, #270, .T. ) ;
#257 = CARTESIAN_POINT ( 'NONE',  ( 0.000000000000000000, 0.000000000000000000, 0.000000000000000000 ) ) ;
#258 = CLOSED_SHELL ( 'NONE', ( #97, #205, #141, #39 ) ) ;
#259 = STYLED_ITEM ( 'NONE', ( #159 ), #52 ) ;
#260 = DIRECTION ( 'NONE',  ( -0.000000000000000000, -1.000000000000000000, -0.000000000000000000 ) ) ;
#261 = CYLINDRICAL_SURFACE ( 'NONE', #156, 8.000000000000000000 ) ;
#262 = MANIFOLD_SOLID_BREP ( 'Revolve - Cutting Edge', #45 ) ;
#263 = DIRECTION ( 'NONE',  ( 0.000000000000000000, 0.000000000000000000, -1.000000000000000000 ) ) ;
#264 = CIRCLE ( 'NONE', #112, 8.000000000000001776 ) ;
#265 = CARTESIAN_POINT ( 'NONE',  ( 7.999999999999994671, 89.00000000000000000, 9.797174393178821713E-16 ) ) ;
#266 = CIRCLE ( 'NONE', #174, 7.000000000000000000 ) ;
#267 =( GEOMETRIC_REPRESENTATION_CONTEXT ( 3 ) GLOBAL_UNCERTAINTY_ASSIGNED_CONTEXT ( ( #32 ) ) GLOBAL_UNIT_ASSIGNED_CONTEXT ( ( #349, #195, #255 ) ) REPRESENTATION_CONTEXT ( 'NONE', 'WORKASPACE' ) );
#268 = DIRECTION ( 'NONE',  ( -1.000000000000000000, 0.000000000000000000, 0.000000000000000000 ) ) ;
#269 =( NAMED_UNIT ( * ) PLANE_ANGLE_UNIT ( ) SI_UNIT ( $, .RADIAN. ) );
#270 = EDGE_CURVE ( 'NONE', #110, #103, #274, .T. ) ;
#271 = DIRECTION ( 'NONE',  ( -1.224646799147353454E-16, 0.000000000000000000, -1.000000000000000000 ) ) ;
#272 = DIRECTION ( 'NONE',  ( 1.000000000000000000, 0.000000000000000000, -1.224646799147353207E-16 ) ) ;
#273 = AXIS2_PLACEMENT_3D ( 'NONE', #53, #297, #160 ) ;
#274 = CIRCLE ( 'NONE', #10, 8.000000000000001776 ) ;
#275 = CARTESIAN_POINT ( 'NONE',  ( -7.999999999999986677, 23.99999999999999289, 0.000000000000000000 ) ) ;
#276 = ORIENTED_EDGE ( 'NONE', *, *, #224, .F. ) ;
#277 = EDGE_LOOP ( 'NONE', ( #49, #114, #226, #192 ) ) ;
#278 = DIRECTION ( 'NONE',  ( 0.000000000000000000, 0.000000000000000000, -1.000000000000000000 ) ) ;
#279 = PLANE ( 'NONE',  #166 ) ;
#280 = DIRECTION ( 'NONE',  ( -1.231212018341879827E-16, 1.000000000000000000, -0.000000000000000000 ) ) ;
#281 = ORIENTED_EDGE ( 'NONE', *, *, #75, .T. ) ;
#282 = ORIENTED_EDGE ( 'NONE', *, *, #214, .T. ) ;
#283 = PRESENTATION_STYLE_ASSIGNMENT (( #340 ) ) ;
#284 = PRESENTATION_LAYER_ASSIGNMENT (  '', '', ( #51 ) ) ;
#285 =( GEOMETRIC_REPRESENTATION_CONTEXT ( 3 ) GLOBAL_UNCERTAINTY_ASSIGNED_CONTEXT ( ( #323 ) ) GLOBAL_UNIT_ASSIGNED_CONTEXT ( ( #6, #220, #366 ) ) REPRESENTATION_CONTEXT ( 'NONE', 'WORKASPACE' ) );
#286 = VERTEX_POINT ( 'NONE', #4 ) ;
#287 = PRESENTATION_STYLE_ASSIGNMENT (( #310 ) ) ;
#288 = VERTEX_POINT ( 'NONE', #119 ) ;
#289 = DIRECTION ( 'NONE',  ( 0.000000000000000000, 0.000000000000000000, 1.000000000000000000 ) ) ;
#290 = EDGE_CURVE ( 'NONE', #286, #63, #158, .T. ) ;
#291 = AXIS2_PLACEMENT_3D ( 'NONE', #211, #19, #268 ) ;
#292 =( NAMED_UNIT ( * ) PLANE_ANGLE_UNIT ( ) SI_UNIT ( $, .RADIAN. ) );
#293 = UNCERTAINTY_MEASURE_WITH_UNIT (LENGTH_MEASURE( 1.000000000000000082E-05 ), #31, 'distance_accuracy_value', 'NONE');
#294 = STYLED_ITEM ( 'NONE', ( #245 ), #131 ) ;
#295 = CIRCLE ( 'NONE', #47, 7.999999999999992895 ) ;
#296 = CARTESIAN_POINT ( 'NONE',  ( 8.572527594031473190E-16, 1.000000000000000000, 7.000000000000000000 ) ) ;
#297 = DIRECTION ( 'NONE',  ( -0.000000000000000000, -1.000000000000000000, -0.000000000000000000 ) ) ;
#298 = CARTESIAN_POINT ( 'NONE',  ( 9.797174393178825657E-16, 24.00000000000000000, 8.000000000000000000 ) ) ;
#299 = CARTESIAN_POINT ( 'NONE',  ( 0.000000000000000000, 0.000000000000000000, 0.000000000000000000 ) ) ;
#300 = DIRECTION ( 'NONE',  ( -0.000000000000000000, -1.000000000000000000, -0.000000000000000000 ) ) ;
#301 = AXIS2_PLACEMENT_3D ( 'NONE', #322, #260, #316 ) ;
#302 = LINE ( 'NONE', #54, #81 ) ;
#303 = FACE_OUTER_BOUND ( 'NONE', #277, .T. ) ;
#304 = ORIENTED_EDGE ( 'NONE', *, *, #42, .T. ) ;
#305 = CARTESIAN_POINT ( 'NONE',  ( 0.000000000000000000, 0.000000000000000000, -8.000000000000000000 ) ) ;
#306 =( NAMED_UNIT ( * ) SI_UNIT ( $, .STERADIAN. ) SOLID_ANGLE_UNIT ( ) );
#307 = CARTESIAN_POINT ( 'NONE',  ( -1.714505518806293849E-15, 89.00000000000000000, 0.000000000000000000 ) ) ;
#308 = PRESENTATION_LAYER_ASSIGNMENT (  '', '', ( #259 ) ) ;
#309 = PRESENTATION_STYLE_ASSIGNMENT (( #184 ) ) ;
#310 = SURFACE_STYLE_USAGE ( .BOTH. , #236 ) ;
#311 = SURFACE_STYLE_USAGE ( .BOTH. , #227 ) ;
#312 = APPLICATION_PROTOCOL_DEFINITION ( 'draft international standard', 'automotive_design', 1998, #232 ) ;
#313 = CIRCLE ( 'NONE', #69, 8.000000000000000000 ) ;
#314 = PRODUCT_DEFINITION_FORMATION_WITH_SPECIFIED_SOURCE ( 'ANY', '', #197, .NOT_KNOWN. ) ;
#315 = FACE_OUTER_BOUND ( 'NONE', #61, .T. ) ;
#316 = DIRECTION ( 'NONE',  ( 0.000000000000000000, 0.000000000000000000, -1.000000000000000000 ) ) ;
#317 = ORIENTED_EDGE ( 'NONE', *, *, #365, .F. ) ;
#318 = APPLICATION_PROTOCOL_DEFINITION ( 'draft international standard', 'automotive_design', 1998, #218 ) ;
#319 = COLOUR_RGB ( '',1.000000000000000000, 0.000000000000000000, 0.000000000000000000 ) ;
#320 = AXIS2_PLACEMENT_3D ( 'NONE', #299, #107, #278 ) ;
#321 = MECHANICAL_DESIGN_GEOMETRIC_PRESENTATION_REPRESENTATION (  '', ( #123 ), #175 ) ;
#322 = CARTESIAN_POINT ( 'NONE',  ( 0.000000000000000000, 0.000000000000000000, 0.000000000000000000 ) ) ;
#323 = UNCERTAINTY_MEASURE_WITH_UNIT (LENGTH_MEASURE( 1.000000000000000082E-05 ), #6, 'distance_accuracy_value', 'NONE');
#324 =( NAMED_UNIT ( * ) SI_UNIT ( $, .STERADIAN. ) SOLID_ANGLE_UNIT ( ) );
#325 = PRESENTATION_LAYER_ASSIGNMENT (  '', '', ( #249 ) ) ;
#326 = CIRCLE ( 'NONE', #190, 8.000000000000000000 ) ;
#327 = CARTESIAN_POINT ( 'NONE',  ( 0.000000000000000000, 1.000000000000000000, 0.000000000000000000 ) ) ;
#328 = SURFACE_STYLE_USAGE ( .BOTH. , #162 ) ;
#329 = CARTESIAN_POINT ( 'NONE',  ( -7.999999999999998224, 89.00000000000000000, 0.000000000000000000 ) ) ;
#330 = FACE_OUTER_BOUND ( 'NONE', #233, .T. ) ;
#331 = VECTOR ( 'NONE', #242, 1000.000000000000000 ) ;
#332 = PRESENTATION_LAYER_ASSIGNMENT (  '', '', ( #123 ) ) ;
#333 = SURFACE_STYLE_FILL_AREA ( #339 ) ;
#334 = CARTESIAN_POINT ( 'NONE',  ( 0.000000000000000000, 24.00000000000000000, 0.000000000000000000 ) ) ;
#335 = PRODUCT_RELATED_PRODUCT_CATEGORY ( 'part', '', ( #197 ) ) ;
#336 = CYLINDRICAL_SURFACE ( 'NONE', #9, 7.999999999999996447 ) ;
#337 = DIRECTION ( 'NONE',  ( -1.231212018341879827E-16, 1.000000000000000000, -0.000000000000000000 ) ) ;
#338 = SURFACE_STYLE_FILL_AREA ( #124 ) ;
#339 = FILL_AREA_STYLE ('',( #223 ) ) ;
#340 = SURFACE_STYLE_USAGE ( .BOTH. , #82 ) ;
#341 = SURFACE_SIDE_STYLE ('',( #7 ) ) ;
#342 = DIRECTION ( 'NONE',  ( -1.000000000000000000, 0.000000000000000000, 0.000000000000000000 ) ) ;
#343 = ORIENTED_EDGE ( 'NONE', *, *, #154, .F. ) ;
#344 = PRESENTATION_LAYER_ASSIGNMENT (  '', '', ( #294 ) ) ;
#345 =( LENGTH_UNIT ( ) NAMED_UNIT ( * ) SI_UNIT ( .MILLI., .METRE. ) );
#346 = FILL_AREA_STYLE_COLOUR ( '', #196 ) ;
#347 = UNCERTAINTY_MEASURE_WITH_UNIT (LENGTH_MEASURE( 1.000000000000000082E-05 ), #76, 'distance_accuracy_value', 'NONE');
#348 = ORIENTED_EDGE ( 'NONE', *, *, #150, .T. ) ;
#349 =( LENGTH_UNIT ( ) NAMED_UNIT ( * ) SI_UNIT ( .MILLI., .METRE. ) );
#350 =( GEOMETRIC_REPRESENTATION_CONTEXT ( 3 ) GLOBAL_UNCERTAINTY_ASSIGNED_CONTEXT ( ( #96 ) ) GLOBAL_UNIT_ASSIGNED_CONTEXT ( ( #161, #292, #48 ) ) REPRESENTATION_CONTEXT ( 'NONE', 'WORKASPACE' ) );
#351 = PRESENTATION_STYLE_ASSIGNMENT (( #328 ) ) ;
#352 = ADVANCED_FACE ( 'NONE', ( #303 ), #253, .T. ) ;
#353 = PLANE ( 'NONE',  #20 ) ;
#354 = DIRECTION ( 'NONE',  ( 0.000000000000000000, 0.000000000000000000, -1.000000000000000000 ) ) ;
#355 = MECHANICAL_DESIGN_GEOMETRIC_PRESENTATION_REPRESENTATION (  '', ( #249 ), #228 ) ;
#356 = MECHANICAL_DESIGN_GEOMETRIC_PRESENTATION_REPRESENTATION (  '', ( #51 ), #350 ) ;
#357 = COLOUR_RGB ( '',0.7921568627450980005, 0.8196078431372548767, 0.9333333333333333481 ) ;
#358 = ORIENTED_EDGE ( 'NONE', *, *, #290, .F. ) ;
#359 = DIRECTION ( 'NONE',  ( 0.000000000000000000, 0.000000000000000000, -1.000000000000000000 ) ) ;
#360 = CARTESIAN_POINT ( 'NONE',  ( 6.288372600415925717E-15, 23.99999999999999289, 0.000000000000000000 ) ) ;
#361 =( NAMED_UNIT ( * ) PLANE_ANGLE_UNIT ( ) SI_UNIT ( $, .RADIAN. ) );
#362 = DIRECTION ( 'NONE',  ( -1.000000000000000000, 0.000000000000000000, 0.000000000000000000 ) ) ;
#363 = AXIS2_PLACEMENT_3D ( 'NONE', #202, #342, #289 ) ;
#364 = EDGE_LOOP ( 'NONE', ( #358, #68 ) ) ;
#365 = EDGE_CURVE ( 'NONE', #288, #67, #106, .T. ) ;
#366 =( NAMED_UNIT ( * ) SI_UNIT ( $, .STERADIAN. ) SOLID_ANGLE_UNIT ( ) );
#367 = FACE_OUTER_BOUND ( 'NONE', #369, .T. ) ;
#368 = ORIENTED_EDGE ( 'NONE', *, *, #154, .T. ) ;
#369 = EDGE_LOOP ( 'NONE', ( #11, #304, #164, #169 ) ) ;
#370 = DIRECTION ( 'NONE',  ( 0.000000000000000000, -0.000000000000000000, 1.000000000000000000 ) ) ;
ENDSEC;
END-ISO-10303-21;
