ISO-10303-21;
HEADER;
FILE_DESCRIPTION (( 'STEP AP214' ),
    '1' );
FILE_NAME ('Micro_SBMM-100-472.STEP',
    '2021-09-02T17:23:53',
    ( '' ),
    ( '' ),
    'SwSTEP 2.0',
    'SolidWorks 2020',
    '' );
FILE_SCHEMA (( 'AUTOMOTIVE_DESIGN' ));
ENDSEC;

DATA;
#1 = VERTEX_POINT ( 'NONE', #146 ) ;
#2 = LENGTH_MEASURE_WITH_UNIT ( LENGTH_MEASURE( 0.02539999999999999897 ), #151 );
#3 = ORIENTED_EDGE ( 'NONE', *, *, #210, .F. ) ;
#4 = DIRECTION ( 'NONE',  ( 0.0000000000000000000, 0.0000000000000000000, 1.000000000000000000 ) ) ;
#5 = CIRCLE ( 'NONE', #324, 0.1318899999999997574 ) ;
#6 = FACE_OUTER_BOUND ( 'NONE', #154, .T. ) ;
#7 = DIMENSIONAL_EXPONENTS ( 1.000000000000000000, 0.0000000000000000000, 0.0000000000000000000, 0.0000000000000000000, 0.0000000000000000000, 0.0000000000000000000, 0.0000000000000000000 ) ;
#8 = CARTESIAN_POINT ( 'NONE',  ( -0.1818504999999994431, 0.0000000000000000000, 3.937007999999999619 ) ) ;
#9 = ADVANCED_FACE ( 'NONE', ( #258 ), #62, .T. ) ;
#10 = CARTESIAN_POINT ( 'NONE',  ( -0.1968504999999999838, 0.0000000000000000000, 2.677165000000000017 ) ) ;
#11 = CONICAL_SURFACE ( 'NONE', #110, 0.1818504999999994431, 0.7853981633974403964 ) ;
#12 = VECTOR ( 'NONE', #248, 39.37007874015748143 ) ;
#13 = DIRECTION ( 'NONE',  ( -0.0000000000000000000, -0.0000000000000000000, -1.000000000000000000 ) ) ;
#14 = FACE_OUTER_BOUND ( 'NONE', #97, .T. ) ;
#15 = FILL_AREA_STYLE_COLOUR ( '', #251 ) ;
#16 = CIRCLE ( 'NONE', #149, 0.1318899999999999517 ) ;
#17 = AXIS2_PLACEMENT_3D ( 'NONE', #171, #300, #221 ) ;
#18 = DIRECTION ( 'NONE',  ( 0.0000000000000000000, 1.000000000000000000, 0.0000000000000000000 ) ) ;
#19 = LINE ( 'NONE', #329, #338 ) ;
#20 = EDGE_CURVE ( 'NONE', #280, #29, #50, .T. ) ;
#21 = AXIS2_PLACEMENT_3D ( 'NONE', #189, #155, #291 ) ;
#22 = LENGTH_MEASURE_WITH_UNIT ( LENGTH_MEASURE( 0.02539999999999999897 ), #24 );
#23 = EDGE_CURVE ( 'NONE', #1, #275, #175, .T. ) ;
#24 =( LENGTH_UNIT ( ) NAMED_UNIT ( * ) SI_UNIT ( $, .METRE. ) );
#25 = ORIENTED_EDGE ( 'NONE', *, *, #20, .F. ) ;
#26 = EDGE_LOOP ( 'NONE', ( #30, #152, #195, #28, #229 ) ) ;
#27 = AXIS2_PLACEMENT_3D ( 'NONE', #192, #13, #188 ) ;
#28 = ORIENTED_EDGE ( 'NONE', *, *, #235, .F. ) ;
#29 = VERTEX_POINT ( 'NONE', #313 ) ;
#30 = ORIENTED_EDGE ( 'NONE', *, *, #89, .F. ) ;
#31 = DIRECTION ( 'NONE',  ( 1.000000000000000000, 0.0000000000000000000, 0.0000000000000000000 ) ) ;
#32 = CONICAL_SURFACE ( 'NONE', #304, 0.2165355499999996880, 0.1262477912956223025 ) ;
#33 = STYLED_ITEM ( 'NONE', ( #178 ), #244 ) ;
#34 = PRODUCT_DEFINITION ( 'UNKNOWN', '', #325, #69 ) ;
#35 = LINE ( 'NONE', #8, #289 ) ;
#36 = DIMENSIONAL_EXPONENTS ( 1.000000000000000000, 0.0000000000000000000, 0.0000000000000000000, 0.0000000000000000000, 0.0000000000000000000, 0.0000000000000000000, 0.0000000000000000000 ) ;
#37 = CARTESIAN_POINT ( 'NONE',  ( 0.0000000000000000000, 0.0000000000000000000, 0.1968500000000000250 ) ) ;
#38 = DIRECTION ( 'NONE',  ( 1.000000000000000000, 1.224646799147353207E-16, -0.0000000000000000000 ) ) ;
#39 = VECTOR ( 'NONE', #58, 39.37007874015748854 ) ;
#40 = PLANE ( 'NONE',  #17 ) ;
#41 = PRESENTATION_STYLE_ASSIGNMENT (( #249 ) ) ;
#42 = ORIENTED_EDGE ( 'NONE', *, *, #23, .F. ) ;
#43 = CARTESIAN_POINT ( 'NONE',  ( -0.1818504999999994431, 0.0000000000000000000, 3.937007999999999619 ) ) ;
#44 = CYLINDRICAL_SURFACE ( 'NONE', #150, 0.1968504999999999838 ) ;
#45 =( LENGTH_UNIT ( ) NAMED_UNIT ( * ) SI_UNIT ( $, .METRE. ) );
#46 = ORIENTED_EDGE ( 'NONE', *, *, #57, .T. ) ;
#47 = UNCERTAINTY_MEASURE_WITH_UNIT (LENGTH_MEASURE( 1.000000000000000082E-05 ), #112, 'distance_accuracy_value', 'NONE');
#48 = ORIENTED_EDGE ( 'NONE', *, *, #158, .F. ) ;
#49 = SURFACE_STYLE_FILL_AREA ( #77 ) ;
#50 = LINE ( 'NONE', #99, #121 ) ;
#51 = ORIENTED_EDGE ( 'NONE', *, *, #23, .T. ) ;
#52 = ORIENTED_EDGE ( 'NONE', *, *, #296, .T. ) ;
#53 = PRESENTATION_LAYER_ASSIGNMENT (  '', '', ( #33 ) ) ;
#54 = ORIENTED_EDGE ( 'NONE', *, *, #89, .T. ) ;
#55 = FACE_OUTER_BOUND ( 'NONE', #26, .T. ) ;
#56 = ADVANCED_FACE ( 'NONE', ( #78 ), #80, .T. ) ;
#57 = EDGE_CURVE ( 'NONE', #280, #263, #5, .T. ) ;
#58 = DIRECTION ( 'NONE',  ( 0.1259126916184463429, 0.0000000000000000000, 0.9920413268051881950 ) ) ;
#59 = LINE ( 'NONE', #208, #39 ) ;
#60 = DIRECTION ( 'NONE',  ( 0.0000000000000000000, 0.0000000000000000000, -1.000000000000000000 ) ) ;
#61 = DIRECTION ( 'NONE',  ( 0.0000000000000000000, 0.0000000000000000000, 1.000000000000000000 ) ) ;
#62 = CONICAL_SURFACE ( 'NONE', #299, 0.1818504999999994431, 0.7853981633974403964 ) ;
#63 = SPHERICAL_SURFACE ( 'NONE', #331, 0.1968500000000000250 ) ;
#64 = ORIENTED_EDGE ( 'NONE', *, *, #301, .F. ) ;
#65 = DIRECTION ( 'NONE',  ( -1.000000000000000000, 0.0000000000000000000, 0.0000000000000000000 ) ) ;
#66 = FACE_OUTER_BOUND ( 'NONE', #278, .T. ) ;
#67 = ORIENTED_EDGE ( 'NONE', *, *, #100, .T. ) ;
#68 = AXIS2_PLACEMENT_3D ( 'NONE', #239, #61, #159 ) ;
#69 = PRODUCT_DEFINITION_CONTEXT ( 'detailed design', #190, 'design' ) ;
#70 = DIRECTION ( 'NONE',  ( -1.000000000000000000, 0.0000000000000000000, 0.0000000000000000000 ) ) ;
#71 = ORIENTED_EDGE ( 'NONE', *, *, #119, .F. ) ;
#72 = UNCERTAINTY_MEASURE_WITH_UNIT (LENGTH_MEASURE( 1.000000000000000082E-05 ), #312, 'distance_accuracy_value', 'NONE');
#73 =( NAMED_UNIT ( * ) SI_UNIT ( $, .STERADIAN. ) SOLID_ANGLE_UNIT ( ) );
#74 = ORIENTED_EDGE ( 'NONE', *, *, #301, .T. ) ;
#75 = DIRECTION ( 'NONE',  ( -0.0000000000000000000, -0.0000000000000000000, -1.000000000000000000 ) ) ;
#76 = EDGE_CURVE ( 'NONE', #179, #336, #233, .T. ) ;
#77 = FILL_AREA_STYLE ('',( #236 ) ) ;
#78 = FACE_OUTER_BOUND ( 'NONE', #231, .T. ) ;
#79 = CONICAL_SURFACE ( 'NONE', #202, 0.2165355499999996880, 0.1262477912956223025 ) ;
#80 = SPHERICAL_SURFACE ( 'NONE', #318, 0.1968500000000000250 ) ;
#81 = CARTESIAN_POINT ( 'NONE',  ( 0.0000000000000000000, 0.0000000000000000000, 3.937007999999999619 ) ) ;
#82 = DIRECTION ( 'NONE',  ( 0.0000000000000000000, 0.0000000000000000000, 1.000000000000000000 ) ) ;
#83 = FACE_OUTER_BOUND ( 'NONE', #232, .T. ) ;
#84 = AXIS2_PLACEMENT_3D ( 'NONE', #277, #115, #70 ) ;
#85 = CARTESIAN_POINT ( 'NONE',  ( 0.0000000000000000000, 0.0000000000000000000, 0.1968500000000000250 ) ) ;
#86 = DIRECTION ( 'NONE',  ( 1.000000000000000000, 0.0000000000000000000, 0.0000000000000000000 ) ) ;
#87 = LINE ( 'NONE', #307, #12 ) ;
#88 = AXIS2_PLACEMENT_3D ( 'NONE', #177, #75, #101 ) ;
#89 = EDGE_CURVE ( 'NONE', #263, #179, #295, .T. ) ;
#90 = CARTESIAN_POINT ( 'NONE',  ( 0.0000000000000000000, 0.0000000000000000000, 0.3429833309002433550 ) ) ;
#91 = FILL_AREA_STYLE ('',( #15 ) ) ;
#92 = ORIENTED_EDGE ( 'NONE', *, *, #119, .T. ) ;
#93 = CIRCLE ( 'NONE', #218, 0.1968500000000000250 ) ;
#94 = ORIENTED_EDGE ( 'NONE', *, *, #100, .F. ) ;
#95 = CARTESIAN_POINT ( 'NONE',  ( 0.0000000000000000000, 0.0000000000000000000, 0.1968500000000000250 ) ) ;
#96 = ORIENTED_EDGE ( 'NONE', *, *, #108, .F. ) ;
#97 = EDGE_LOOP ( 'NONE', ( #94, #237, #92, #142 ) ) ;
#98 = CARTESIAN_POINT ( 'NONE',  ( 0.0000000000000000000, 0.0000000000000000000, 0.0000000000000000000 ) ) ;
#99 = CARTESIAN_POINT ( 'NONE',  ( -0.1318899999999998407, 0.0000000000000000000, 0.0000000000000000000 ) ) ;
#100 = EDGE_CURVE ( 'NONE', #336, #148, #260, .T. ) ;
#101 = DIRECTION ( 'NONE',  ( -1.000000000000000000, 0.0000000000000000000, 0.0000000000000000000 ) ) ;
#102 = DIRECTION ( 'NONE',  ( -0.0000000000000000000, -0.0000000000000000000, -1.000000000000000000 ) ) ;
#103 = CARTESIAN_POINT ( 'NONE',  ( 0.1318899999999999240, 1.615186663395443317E-17, 0.3429833309002433550 ) ) ;
#104 = CARTESIAN_POINT ( 'NONE',  ( 0.0000000000000000000, 0.0000000000000000000, 2.677165000000000017 ) ) ;
#105 = CIRCLE ( 'NONE', #225, 0.1818504999999994431 ) ;
#106 = AXIS2_PLACEMENT_3D ( 'NONE', #98, #145, #257 ) ;
#107 = DIRECTION ( 'NONE',  ( 0.0000000000000000000, 0.0000000000000000000, -1.000000000000000000 ) ) ;
#108 = EDGE_CURVE ( 'NONE', #263, #344, #59, .T. ) ;
#109 = VERTEX_POINT ( 'NONE', #10 ) ;
#110 = AXIS2_PLACEMENT_3D ( 'NONE', #133, #107, #126 ) ;
#111 =( GEOMETRIC_REPRESENTATION_CONTEXT ( 3 ) GLOBAL_UNCERTAINTY_ASSIGNED_CONTEXT ( ( #72 ) ) GLOBAL_UNIT_ASSIGNED_CONTEXT ( ( #312, #230, #117 ) ) REPRESENTATION_CONTEXT ( 'NONE', 'WORKASPACE' ) );
#112 =( CONVERSION_BASED_UNIT ( 'INCH', #194 ) LENGTH_UNIT ( ) NAMED_UNIT ( #321 ) );
#113 = FACE_OUTER_BOUND ( 'NONE', #143, .T. ) ;
#114 = UNCERTAINTY_MEASURE_WITH_UNIT (LENGTH_MEASURE( 1.000000000000000082E-05 ), #283, 'distance_accuracy_value', 'NONE');
#115 = DIRECTION ( 'NONE',  ( -0.0000000000000000000, -0.0000000000000000000, -1.000000000000000000 ) ) ;
#116 = ORIENTED_EDGE ( 'NONE', *, *, #296, .F. ) ;
#117 =( NAMED_UNIT ( * ) SI_UNIT ( $, .STERADIAN. ) SOLID_ANGLE_UNIT ( ) );
#118 = DIRECTION ( 'NONE',  ( 0.0000000000000000000, 0.0000000000000000000, 1.000000000000000000 ) ) ;
#119 = EDGE_CURVE ( 'NONE', #29, #182, #193, .T. ) ;
#120 = CARTESIAN_POINT ( 'NONE',  ( 0.0000000000000000000, 0.0000000000000000000, 3.937007999999999619 ) ) ;
#121 = VECTOR ( 'NONE', #315, 39.37007874015748143 ) ;
#122 = SURFACE_STYLE_USAGE ( .BOTH. , #176 ) ;
#123 = ORIENTED_EDGE ( 'NONE', *, *, #158, .T. ) ;
#124 = ORIENTED_EDGE ( 'NONE', *, *, #323, .F. ) ;
#125 = EDGE_CURVE ( 'NONE', #275, #1, #105, .T. ) ;
#126 = DIRECTION ( 'NONE',  ( -1.000000000000000000, 0.0000000000000000000, 0.0000000000000000000 ) ) ;
#127 = AXIS2_PLACEMENT_3D ( 'NONE', #129, #60, #86 ) ;
#128 = CIRCLE ( 'NONE', #163, 0.1318899999999999517 ) ;
#129 = CARTESIAN_POINT ( 'NONE',  ( 0.0000000000000000000, 0.0000000000000000000, 3.922007999999999051 ) ) ;
#130 = FACE_OUTER_BOUND ( 'NONE', #200, .T. ) ;
#131 = CYLINDRICAL_SURFACE ( 'NONE', #27, 0.1318899999999998407 ) ;
#132 = ADVANCED_FACE ( 'NONE', ( #292 ), #79, .T. ) ;
#133 = CARTESIAN_POINT ( 'NONE',  ( 0.0000000000000000000, 0.0000000000000000000, 3.937007999999999619 ) ) ;
#134 = VECTOR ( 'NONE', #138, 39.37007874015748143 ) ;
#135 = CARTESIAN_POINT ( 'NONE',  ( 0.1818504999999994431, 2.227026327483450676E-17, 3.937007999999999619 ) ) ;
#136 = ADVANCED_FACE ( 'NONE', ( #55 ), #131, .T. ) ;
#137 = SURFACE_STYLE_FILL_AREA ( #91 ) ;
#138 = DIRECTION ( 'NONE',  ( -0.0000000000000000000, -0.0000000000000000000, -1.000000000000000000 ) ) ;
#139 = STYLED_ITEM ( 'NONE', ( #41 ), #238 ) ;
#140 = CARTESIAN_POINT ( 'NONE',  ( -0.1318899999999997574, 2.012955005375500749E-17, 2.165353999999999779 ) ) ;
#141 = ORIENTED_EDGE ( 'NONE', *, *, #341, .F. ) ;
#142 = ORIENTED_EDGE ( 'NONE', *, *, #211, .T. ) ;
#143 = EDGE_LOOP ( 'NONE', ( #284, #222, #74, #123 ) ) ;
#144 = EDGE_CURVE ( 'NONE', #344, #109, #240, .T. ) ;
#145 = DIRECTION ( 'NONE',  ( 0.0000000000000000000, 0.0000000000000000000, 1.000000000000000000 ) ) ;
#146 = CARTESIAN_POINT ( 'NONE',  ( 0.1818504999999994431, 2.318874837419505661E-17, 3.937007999999999619 ) ) ;
#147 = SHAPE_DEFINITION_REPRESENTATION ( #185, #244 ) ;
#148 = VERTEX_POINT ( 'NONE', #243 ) ;
#149 = AXIS2_PLACEMENT_3D ( 'NONE', #302, #305, #65 ) ;
#150 = AXIS2_PLACEMENT_3D ( 'NONE', #199, #224, #332 ) ;
#151 =( LENGTH_UNIT ( ) NAMED_UNIT ( * ) SI_UNIT ( $, .METRE. ) );
#152 = ORIENTED_EDGE ( 'NONE', *, *, #215, .T. ) ;
#153 = ADVANCED_FACE ( 'NONE', ( #130 ), #157, .T. ) ;
#154 = EDGE_LOOP ( 'NONE', ( #42, #52, #3, #255 ) ) ;
#155 = DIRECTION ( 'NONE',  ( -0.0000000000000000000, -0.0000000000000000000, -1.000000000000000000 ) ) ;
#156 = AXIS2_PLACEMENT_3D ( 'NONE', #160, #322, #267 ) ;
#157 = CYLINDRICAL_SURFACE ( 'NONE', #21, 0.1318899999999998407 ) ;
#158 = EDGE_CURVE ( 'NONE', #109, #344, #281, .T. ) ;
#159 = DIRECTION ( 'NONE',  ( 1.000000000000000000, 0.0000000000000000000, 0.0000000000000000000 ) ) ;
#160 = CARTESIAN_POINT ( 'NONE',  ( 0.0000000000000000000, 0.0000000000000000000, 3.922007999999999051 ) ) ;
#161 = AXIS2_PLACEMENT_3D ( 'NONE', #104, #245, #214 ) ;
#162 = CARTESIAN_POINT ( 'NONE',  ( 0.0000000000000000000, 0.0000000000000000000, 2.165353999999999779 ) ) ;
#163 = AXIS2_PLACEMENT_3D ( 'NONE', #90, #286, #203 ) ;
#164 = CARTESIAN_POINT ( 'NONE',  ( 0.0000000000000000000, 0.0000000000000000000, 0.1968500000000000250 ) ) ;
#165 = EDGE_LOOP ( 'NONE', ( #116, #220, #288, #342 ) ) ;
#166 = CARTESIAN_POINT ( 'NONE',  ( 0.1318899999999997574, 0.0000000000000000000, 2.165353999999999779 ) ) ;
#167 =( NAMED_UNIT ( * ) PLANE_ANGLE_UNIT ( ) SI_UNIT ( $, .RADIAN. ) );
#168 = ORIENTED_EDGE ( 'NONE', *, *, #341, .T. ) ;
#169 = AXIS2_PLACEMENT_3D ( 'NONE', #298, #102, #319 ) ;
#170 = VERTEX_POINT ( 'NONE', #266 ) ;
#171 = CARTESIAN_POINT ( 'NONE',  ( 0.0000000000000000000, 0.0000000000000000000, 3.937007999999999619 ) ) ;
#172 = ORIENTED_EDGE ( 'NONE', *, *, #57, .F. ) ;
#173 = DIRECTION ( 'NONE',  ( 0.0000000000000000000, 1.000000000000000000, 0.0000000000000000000 ) ) ;
#174 = EDGE_CURVE ( 'NONE', #275, #170, #35, .T. ) ;
#175 = CIRCLE ( 'NONE', #309, 0.1818504999999994431 ) ;
#176 = SURFACE_SIDE_STYLE ('',( #49 ) ) ;
#177 = CARTESIAN_POINT ( 'NONE',  ( 0.0000000000000000000, 0.0000000000000000000, 0.3429833309002433550 ) ) ;
#178 = PRESENTATION_STYLE_ASSIGNMENT (( #122 ) ) ;
#179 = VERTEX_POINT ( 'NONE', #103 ) ;
#180 = CIRCLE ( 'NONE', #127, 0.1968504999999999838 ) ;
#181 = MECHANICAL_DESIGN_GEOMETRIC_PRESENTATION_REPRESENTATION (  '', ( #33 ), #111 ) ;
#182 = VERTEX_POINT ( 'NONE', #327 ) ;
#183 = DIRECTION ( 'NONE',  ( -1.224646799147353207E-16, 1.000000000000000000, 0.0000000000000000000 ) ) ;
#184 = CARTESIAN_POINT ( 'NONE',  ( 0.1318899999999998407, 1.615186663395442393E-17, 0.0000000000000000000 ) ) ;
#185 = PRODUCT_DEFINITION_SHAPE ( 'NONE', 'NONE',  #34 ) ;
#186 = MECHANICAL_DESIGN_GEOMETRIC_PRESENTATION_REPRESENTATION (  '', ( #139 ), #345 ) ;
#187 =( GEOMETRIC_REPRESENTATION_CONTEXT ( 3 ) GLOBAL_UNCERTAINTY_ASSIGNED_CONTEXT ( ( #114 ) ) GLOBAL_UNIT_ASSIGNED_CONTEXT ( ( #283, #261, #73 ) ) REPRESENTATION_CONTEXT ( 'NONE', 'WORKASPACE' ) );
#188 = DIRECTION ( 'NONE',  ( -1.000000000000000000, 0.0000000000000000000, 0.0000000000000000000 ) ) ;
#189 = CARTESIAN_POINT ( 'NONE',  ( 0.0000000000000000000, 0.0000000000000000000, 0.0000000000000000000 ) ) ;
#190 = APPLICATION_CONTEXT ( 'automotive_design' ) ;
#191 = ADVANCED_FACE ( 'NONE', ( #83 ), #32, .T. ) ;
#192 = CARTESIAN_POINT ( 'NONE',  ( 0.0000000000000000000, 0.0000000000000000000, 0.0000000000000000000 ) ) ;
#193 = CIRCLE ( 'NONE', #169, 0.1318899999999999517 ) ;
#194 = LENGTH_MEASURE_WITH_UNIT ( LENGTH_MEASURE( 0.02539999999999999897 ), #45 );
#195 = ORIENTED_EDGE ( 'NONE', *, *, #20, .T. ) ;
#196 = CYLINDRICAL_SURFACE ( 'NONE', #84, 0.1968504999999999838 ) ;
#197 = EDGE_CURVE ( 'NONE', #340, #170, #180, .T. ) ;
#198 = ORIENTED_EDGE ( 'NONE', *, *, #323, .T. ) ;
#199 = CARTESIAN_POINT ( 'NONE',  ( 0.0000000000000000000, 0.0000000000000000000, 3.937007999999999619 ) ) ;
#200 = EDGE_LOOP ( 'NONE', ( #46, #54, #141, #71, #25 ) ) ;
#201 = DIRECTION ( 'NONE',  ( -0.0000000000000000000, -0.0000000000000000000, -1.000000000000000000 ) ) ;
#202 = AXIS2_PLACEMENT_3D ( 'NONE', #320, #82, #209 ) ;
#203 = DIRECTION ( 'NONE',  ( -1.000000000000000000, 0.0000000000000000000, 0.0000000000000000000 ) ) ;
#204 = DIRECTION ( 'NONE',  ( 1.000000000000000000, 0.0000000000000000000, 0.0000000000000000000 ) ) ;
#205 = DIRECTION ( 'NONE',  ( -1.000000000000000000, 0.0000000000000000000, 0.0000000000000000000 ) ) ;
#206 = PRODUCT ( 'Micro_SBMM-100-472', 'Micro_SBMM-100-472', '', ( #314 ) ) ;
#207 = CARTESIAN_POINT ( 'NONE',  ( 0.0000000000000000000, 0.0000000000000000000, 2.165353999999999779 ) ) ;
#208 = CARTESIAN_POINT ( 'NONE',  ( 0.2165355499999996880, 0.0000000000000000000, 2.832259636364403033 ) ) ;
#209 = DIRECTION ( 'NONE',  ( 1.000000000000000000, 0.0000000000000000000, 0.0000000000000000000 ) ) ;
#210 = EDGE_CURVE ( 'NONE', #170, #340, #337, .T. ) ;
#211 = EDGE_CURVE ( 'NONE', #182, #148, #93, .T. ) ;
#212 = CARTESIAN_POINT ( 'NONE',  ( 0.0000000000000000000, 0.0000000000000000000, 2.832259636364403033 ) ) ;
#213 = VECTOR ( 'NONE', #326, 39.37007874015748143 ) ;
#214 = DIRECTION ( 'NONE',  ( 1.000000000000000000, 0.0000000000000000000, 0.0000000000000000000 ) ) ;
#215 = EDGE_CURVE ( 'NONE', #263, #280, #293, .T. ) ;
#216 = DIRECTION ( 'NONE',  ( 1.000000000000000000, 0.0000000000000000000, 0.0000000000000000000 ) ) ;
#217 = CARTESIAN_POINT ( 'NONE',  ( 0.1968504999999999838, 2.410723347355560646E-17, 3.922007999999999051 ) ) ;
#218 = AXIS2_PLACEMENT_3D ( 'NONE', #37, #247, #242 ) ;
#219 =( NAMED_UNIT ( * ) SI_UNIT ( $, .STERADIAN. ) SOLID_ANGLE_UNIT ( ) );
#220 = ORIENTED_EDGE ( 'NONE', *, *, #125, .F. ) ;
#221 = DIRECTION ( 'NONE',  ( 1.000000000000000000, 0.0000000000000000000, -0.0000000000000000000 ) ) ;
#222 = ORIENTED_EDGE ( 'NONE', *, *, #197, .T. ) ;
#223 = DIRECTION ( 'NONE',  ( -0.1259126916184463429, 1.541985747625580814E-17, 0.9920413268051881950 ) ) ;
#224 = DIRECTION ( 'NONE',  ( -0.0000000000000000000, -0.0000000000000000000, -1.000000000000000000 ) ) ;
#225 = AXIS2_PLACEMENT_3D ( 'NONE', #81, #4, #216 ) ;
#226 = VECTOR ( 'NONE', #252, 39.37007874015748143 ) ;
#227 = ADVANCED_FACE ( 'NONE', ( #6 ), #11, .T. ) ;
#228 = APPLICATION_PROTOCOL_DEFINITION ( 'draft international standard', 'automotive_design', 1998, #190 ) ;
#229 = ORIENTED_EDGE ( 'NONE', *, *, #76, .F. ) ;
#230 =( NAMED_UNIT ( * ) PLANE_ANGLE_UNIT ( ) SI_UNIT ( $, .RADIAN. ) );
#231 = EDGE_LOOP ( 'NONE', ( #168, #317, #67, #306 ) ) ;
#232 = EDGE_LOOP ( 'NONE', ( #124, #250, #271, #48 ) ) ;
#233 = CIRCLE ( 'NONE', #88, 0.1318899999999999517 ) ;
#234 = ORIENTED_EDGE ( 'NONE', *, *, #285, .T. ) ;
#235 = EDGE_CURVE ( 'NONE', #336, #29, #16, .T. ) ;
#236 = FILL_AREA_STYLE_COLOUR ( '', #294 ) ;
#237 = ORIENTED_EDGE ( 'NONE', *, *, #235, .T. ) ;
#238 = MANIFOLD_SOLID_BREP ( 'Cut-Revolve3', #276 ) ;
#239 = CARTESIAN_POINT ( 'NONE',  ( 0.0000000000000000000, 0.0000000000000000000, 2.677165000000000017 ) ) ;
#240 = CIRCLE ( 'NONE', #161, 0.1968504999999999838 ) ;
#241 = ADVANCED_FACE ( 'NONE', ( #274 ), #196, .T. ) ;
#242 = DIRECTION ( 'NONE',  ( 0.0000000000000000000, 0.0000000000000000000, 1.000000000000000000 ) ) ;
#243 = CARTESIAN_POINT ( 'NONE',  ( 0.0000000000000000000, 1.205358612060782468E-17, 0.0000000000000000000 ) ) ;
#244 = ADVANCED_BREP_SHAPE_REPRESENTATION ( 'Micro_SBMM-100-472', ( #238, #106 ), #187 ) ;
#245 = DIRECTION ( 'NONE',  ( 0.0000000000000000000, 0.0000000000000000000, 1.000000000000000000 ) ) ;
#246 = AXIS2_PLACEMENT_3D ( 'NONE', #85, #38, #183 ) ;
#247 = DIRECTION ( 'NONE',  ( -1.000000000000000000, 0.0000000000000000000, 0.0000000000000000000 ) ) ;
#248 = DIRECTION ( 'NONE',  ( -0.0000000000000000000, -0.0000000000000000000, -1.000000000000000000 ) ) ;
#249 = SURFACE_STYLE_USAGE ( .BOTH. , #335 ) ;
#250 = ORIENTED_EDGE ( 'NONE', *, *, #215, .F. ) ;
#251 = COLOUR_RGB ( '',0.7921568627450980005, 0.8196078431372548767, 0.9333333333333333481 ) ;
#252 = DIRECTION ( 'NONE',  ( 0.7071067811865419106, 8.659560562354863833E-17, -0.7071067811865531239 ) ) ;
#253 = LINE ( 'NONE', #135, #226 ) ;
#254 = LINE ( 'NONE', #339, #134 ) ;
#255 = ORIENTED_EDGE ( 'NONE', *, *, #174, .F. ) ;
#256 = ORIENTED_EDGE ( 'NONE', *, *, #210, .T. ) ;
#257 = DIRECTION ( 'NONE',  ( 1.000000000000000000, 0.0000000000000000000, 0.0000000000000000000 ) ) ;
#258 = FACE_OUTER_BOUND ( 'NONE', #165, .T. ) ;
#259 = ORIENTED_EDGE ( 'NONE', *, *, #125, .T. ) ;
#260 = CIRCLE ( 'NONE', #246, 0.1968500000000000250 ) ;
#261 =( NAMED_UNIT ( * ) PLANE_ANGLE_UNIT ( ) SI_UNIT ( $, .RADIAN. ) );
#262 = EDGE_LOOP ( 'NONE', ( #172, #198, #282, #96 ) ) ;
#263 = VERTEX_POINT ( 'NONE', #166 ) ;
#264 = DIRECTION ( 'NONE',  ( -0.7071067811865419106, 0.0000000000000000000, -0.7071067811865531239 ) ) ;
#265 = AXIS2_PLACEMENT_3D ( 'NONE', #162, #268, #269 ) ;
#266 = CARTESIAN_POINT ( 'NONE',  ( -0.1968504999999999838, 0.0000000000000000000, 3.922007999999999051 ) ) ;
#267 = DIRECTION ( 'NONE',  ( 1.000000000000000000, 0.0000000000000000000, 0.0000000000000000000 ) ) ;
#268 = DIRECTION ( 'NONE',  ( -0.0000000000000000000, -0.0000000000000000000, -1.000000000000000000 ) ) ;
#269 = DIRECTION ( 'NONE',  ( -1.000000000000000000, 0.0000000000000000000, 0.0000000000000000000 ) ) ;
#270 = DIRECTION ( 'NONE',  ( 1.000000000000000000, 0.0000000000000000000, 0.0000000000000000000 ) ) ;
#271 = ORIENTED_EDGE ( 'NONE', *, *, #108, .T. ) ;
#272 = ADVANCED_FACE ( 'NONE', ( #66 ), #40, .T. ) ;
#273 = ADVANCED_FACE ( 'NONE', ( #113 ), #44, .T. ) ;
#274 = FACE_OUTER_BOUND ( 'NONE', #334, .T. ) ;
#275 = VERTEX_POINT ( 'NONE', #43 ) ;
#276 = CLOSED_SHELL ( 'NONE', ( #153, #56, #132, #227, #241, #273, #272, #9, #191, #328, #136 ) ) ;
#277 = CARTESIAN_POINT ( 'NONE',  ( 0.0000000000000000000, 0.0000000000000000000, 3.937007999999999619 ) ) ;
#278 = EDGE_LOOP ( 'NONE', ( #259, #51 ) ) ;
#279 = CARTESIAN_POINT ( 'NONE',  ( 0.1968504999999999838, 2.410723347355560646E-17, 2.677165000000000017 ) ) ;
#280 = VERTEX_POINT ( 'NONE', #140 ) ;
#281 = CIRCLE ( 'NONE', #68, 0.1968504999999999838 ) ;
#282 = ORIENTED_EDGE ( 'NONE', *, *, #144, .F. ) ;
#283 =( CONVERSION_BASED_UNIT ( 'INCH', #2 ) LENGTH_UNIT ( ) NAMED_UNIT ( #7 ) );
#284 = ORIENTED_EDGE ( 'NONE', *, *, #285, .F. ) ;
#285 = EDGE_CURVE ( 'NONE', #340, #344, #254, .T. ) ;
#286 = DIRECTION ( 'NONE',  ( -0.0000000000000000000, -0.0000000000000000000, -1.000000000000000000 ) ) ;
#287 = DIRECTION ( 'NONE',  ( 0.0000000000000000000, 0.0000000000000000000, -1.000000000000000000 ) ) ;
#288 = ORIENTED_EDGE ( 'NONE', *, *, #174, .T. ) ;
#289 = VECTOR ( 'NONE', #264, 39.37007874015748143 ) ;
#290 = DIRECTION ( 'NONE',  ( 1.000000000000000000, 0.0000000000000000000, 0.0000000000000000000 ) ) ;
#291 = DIRECTION ( 'NONE',  ( -1.000000000000000000, 0.0000000000000000000, 0.0000000000000000000 ) ) ;
#292 = FACE_OUTER_BOUND ( 'NONE', #262, .T. ) ;
#293 = CIRCLE ( 'NONE', #265, 0.1318899999999997574 ) ;
#294 = COLOUR_RGB ( '',0.7921568627450980005, 0.8196078431372548767, 0.9333333333333333481 ) ;
#295 = LINE ( 'NONE', #184, #213 ) ;
#296 = EDGE_CURVE ( 'NONE', #1, #340, #253, .T. ) ;
#297 = DIRECTION ( 'NONE',  ( 0.0000000000000000000, 0.0000000000000000000, 1.000000000000000000 ) ) ;
#298 = CARTESIAN_POINT ( 'NONE',  ( 0.0000000000000000000, 0.0000000000000000000, 0.3429833309002433550 ) ) ;
#299 = AXIS2_PLACEMENT_3D ( 'NONE', #308, #287, #205 ) ;
#300 = DIRECTION ( 'NONE',  ( 0.0000000000000000000, 0.0000000000000000000, 1.000000000000000000 ) ) ;
#301 = EDGE_CURVE ( 'NONE', #170, #109, #87, .T. ) ;
#302 = CARTESIAN_POINT ( 'NONE',  ( 0.0000000000000000000, 0.0000000000000000000, 0.3429833309002433550 ) ) ;
#303 = ORIENTED_EDGE ( 'NONE', *, *, #144, .T. ) ;
#304 = AXIS2_PLACEMENT_3D ( 'NONE', #212, #297, #31 ) ;
#305 = DIRECTION ( 'NONE',  ( -0.0000000000000000000, -0.0000000000000000000, -1.000000000000000000 ) ) ;
#306 = ORIENTED_EDGE ( 'NONE', *, *, #211, .F. ) ;
#307 = CARTESIAN_POINT ( 'NONE',  ( -0.1968504999999999838, 0.0000000000000000000, 3.937007999999999619 ) ) ;
#308 = CARTESIAN_POINT ( 'NONE',  ( 0.0000000000000000000, 0.0000000000000000000, 3.937007999999999619 ) ) ;
#309 = AXIS2_PLACEMENT_3D ( 'NONE', #120, #118, #204 ) ;
#310 = DIRECTION ( 'NONE',  ( -1.000000000000000000, 0.0000000000000000000, 0.0000000000000000000 ) ) ;
#311 = PRODUCT_RELATED_PRODUCT_CATEGORY ( 'part', '', ( #206 ) ) ;
#312 =( CONVERSION_BASED_UNIT ( 'INCH', #22 ) LENGTH_UNIT ( ) NAMED_UNIT ( #36 ) );
#313 = CARTESIAN_POINT ( 'NONE',  ( -0.1318899999999999240, 0.0000000000000000000, 0.3429833309002433550 ) ) ;
#314 = PRODUCT_CONTEXT ( 'NONE', #330, 'mechanical' ) ;
#315 = DIRECTION ( 'NONE',  ( -0.0000000000000000000, -0.0000000000000000000, -1.000000000000000000 ) ) ;
#316 = APPLICATION_PROTOCOL_DEFINITION ( 'draft international standard', 'automotive_design', 1998, #330 ) ;
#317 = ORIENTED_EDGE ( 'NONE', *, *, #76, .T. ) ;
#318 = AXIS2_PLACEMENT_3D ( 'NONE', #95, #290, #173 ) ;
#319 = DIRECTION ( 'NONE',  ( -1.000000000000000000, 0.0000000000000000000, 0.0000000000000000000 ) ) ;
#320 = CARTESIAN_POINT ( 'NONE',  ( 0.0000000000000000000, 0.0000000000000000000, 2.832259636364403033 ) ) ;
#321 = DIMENSIONAL_EXPONENTS ( 1.000000000000000000, 0.0000000000000000000, 0.0000000000000000000, 0.0000000000000000000, 0.0000000000000000000, 0.0000000000000000000, 0.0000000000000000000 ) ;
#322 = DIRECTION ( 'NONE',  ( 0.0000000000000000000, 0.0000000000000000000, -1.000000000000000000 ) ) ;
#323 = EDGE_CURVE ( 'NONE', #280, #109, #19, .T. ) ;
#324 = AXIS2_PLACEMENT_3D ( 'NONE', #207, #201, #310 ) ;
#325 = PRODUCT_DEFINITION_FORMATION_WITH_SPECIFIED_SOURCE ( 'ANY', '', #206, .NOT_KNOWN. ) ;
#326 = DIRECTION ( 'NONE',  ( -0.0000000000000000000, -0.0000000000000000000, -1.000000000000000000 ) ) ;
#327 = CARTESIAN_POINT ( 'NONE',  ( 0.0000000000000000000, 0.1318899999999999795, 0.3429833309002433550 ) ) ;
#328 = ADVANCED_FACE ( 'NONE', ( #14 ), #63, .T. ) ;
#329 = CARTESIAN_POINT ( 'NONE',  ( -0.2165355499999996880, 2.651795682091112828E-17, 2.832259636364403033 ) ) ;
#330 = APPLICATION_CONTEXT ( 'automotive_design' ) ;
#331 = AXIS2_PLACEMENT_3D ( 'NONE', #164, #270, #18 ) ;
#332 = DIRECTION ( 'NONE',  ( -1.000000000000000000, 0.0000000000000000000, 0.0000000000000000000 ) ) ;
#333 = CARTESIAN_POINT ( 'NONE',  ( 1.615186663395443625E-17, -0.1318899999999999795, 0.3429833309002433550 ) ) ;
#334 = EDGE_LOOP ( 'NONE', ( #256, #234, #303, #64 ) ) ;
#335 = SURFACE_SIDE_STYLE ('',( #137 ) ) ;
#336 = VERTEX_POINT ( 'NONE', #333 ) ;
#337 = CIRCLE ( 'NONE', #156, 0.1968504999999999838 ) ;
#338 = VECTOR ( 'NONE', #223, 39.37007874015748854 ) ;
#339 = CARTESIAN_POINT ( 'NONE',  ( 0.1968504999999999838, 2.410723347355560646E-17, 3.937007999999999619 ) ) ;
#340 = VERTEX_POINT ( 'NONE', #217 ) ;
#341 = EDGE_CURVE ( 'NONE', #182, #179, #128, .T. ) ;
#342 = ORIENTED_EDGE ( 'NONE', *, *, #197, .F. ) ;
#343 = PRESENTATION_LAYER_ASSIGNMENT (  '', '', ( #139 ) ) ;
#344 = VERTEX_POINT ( 'NONE', #279 ) ;
#345 =( GEOMETRIC_REPRESENTATION_CONTEXT ( 3 ) GLOBAL_UNCERTAINTY_ASSIGNED_CONTEXT ( ( #47 ) ) GLOBAL_UNIT_ASSIGNED_CONTEXT ( ( #112, #167, #219 ) ) REPRESENTATION_CONTEXT ( 'NONE', 'WORKASPACE' ) );
ENDSEC;
END-ISO-10303-21;
