ISO-10303-21;
HEADER;
FILE_DESCRIPTION (( 'STEP AP214' ),
    '1' );
FILE_NAME ('Micro_GEM-078-2X.STEP',
    '2021-09-01T19:06:59',
    ( '' ),
    ( '' ),
    'SwSTEP 2.0',
    'SolidWorks 2020',
    '' );
FILE_SCHEMA (( 'AUTOMOTIVE_DESIGN' ));
ENDSEC;

DATA;
#1 = VERTEX_POINT ( 'NONE', #166 ) ;
#2 = APPLICATION_CONTEXT ( 'automotive_design' ) ;
#3 = ORIENTED_EDGE ( 'NONE', *, *, #8, .T. ) ;
#4 = CIRCLE ( 'NONE', #147, 0.06250000000000002776 ) ;
#5 =( NAMED_UNIT ( * ) PLANE_ANGLE_UNIT ( ) SI_UNIT ( $, .RADIAN. ) );
#6 = ORIENTED_EDGE ( 'NONE', *, *, #234, .F. ) ;
#7 = CARTESIAN_POINT ( 'NONE',  ( -0.03901095000000000257, 0.0000000000000000000, 4.777463504919746737E-18 ) ) ;
#8 = EDGE_CURVE ( 'NONE', #1, #49, #197, .T. ) ;
#9 = FACE_OUTER_BOUND ( 'NONE', #282, .T. ) ;
#10 = VECTOR ( 'NONE', #83, 39.37007874015748143 ) ;
#11 = AXIS2_PLACEMENT_3D ( 'NONE', #298, #273, #157 ) ;
#12 = DIRECTION ( 'NONE',  ( 0.1736481776669313859, 0.0000000000000000000, 0.9848077530122077983 ) ) ;
#13 = EDGE_CURVE ( 'NONE', #1, #27, #142, .T. ) ;
#14 = CARTESIAN_POINT ( 'NONE',  ( 0.0000000000000000000, 0.0000000000000000000, 1.500000000000000222 ) ) ;
#15 = SURFACE_SIDE_STYLE ('',( #199 ) ) ;
#16 = STYLED_ITEM ( 'NONE', ( #146 ), #68 ) ;
#17 = LINE ( 'NONE', #108, #258 ) ;
#18 = CARTESIAN_POINT ( 'NONE',  ( 2.302335982397025094E-17, 0.0000000000000000000, 0.1880000000000000282 ) ) ;
#19 = FACE_OUTER_BOUND ( 'NONE', #26, .T. ) ;
#20 = PRESENTATION_LAYER_ASSIGNMENT (  '', '', ( #16 ) ) ;
#21 = DIRECTION ( 'NONE',  ( -1.224646799147353700E-16, -0.0000000000000000000, -1.000000000000000000 ) ) ;
#22 = DIRECTION ( 'NONE',  ( 1.000000000000000000, 0.0000000000000000000, 0.0000000000000000000 ) ) ;
#23 = EDGE_LOOP ( 'NONE', ( #28, #284, #237, #105 ) ) ;
#24 = DIRECTION ( 'NONE',  ( 0.0000000000000000000, 0.0000000000000000000, -1.000000000000000000 ) ) ;
#25 = AXIS2_PLACEMENT_3D ( 'NONE', #219, #217, #150 ) ;
#26 = EDGE_LOOP ( 'NONE', ( #123, #207 ) ) ;
#27 = VERTEX_POINT ( 'NONE', #264 ) ;
#28 = ORIENTED_EDGE ( 'NONE', *, *, #261, .F. ) ;
#29 = EDGE_LOOP ( 'NONE', ( #100, #188, #215, #126 ) ) ;
#30 = CIRCLE ( 'NONE', #47, 0.03901095000000000257 ) ;
#31 = FILL_AREA_STYLE_COLOUR ( '', #288 ) ;
#32 = ORIENTED_EDGE ( 'NONE', *, *, #255, .F. ) ;
#33 = LINE ( 'NONE', #111, #107 ) ;
#34 = CIRCLE ( 'NONE', #236, 0.06250000000000002776 ) ;
#35 = DIMENSIONAL_EXPONENTS ( 1.000000000000000000, 0.0000000000000000000, 0.0000000000000000000, 0.0000000000000000000, 0.0000000000000000000, 0.0000000000000000000, 0.0000000000000000000 ) ;
#36 = DIRECTION ( 'NONE',  ( -1.000000000000000000, 0.0000000000000000000, 0.0000000000000000000 ) ) ;
#37 =( NAMED_UNIT ( * ) SI_UNIT ( $, .STERADIAN. ) SOLID_ANGLE_UNIT ( ) );
#38 =( LENGTH_UNIT ( ) NAMED_UNIT ( * ) SI_UNIT ( $, .METRE. ) );
#39 = UNCERTAINTY_MEASURE_WITH_UNIT (LENGTH_MEASURE( 1.000000000000000082E-05 ), #44, 'distance_accuracy_value', 'NONE');
#40 = MECHANICAL_DESIGN_GEOMETRIC_PRESENTATION_REPRESENTATION (  '', ( #277 ), #77 ) ;
#41 = CARTESIAN_POINT ( 'NONE',  ( 0.0000000000000000000, 0.0000000000000000000, 1.485000000000000764 ) ) ;
#42 = DIRECTION ( 'NONE',  ( -0.1736481776669311916, 2.126576849575783316E-17, 0.9848077530122080203 ) ) ;
#43 = EDGE_CURVE ( 'NONE', #49, #190, #52, .T. ) ;
#44 =( CONVERSION_BASED_UNIT ( 'INCH', #96 ) LENGTH_UNIT ( ) NAMED_UNIT ( #35 ) );
#45 = DIRECTION ( 'NONE',  ( -1.000000000000000000, 0.0000000000000000000, 0.0000000000000000000 ) ) ;
#46 = SURFACE_STYLE_FILL_AREA ( #165 ) ;
#47 = AXIS2_PLACEMENT_3D ( 'NONE', #181, #249, #45 ) ;
#48 = ORIENTED_EDGE ( 'NONE', *, *, #243, .T. ) ;
#49 = VERTEX_POINT ( 'NONE', #130 ) ;
#50 =( NAMED_UNIT ( * ) SI_UNIT ( $, .STERADIAN. ) SOLID_ANGLE_UNIT ( ) );
#51 = DIRECTION ( 'NONE',  ( -1.224646799147353700E-16, -0.0000000000000000000, -1.000000000000000000 ) ) ;
#52 = LINE ( 'NONE', #7, #10 ) ;
#53 = AXIS2_PLACEMENT_3D ( 'NONE', #227, #114, #97 ) ;
#54 = ORIENTED_EDGE ( 'NONE', *, *, #13, .T. ) ;
#55 = DIRECTION ( 'NONE',  ( 1.000000000000000000, 0.0000000000000000000, -0.0000000000000000000 ) ) ;
#56 = CONICAL_SURFACE ( 'NONE', #225, 0.03901095000000000257, 0.1745329251994338915 ) ;
#57 = CARTESIAN_POINT ( 'NONE',  ( 5.850705389343265247E-34, 0.0000000000000000000, 4.777463504919746737E-18 ) ) ;
#58 = UNCERTAINTY_MEASURE_WITH_UNIT (LENGTH_MEASURE( 1.000000000000000082E-05 ), #159, 'distance_accuracy_value', 'NONE');
#59 = FACE_OUTER_BOUND ( 'NONE', #283, .T. ) ;
#60 = EDGE_CURVE ( 'NONE', #140, #212, #17, .T. ) ;
#61 = CYLINDRICAL_SURFACE ( 'NONE', #75, 0.06250000000000002776 ) ;
#62 = AXIS2_PLACEMENT_3D ( 'NONE', #178, #194, #106 ) ;
#63 = AXIS2_PLACEMENT_3D ( 'NONE', #124, #160, #256 ) ;
#64 = DIRECTION ( 'NONE',  ( -1.224646799147353700E-16, -0.0000000000000000000, -1.000000000000000000 ) ) ;
#65 = CARTESIAN_POINT ( 'NONE',  ( 0.06250000000000006939, 7.654042494670963708E-18, 0.3212130222250907940 ) ) ;
#66 = EDGE_CURVE ( 'NONE', #280, #140, #133, .T. ) ;
#67 = DIRECTION ( 'NONE',  ( 1.000000000000000000, 0.0000000000000000000, 0.0000000000000000000 ) ) ;
#68 = MANIFOLD_SOLID_BREP ( 'Cut-Revolve1', #74 ) ;
#69 = AXIS2_PLACEMENT_3D ( 'NONE', #57, #242, #270 ) ;
#70 = DIRECTION ( 'NONE',  ( 1.000000000000000000, 0.0000000000000000000, 0.0000000000000000000 ) ) ;
#71 = SHAPE_DEFINITION_REPRESENTATION ( #169, #250 ) ;
#72 = ADVANCED_FACE ( 'NONE', ( #59 ), #238, .T. ) ;
#73 = ORIENTED_EDGE ( 'NONE', *, *, #43, .F. ) ;
#74 = CLOSED_SHELL ( 'NONE', ( #183, #247, #113, #205, #87, #162, #91, #253, #72, #103 ) ) ;
#75 = AXIS2_PLACEMENT_3D ( 'NONE', #85, #271, #290 ) ;
#76 =( NAMED_UNIT ( * ) PLANE_ANGLE_UNIT ( ) SI_UNIT ( $, .RADIAN. ) );
#77 =( GEOMETRIC_REPRESENTATION_CONTEXT ( 3 ) GLOBAL_UNCERTAINTY_ASSIGNED_CONTEXT ( ( #58 ) ) GLOBAL_UNIT_ASSIGNED_CONTEXT ( ( #159, #76, #189 ) ) REPRESENTATION_CONTEXT ( 'NONE', 'WORKASPACE' ) );
#78 = EDGE_LOOP ( 'NONE', ( #32, #232, #210, #266 ) ) ;
#79 =( LENGTH_UNIT ( ) NAMED_UNIT ( * ) SI_UNIT ( $, .METRE. ) );
#80 = ORIENTED_EDGE ( 'NONE', *, *, #92, .T. ) ;
#81 = EDGE_CURVE ( 'NONE', #140, #280, #153, .T. ) ;
#82 = CARTESIAN_POINT ( 'NONE',  ( 0.03901095000000000257, 4.777463504919744426E-18, -4.777463504919746737E-18 ) ) ;
#83 = DIRECTION ( 'NONE',  ( -1.224646799147353700E-16, -0.0000000000000000000, -1.000000000000000000 ) ) ;
#84 = CONICAL_SURFACE ( 'NONE', #218, 0.03901095000000000257, 0.1745329251994338915 ) ;
#85 = CARTESIAN_POINT ( 'NONE',  ( 0.0000000000000000000, 0.0000000000000000000, 1.500000000000000222 ) ) ;
#86 = FACE_OUTER_BOUND ( 'NONE', #121, .T. ) ;
#87 = ADVANCED_FACE ( 'NONE', ( #200 ), #61, .T. ) ;
#88 = CIRCLE ( 'NONE', #292, 0.03901095000000000257 ) ;
#89 = DIRECTION ( 'NONE',  ( 1.000000000000000000, 0.0000000000000000000, 0.0000000000000000000 ) ) ;
#90 = PRODUCT_DEFINITION_CONTEXT ( 'detailed design', #2, 'design' ) ;
#91 = ADVANCED_FACE ( 'NONE', ( #9 ), #252, .T. ) ;
#92 = EDGE_CURVE ( 'NONE', #233, #299, #33, .T. ) ;
#93 = DIRECTION ( 'NONE',  ( -0.7071067811865462405, 0.0000000000000000000, -0.7071067811865486830 ) ) ;
#94 = MECHANICAL_DESIGN_GEOMETRIC_PRESENTATION_REPRESENTATION (  '', ( #16 ), #265 ) ;
#95 = DIRECTION ( 'NONE',  ( 1.000000000000000000, 0.0000000000000000000, 0.0000000000000000000 ) ) ;
#96 = LENGTH_MEASURE_WITH_UNIT ( LENGTH_MEASURE( 0.02539999999999999897 ), #201 );
#97 = DIRECTION ( 'NONE',  ( 1.000000000000000000, 0.0000000000000000000, -0.0000000000000000000 ) ) ;
#98 = CARTESIAN_POINT ( 'NONE',  ( 0.06250000000000002776, 7.654042494670959086E-18, 1.485000000000000764 ) ) ;
#99 = EDGE_CURVE ( 'NONE', #1, #257, #176, .T. ) ;
#100 = ORIENTED_EDGE ( 'NONE', *, *, #170, .T. ) ;
#101 = ORIENTED_EDGE ( 'NONE', *, *, #229, .F. ) ;
#102 = ORIENTED_EDGE ( 'NONE', *, *, #234, .T. ) ;
#103 = ADVANCED_FACE ( 'NONE', ( #86 ), #268, .F. ) ;
#104 = ORIENTED_EDGE ( 'NONE', *, *, #281, .T. ) ;
#105 = ORIENTED_EDGE ( 'NONE', *, *, #293, .T. ) ;
#106 = DIRECTION ( 'NONE',  ( -1.000000000000000000, 0.0000000000000000000, 0.0000000000000000000 ) ) ;
#107 = VECTOR ( 'NONE', #286, 39.37007874015748143 ) ;
#108 = CARTESIAN_POINT ( 'NONE',  ( 0.04750000000000064587, 5.817072295950006528E-18, 1.500000000000000222 ) ) ;
#109 = DIMENSIONAL_EXPONENTS ( 1.000000000000000000, 0.0000000000000000000, 0.0000000000000000000, 0.0000000000000000000, 0.0000000000000000000, 0.0000000000000000000, 0.0000000000000000000 ) ;
#110 = AXIS2_PLACEMENT_3D ( 'NONE', #296, #248, #137 ) ;
#111 = CARTESIAN_POINT ( 'NONE',  ( -0.06250000000000002776, 0.0000000000000000000, 1.500000000000000222 ) ) ;
#112 = CARTESIAN_POINT ( 'NONE',  ( 5.850705389343265247E-34, 0.0000000000000000000, 4.777463504919746737E-18 ) ) ;
#113 = ADVANCED_FACE ( 'NONE', ( #148 ), #230, .T. ) ;
#114 = DIRECTION ( 'NONE',  ( 0.0000000000000000000, 0.0000000000000000000, 1.000000000000000000 ) ) ;
#115 = VECTOR ( 'NONE', #93, 39.37007874015748854 ) ;
#116 = CARTESIAN_POINT ( 'NONE',  ( 2.302335982397025094E-17, 0.0000000000000000000, 0.1880000000000000282 ) ) ;
#117 = DIRECTION ( 'NONE',  ( 1.000000000000000000, 0.0000000000000000000, 0.0000000000000000000 ) ) ;
#118 = ORIENTED_EDGE ( 'NONE', *, *, #138, .T. ) ;
#119 = PRODUCT ( 'Micro_GEM-078-2X', 'Micro_GEM-078-2X', '', ( #214 ) ) ;
#120 = DIRECTION ( 'NONE',  ( 1.000000000000000000, 0.0000000000000000000, 0.0000000000000000000 ) ) ;
#121 = EDGE_LOOP ( 'NONE', ( #118, #104 ) ) ;
#122 = EDGE_LOOP ( 'NONE', ( #101, #102, #80, #144 ) ) ;
#123 = ORIENTED_EDGE ( 'NONE', *, *, #66, .T. ) ;
#124 = CARTESIAN_POINT ( 'NONE',  ( 0.0000000000000000000, 0.0000000000000000000, 0.0000000000000000000 ) ) ;
#125 = EDGE_LOOP ( 'NONE', ( #191, #54, #187, #73 ) ) ;
#126 = ORIENTED_EDGE ( 'NONE', *, *, #92, .F. ) ;
#127 = CARTESIAN_POINT ( 'NONE',  ( 0.0000000000000000000, 0.0000000000000000000, 1.500000000000000222 ) ) ;
#128 = DIMENSIONAL_EXPONENTS ( 1.000000000000000000, 0.0000000000000000000, 0.0000000000000000000, 0.0000000000000000000, 0.0000000000000000000, 0.0000000000000000000, 0.0000000000000000000 ) ;
#129 = AXIS2_PLACEMENT_3D ( 'NONE', #41, #184, #117 ) ;
#130 = CARTESIAN_POINT ( 'NONE',  ( -0.03901094999999998175, 6.215752999795353296E-18, 0.1880000000000000282 ) ) ;
#131 = DIRECTION ( 'NONE',  ( 1.000000000000000000, 0.0000000000000000000, 0.0000000000000000000 ) ) ;
#132 =( NAMED_UNIT ( * ) PLANE_ANGLE_UNIT ( ) SI_UNIT ( $, .RADIAN. ) );
#133 = CIRCLE ( 'NONE', #285, 0.04750000000000064587 ) ;
#134 = LINE ( 'NONE', #154, #115 ) ;
#135 = CARTESIAN_POINT ( 'NONE',  ( -0.06249999999999997918, 0.0000000000000000000, 0.3212130222250907940 ) ) ;
#136 = AXIS2_PLACEMENT_3D ( 'NONE', #267, #269, #55 ) ;
#137 = DIRECTION ( 'NONE',  ( -1.000000000000000000, 0.0000000000000000000, 0.0000000000000000000 ) ) ;
#138 = EDGE_CURVE ( 'NONE', #190, #27, #272, .T. ) ;
#139 = VECTOR ( 'NONE', #168, 39.37007874015748143 ) ;
#140 = VERTEX_POINT ( 'NONE', #208 ) ;
#141 = EDGE_LOOP ( 'NONE', ( #145, #235, #209, #260 ) ) ;
#142 = LINE ( 'NONE', #82, #139 ) ;
#143 = CIRCLE ( 'NONE', #163, 0.06250000000000002776 ) ;
#144 = ORIENTED_EDGE ( 'NONE', *, *, #293, .F. ) ;
#145 = ORIENTED_EDGE ( 'NONE', *, *, #81, .F. ) ;
#146 = PRESENTATION_STYLE_ASSIGNMENT (( #195 ) ) ;
#147 = AXIS2_PLACEMENT_3D ( 'NONE', #182, #24, #120 ) ;
#148 = FACE_OUTER_BOUND ( 'NONE', #141, .T. ) ;
#149 = DIRECTION ( 'NONE',  ( 0.0000000000000000000, 0.0000000000000000000, 1.000000000000000000 ) ) ;
#150 = DIRECTION ( 'NONE',  ( -1.000000000000000000, 0.0000000000000000000, 1.224646799147353947E-16 ) ) ;
#151 = CARTESIAN_POINT ( 'NONE',  ( -0.06250000000000002776, 0.0000000000000000000, 1.485000000000000764 ) ) ;
#152 = AXIS2_PLACEMENT_3D ( 'NONE', #262, #51, #216 ) ;
#153 = CIRCLE ( 'NONE', #245, 0.04750000000000064587 ) ;
#154 = CARTESIAN_POINT ( 'NONE',  ( -0.04750000000000064587, 0.0000000000000000000, 1.500000000000000222 ) ) ;
#155 = CARTESIAN_POINT ( 'NONE',  ( -0.03901094999999998175, 4.777463504919744426E-18, 0.1880000000000000282 ) ) ;
#156 = APPLICATION_CONTEXT ( 'automotive_design' ) ;
#157 = DIRECTION ( 'NONE',  ( -1.000000000000000000, 0.0000000000000000000, 1.224646799147353947E-16 ) ) ;
#158 = DIRECTION ( 'NONE',  ( 1.224646799147353700E-16, 0.0000000000000000000, 1.000000000000000000 ) ) ;
#159 =( CONVERSION_BASED_UNIT ( 'INCH', #263 ) LENGTH_UNIT ( ) NAMED_UNIT ( #109 ) );
#160 = DIRECTION ( 'NONE',  ( 0.0000000000000000000, 0.0000000000000000000, 1.000000000000000000 ) ) ;
#161 = ORIENTED_EDGE ( 'NONE', *, *, #60, .F. ) ;
#162 = ADVANCED_FACE ( 'NONE', ( #19 ), #224, .T. ) ;
#163 = AXIS2_PLACEMENT_3D ( 'NONE', #254, #204, #67 ) ;
#164 = ORIENTED_EDGE ( 'NONE', *, *, #281, .F. ) ;
#165 = FILL_AREA_STYLE ('',( #31 ) ) ;
#166 = CARTESIAN_POINT ( 'NONE',  ( 0.03901095000000003032, 0.0000000000000000000, 0.1880000000000000282 ) ) ;
#167 = PRESENTATION_STYLE_ASSIGNMENT (( #259 ) ) ;
#168 = DIRECTION ( 'NONE',  ( -1.224646799147353700E-16, -0.0000000000000000000, -1.000000000000000000 ) ) ;
#169 = PRODUCT_DEFINITION_SHAPE ( 'NONE', 'NONE',  #179 ) ;
#170 = EDGE_CURVE ( 'NONE', #233, #212, #4, .T. ) ;
#171 = PRESENTATION_LAYER_ASSIGNMENT (  '', '', ( #277 ) ) ;
#172 = ORIENTED_EDGE ( 'NONE', *, *, #13, .F. ) ;
#173 = FILL_AREA_STYLE ('',( #244 ) ) ;
#174 = DIRECTION ( 'NONE',  ( 0.0000000000000000000, 0.0000000000000000000, 1.000000000000000000 ) ) ;
#175 = VECTOR ( 'NONE', #42, 39.37007874015747433 ) ;
#176 = LINE ( 'NONE', #220, #193 ) ;
#177 = LENGTH_MEASURE_WITH_UNIT ( LENGTH_MEASURE( 0.02539999999999999897 ), #38 );
#178 = CARTESIAN_POINT ( 'NONE',  ( 0.0000000000000000000, 0.0000000000000000000, 1.500000000000000222 ) ) ;
#179 = PRODUCT_DEFINITION ( 'UNKNOWN', '', #289, #90 ) ;
#180 = DIRECTION ( 'NONE',  ( 1.224646799147353700E-16, 0.0000000000000000000, 1.000000000000000000 ) ) ;
#181 = CARTESIAN_POINT ( 'NONE',  ( 2.302335982397025094E-17, 0.0000000000000000000, 0.1880000000000000282 ) ) ;
#182 = CARTESIAN_POINT ( 'NONE',  ( 0.0000000000000000000, 0.0000000000000000000, 1.485000000000000764 ) ) ;
#183 = ADVANCED_FACE ( 'NONE', ( #226 ), #274, .T. ) ;
#184 = DIRECTION ( 'NONE',  ( 0.0000000000000000000, 0.0000000000000000000, -1.000000000000000000 ) ) ;
#185 = VECTOR ( 'NONE', #278, 39.37007874015748143 ) ;
#186 = FACE_OUTER_BOUND ( 'NONE', #29, .T. ) ;
#187 = ORIENTED_EDGE ( 'NONE', *, *, #138, .F. ) ;
#188 = ORIENTED_EDGE ( 'NONE', *, *, #229, .T. ) ;
#189 =( NAMED_UNIT ( * ) SI_UNIT ( $, .STERADIAN. ) SOLID_ANGLE_UNIT ( ) );
#190 = VERTEX_POINT ( 'NONE', #202 ) ;
#191 = ORIENTED_EDGE ( 'NONE', *, *, #255, .T. ) ;
#192 = ORIENTED_EDGE ( 'NONE', *, *, #66, .F. ) ;
#193 = VECTOR ( 'NONE', #12, 39.37007874015748143 ) ;
#194 = DIRECTION ( 'NONE',  ( 0.0000000000000000000, 0.0000000000000000000, -1.000000000000000000 ) ) ;
#195 = SURFACE_STYLE_USAGE ( .BOTH. , #15 ) ;
#196 = UNCERTAINTY_MEASURE_WITH_UNIT (LENGTH_MEASURE( 1.000000000000000082E-05 ), #287, 'distance_accuracy_value', 'NONE');
#197 = CIRCLE ( 'NONE', #152, 0.03901095000000000257 ) ;
#198 = AXIS2_PLACEMENT_3D ( 'NONE', #222, #241, #36 ) ;
#199 = SURFACE_STYLE_FILL_AREA ( #173 ) ;
#200 = FACE_OUTER_BOUND ( 'NONE', #122, .T. ) ;
#201 =( LENGTH_UNIT ( ) NAMED_UNIT ( * ) SI_UNIT ( $, .METRE. ) );
#202 = CARTESIAN_POINT ( 'NONE',  ( -0.03901095000000000257, 0.0000000000000000000, 9.554927009839493473E-18 ) ) ;
#203 = COLOUR_RGB ( '',0.7921568627450980005, 0.8196078431372548767, 0.9333333333333333481 ) ;
#204 = DIRECTION ( 'NONE',  ( -1.224646799147353700E-16, -0.0000000000000000000, -1.000000000000000000 ) ) ;
#205 = ADVANCED_FACE ( 'NONE', ( #186 ), #295, .T. ) ;
#206 = CARTESIAN_POINT ( 'NONE',  ( 3.933724995124051744E-17, 0.0000000000000000000, 0.3212130222250907940 ) ) ;
#207 = ORIENTED_EDGE ( 'NONE', *, *, #81, .T. ) ;
#208 = CARTESIAN_POINT ( 'NONE',  ( 0.04750000000000064587, 6.735557395310483192E-18, 1.500000000000000222 ) ) ;
#209 = ORIENTED_EDGE ( 'NONE', *, *, #170, .F. ) ;
#210 = ORIENTED_EDGE ( 'NONE', *, *, #297, .T. ) ;
#211 = SURFACE_SIDE_STYLE ('',( #46 ) ) ;
#212 = VERTEX_POINT ( 'NONE', #98 ) ;
#213 =( GEOMETRIC_REPRESENTATION_CONTEXT ( 3 ) GLOBAL_UNCERTAINTY_ASSIGNED_CONTEXT ( ( #39 ) ) GLOBAL_UNIT_ASSIGNED_CONTEXT ( ( #44, #5, #50 ) ) REPRESENTATION_CONTEXT ( 'NONE', 'WORKASPACE' ) );
#214 = PRODUCT_CONTEXT ( 'NONE', #156, 'mechanical' ) ;
#215 = ORIENTED_EDGE ( 'NONE', *, *, #297, .F. ) ;
#216 = DIRECTION ( 'NONE',  ( -1.000000000000000000, 0.0000000000000000000, 0.0000000000000000000 ) ) ;
#217 = DIRECTION ( 'NONE',  ( -1.224646799147353700E-16, -0.0000000000000000000, -1.000000000000000000 ) ) ;
#218 = AXIS2_PLACEMENT_3D ( 'NONE', #116, #158, #95 ) ;
#219 = CARTESIAN_POINT ( 'NONE',  ( 0.0000000000000000000, 0.0000000000000000000, 0.0000000000000000000 ) ) ;
#220 = CARTESIAN_POINT ( 'NONE',  ( 0.03901095000000003032, 0.0000000000000000000, 0.1880000000000000282 ) ) ;
#221 = CIRCLE ( 'NONE', #129, 0.06250000000000002776 ) ;
#222 = CARTESIAN_POINT ( 'NONE',  ( 0.0000000000000000000, 0.0000000000000000000, 1.500000000000000222 ) ) ;
#223 = LINE ( 'NONE', #155, #175 ) ;
#224 = PLANE ( 'NONE',  #53 ) ;
#225 = AXIS2_PLACEMENT_3D ( 'NONE', #18, #180, #22 ) ;
#226 = FACE_OUTER_BOUND ( 'NONE', #125, .T. ) ;
#227 = CARTESIAN_POINT ( 'NONE',  ( 0.0000000000000000000, 0.0000000000000000000, 1.500000000000000222 ) ) ;
#228 = APPLICATION_PROTOCOL_DEFINITION ( 'draft international standard', 'automotive_design', 1998, #156 ) ;
#229 = EDGE_CURVE ( 'NONE', #212, #257, #276, .T. ) ;
#230 = CONICAL_SURFACE ( 'NONE', #198, 0.04750000000000064587, 0.7853981633974466137 ) ;
#231 = APPLICATION_PROTOCOL_DEFINITION ( 'draft international standard', 'automotive_design', 1998, #2 ) ;
#232 = ORIENTED_EDGE ( 'NONE', *, *, #261, .T. ) ;
#233 = VERTEX_POINT ( 'NONE', #151 ) ;
#234 = EDGE_CURVE ( 'NONE', #212, #233, #221, .T. ) ;
#235 = ORIENTED_EDGE ( 'NONE', *, *, #60, .T. ) ;
#236 = AXIS2_PLACEMENT_3D ( 'NONE', #206, #21, #70 ) ;
#237 = ORIENTED_EDGE ( 'NONE', *, *, #99, .T. ) ;
#238 = CYLINDRICAL_SURFACE ( 'NONE', #25, 0.03901095000000000257 ) ;
#239 = DIRECTION ( 'NONE',  ( 0.7071067811865462405, 8.659560562354916834E-17, -0.7071067811865486830 ) ) ;
#240 = PRODUCT_RELATED_PRODUCT_CATEGORY ( 'part', '', ( #119 ) ) ;
#241 = DIRECTION ( 'NONE',  ( 0.0000000000000000000, 0.0000000000000000000, -1.000000000000000000 ) ) ;
#242 = DIRECTION ( 'NONE',  ( -1.224646799147353700E-16, -0.0000000000000000000, -1.000000000000000000 ) ) ;
#243 = EDGE_CURVE ( 'NONE', #280, #233, #134, .T. ) ;
#244 = FILL_AREA_STYLE_COLOUR ( '', #203 ) ;
#245 = AXIS2_PLACEMENT_3D ( 'NONE', #14, #174, #89 ) ;
#246 = FACE_OUTER_BOUND ( 'NONE', #78, .T. ) ;
#247 = ADVANCED_FACE ( 'NONE', ( #246 ), #56, .T. ) ;
#248 = DIRECTION ( 'NONE',  ( -0.0000000000000000000, -0.0000000000000000000, -1.000000000000000000 ) ) ;
#249 = DIRECTION ( 'NONE',  ( -1.224646799147353700E-16, -0.0000000000000000000, -1.000000000000000000 ) ) ;
#250 = ADVANCED_BREP_SHAPE_REPRESENTATION ( 'Micro_GEM-078-2X', ( #68, #63 ), #213 ) ;
#251 = DIRECTION ( 'NONE',  ( -1.000000000000000000, 0.0000000000000000000, 1.224646799147353947E-16 ) ) ;
#252 = CONICAL_SURFACE ( 'NONE', #62, 0.04750000000000064587, 0.7853981633974466137 ) ;
#253 = ADVANCED_FACE ( 'NONE', ( #294 ), #84, .T. ) ;
#254 = CARTESIAN_POINT ( 'NONE',  ( 3.933724995124051744E-17, 0.0000000000000000000, 0.3212130222250907940 ) ) ;
#255 = EDGE_CURVE ( 'NONE', #49, #1, #30, .T. ) ;
#256 = DIRECTION ( 'NONE',  ( 1.000000000000000000, 0.0000000000000000000, 0.0000000000000000000 ) ) ;
#257 = VERTEX_POINT ( 'NONE', #65 ) ;
#258 = VECTOR ( 'NONE', #239, 39.37007874015748854 ) ;
#259 = SURFACE_STYLE_USAGE ( .BOTH. , #211 ) ;
#260 = ORIENTED_EDGE ( 'NONE', *, *, #243, .F. ) ;
#261 = EDGE_CURVE ( 'NONE', #49, #299, #223, .T. ) ;
#262 = CARTESIAN_POINT ( 'NONE',  ( 2.302335982397025094E-17, 0.0000000000000000000, 0.1880000000000000282 ) ) ;
#263 = LENGTH_MEASURE_WITH_UNIT ( LENGTH_MEASURE( 0.02539999999999999897 ), #79 );
#264 = CARTESIAN_POINT ( 'NONE',  ( 0.03901095000000000257, 4.777463504919744426E-18, 0.0000000000000000000 ) ) ;
#265 =( GEOMETRIC_REPRESENTATION_CONTEXT ( 3 ) GLOBAL_UNCERTAINTY_ASSIGNED_CONTEXT ( ( #196 ) ) GLOBAL_UNIT_ASSIGNED_CONTEXT ( ( #287, #132, #37 ) ) REPRESENTATION_CONTEXT ( 'NONE', 'WORKASPACE' ) );
#266 = ORIENTED_EDGE ( 'NONE', *, *, #99, .F. ) ;
#267 = CARTESIAN_POINT ( 'NONE',  ( 0.0000000000000000000, 0.0000000000000000000, 0.0000000000000000000 ) ) ;
#268 = PLANE ( 'NONE',  #136 ) ;
#269 = DIRECTION ( 'NONE',  ( 0.0000000000000000000, 0.0000000000000000000, 1.000000000000000000 ) ) ;
#270 = DIRECTION ( 'NONE',  ( -1.000000000000000000, 0.0000000000000000000, 1.224646799147353947E-16 ) ) ;
#271 = DIRECTION ( 'NONE',  ( -0.0000000000000000000, -0.0000000000000000000, -1.000000000000000000 ) ) ;
#272 = CIRCLE ( 'NONE', #69, 0.03901095000000000257 ) ;
#273 = DIRECTION ( 'NONE',  ( -1.224646799147353700E-16, -0.0000000000000000000, -1.000000000000000000 ) ) ;
#274 = CYLINDRICAL_SURFACE ( 'NONE', #11, 0.03901095000000000257 ) ;
#275 = CARTESIAN_POINT ( 'NONE',  ( -0.04750000000000064587, 0.0000000000000000000, 1.500000000000000222 ) ) ;
#276 = LINE ( 'NONE', #291, #185 ) ;
#277 = STYLED_ITEM ( 'NONE', ( #167 ), #250 ) ;
#278 = DIRECTION ( 'NONE',  ( -0.0000000000000000000, -0.0000000000000000000, -1.000000000000000000 ) ) ;
#279 = ORIENTED_EDGE ( 'NONE', *, *, #43, .T. ) ;
#280 = VERTEX_POINT ( 'NONE', #275 ) ;
#281 = EDGE_CURVE ( 'NONE', #27, #190, #88, .T. ) ;
#282 = EDGE_LOOP ( 'NONE', ( #161, #192, #48, #6 ) ) ;
#283 = EDGE_LOOP ( 'NONE', ( #172, #3, #279, #164 ) ) ;
#284 = ORIENTED_EDGE ( 'NONE', *, *, #8, .F. ) ;
#285 = AXIS2_PLACEMENT_3D ( 'NONE', #127, #149, #131 ) ;
#286 = DIRECTION ( 'NONE',  ( -0.0000000000000000000, -0.0000000000000000000, -1.000000000000000000 ) ) ;
#287 =( CONVERSION_BASED_UNIT ( 'INCH', #177 ) LENGTH_UNIT ( ) NAMED_UNIT ( #128 ) );
#288 = COLOUR_RGB ( '',0.7921568627450980005, 0.8196078431372548767, 0.9333333333333333481 ) ;
#289 = PRODUCT_DEFINITION_FORMATION_WITH_SPECIFIED_SOURCE ( 'ANY', '', #119, .NOT_KNOWN. ) ;
#290 = DIRECTION ( 'NONE',  ( -1.000000000000000000, 0.0000000000000000000, 0.0000000000000000000 ) ) ;
#291 = CARTESIAN_POINT ( 'NONE',  ( 0.06250000000000002776, 7.654042494670959086E-18, 1.500000000000000222 ) ) ;
#292 = AXIS2_PLACEMENT_3D ( 'NONE', #112, #64, #251 ) ;
#293 = EDGE_CURVE ( 'NONE', #257, #299, #143, .T. ) ;
#294 = FACE_OUTER_BOUND ( 'NONE', #23, .T. ) ;
#295 = CYLINDRICAL_SURFACE ( 'NONE', #110, 0.06250000000000002776 ) ;
#296 = CARTESIAN_POINT ( 'NONE',  ( 0.0000000000000000000, 0.0000000000000000000, 1.500000000000000222 ) ) ;
#297 = EDGE_CURVE ( 'NONE', #299, #257, #34, .T. ) ;
#298 = CARTESIAN_POINT ( 'NONE',  ( 0.0000000000000000000, 0.0000000000000000000, 0.0000000000000000000 ) ) ;
#299 = VERTEX_POINT ( 'NONE', #135 ) ;
ENDSEC;
END-ISO-10303-21;
