ISO-10303-21;
HEADER;
FILE_DESCRIPTION (( 'STEP AP214' ),
    '1' );
FILE_NAME ('Micro_DMM-040-2120X.STEP',
    '2021-09-02T16:16:43',
    ( '' ),
    ( '' ),
    'SwSTEP 2.0',
    'SolidWorks 2020',
    '' );
FILE_SCHEMA (( 'AUTOMOTIVE_DESIGN' ));
ENDSEC;

DATA;
#1 = SURFACE_STYLE_FILL_AREA ( #154 ) ;
#2 = CIRCLE ( 'NONE', #112, 0.07874000000000000443 ) ;
#3 = DIRECTION ( 'NONE',  ( -0.0000000000000000000, -0.0000000000000000000, -1.000000000000000000 ) ) ;
#4 = EDGE_CURVE ( 'NONE', #17, #290, #85, .T. ) ;
#5 = DIRECTION ( 'NONE',  ( -0.0000000000000000000, -0.0000000000000000000, -1.000000000000000000 ) ) ;
#6 = CARTESIAN_POINT ( 'NONE',  ( 0.07869000000000006545, 0.0000000000000000000, 0.4330709999999999837 ) ) ;
#7 = CARTESIAN_POINT ( 'NONE',  ( 0.0000000000000000000, 0.0000000000000000000, 0.4330709999999999837 ) ) ;
#8 = DIRECTION ( 'NONE',  ( 0.7071067811865502373, 8.659560562354966138E-17, -0.7071067811865446862 ) ) ;
#9 = DIRECTION ( 'NONE',  ( -1.000000000000000000, 0.0000000000000000000, 0.0000000000000000000 ) ) ;
#10 = CARTESIAN_POINT ( 'NONE',  ( 0.06374000000000018540, 7.805898697765251255E-18, 1.968503999999999809 ) ) ;
#11 =( NAMED_UNIT ( * ) PLANE_ANGLE_UNIT ( ) SI_UNIT ( $, .RADIAN. ) );
#12 = ADVANCED_FACE ( 'NONE', ( #311 ), #160, .T. ) ;
#13 = DIRECTION ( 'NONE',  ( 0.0000000000000000000, 0.0000000000000000000, 1.000000000000000000 ) ) ;
#14 =( LENGTH_UNIT ( ) NAMED_UNIT ( * ) SI_UNIT ( $, .METRE. ) );
#15 = DIRECTION ( 'NONE',  ( -0.8660254037844400399, 1.060575238724908640E-16, 0.4999999999999976685 ) ) ;
#16 = SURFACE_STYLE_USAGE ( .BOTH. , #234 ) ;
#17 = VERTEX_POINT ( 'NONE', #171 ) ;
#18 = COLOUR_RGB ( '',0.7921568627450980005, 0.8196078431372548767, 0.9333333333333333481 ) ;
#19 = VERTEX_POINT ( 'NONE', #25 ) ;
#20 = EDGE_CURVE ( 'NONE', #244, #19, #210, .T. ) ;
#21 = VERTEX_POINT ( 'NONE', #176 ) ;
#22 = ORIENTED_EDGE ( 'NONE', *, *, #261, .F. ) ;
#23 = VECTOR ( 'NONE', #53, 39.37007874015748143 ) ;
#24 = ORIENTED_EDGE ( 'NONE', *, *, #190, .T. ) ;
#25 = CARTESIAN_POINT ( 'NONE',  ( -0.06374000000000018540, 0.0000000000000000000, 1.968503999999999809 ) ) ;
#26 = CARTESIAN_POINT ( 'NONE',  ( 0.07874000000000000443, 9.642868896486258509E-18, 0.4330709999999999837 ) ) ;
#27 = EDGE_CURVE ( 'NONE', #21, #73, #291, .T. ) ;
#28 = CARTESIAN_POINT ( 'NONE',  ( -0.07874000000000000443, 0.0000000000000000000, 1.968503999999999809 ) ) ;
#29 = CARTESIAN_POINT ( 'NONE',  ( 0.06374000000000018540, 8.724383797125754882E-18, 1.968503999999999809 ) ) ;
#30 = CYLINDRICAL_SURFACE ( 'NONE', #146, 0.07869000000000003769 ) ;
#31 = SURFACE_SIDE_STYLE ('',( #1 ) ) ;
#32 = ORIENTED_EDGE ( 'NONE', *, *, #81, .T. ) ;
#33 = CARTESIAN_POINT ( 'NONE',  ( 0.0000000000000000000, 0.0000000000000000000, 1.968503999999999809 ) ) ;
#34 = CARTESIAN_POINT ( 'NONE',  ( 0.0000000000000000000, 0.0000000000000000000, 1.707404996040164512E-17 ) ) ;
#35 = FACE_OUTER_BOUND ( 'NONE', #42, .T. ) ;
#36 = CARTESIAN_POINT ( 'NONE',  ( 0.0000000000000000000, 0.0000000000000000000, 0.0000000000000000000 ) ) ;
#37 = CLOSED_SHELL ( 'NONE', ( #168, #197, #12, #149, #228, #225, #284, #182, #207, #107, #272 ) ) ;
#38 = CONICAL_SURFACE ( 'NONE', #57, 0.007499999999999999722, 1.047197551196600518 ) ;
#39 = DIMENSIONAL_EXPONENTS ( 1.000000000000000000, 0.0000000000000000000, 0.0000000000000000000, 0.0000000000000000000, 0.0000000000000000000, 0.0000000000000000000, 0.0000000000000000000 ) ;
#40 = COLOUR_RGB ( '',0.7921568627450980005, 0.8196078431372548767, 0.9333333333333333481 ) ;
#41 = CARTESIAN_POINT ( 'NONE',  ( 0.0000000000000000000, 0.0000000000000000000, 0.04110156566360921582 ) ) ;
#42 = EDGE_LOOP ( 'NONE', ( #72, #127, #300, #273 ) ) ;
#43 = DIRECTION ( 'NONE',  ( 1.000000000000000000, 0.0000000000000000000, 0.0000000000000000000 ) ) ;
#44 = AXIS2_PLACEMENT_3D ( 'NONE', #41, #286, #59 ) ;
#45 = DIRECTION ( 'NONE',  ( -1.000000000000000000, 0.0000000000000000000, 0.0000000000000000000 ) ) ;
#46 = FACE_OUTER_BOUND ( 'NONE', #306, .T. ) ;
#47 = ORIENTED_EDGE ( 'NONE', *, *, #4, .F. ) ;
#48 = AXIS2_PLACEMENT_3D ( 'NONE', #257, #180, #89 ) ;
#49 = VERTEX_POINT ( 'NONE', #132 ) ;
#50 = VERTEX_POINT ( 'NONE', #278 ) ;
#51 = AXIS2_PLACEMENT_3D ( 'NONE', #7, #58, #9 ) ;
#52 = AXIS2_PLACEMENT_3D ( 'NONE', #6, #93, #117 ) ;
#53 = DIRECTION ( 'NONE',  ( -0.0000000000000000000, -0.0000000000000000000, -1.000000000000000000 ) ) ;
#54 = CARTESIAN_POINT ( 'NONE',  ( 0.07869000000000006545, 9.636745662490529768E-18, 0.4330709999999999837 ) ) ;
#55 = DIRECTION ( 'NONE',  ( 1.000000000000000000, 0.0000000000000000000, 0.0000000000000000000 ) ) ;
#56 = AXIS2_PLACEMENT_3D ( 'NONE', #295, #209, #91 ) ;
#57 = AXIS2_PLACEMENT_3D ( 'NONE', #34, #138, #102 ) ;
#58 = DIRECTION ( 'NONE',  ( -0.0000000000000000000, -0.0000000000000000000, -1.000000000000000000 ) ) ;
#59 = DIRECTION ( 'NONE',  ( -1.000000000000000000, 0.0000000000000000000, 0.0000000000000000000 ) ) ;
#60 = DIMENSIONAL_EXPONENTS ( 1.000000000000000000, 0.0000000000000000000, 0.0000000000000000000, 0.0000000000000000000, 0.0000000000000000000, 0.0000000000000000000, 0.0000000000000000000 ) ;
#61 = DIRECTION ( 'NONE',  ( -0.0000000000000000000, -0.0000000000000000000, -1.000000000000000000 ) ) ;
#62 = VERTEX_POINT ( 'NONE', #129 ) ;
#63 = LINE ( 'NONE', #322, #299 ) ;
#64 = CARTESIAN_POINT ( 'NONE',  ( 0.0000000000000000000, 0.0000000000000000000, 0.0000000000000000000 ) ) ;
#65 = ORIENTED_EDGE ( 'NONE', *, *, #267, .T. ) ;
#66 = PRESENTATION_LAYER_ASSIGNMENT (  '', '', ( #196 ) ) ;
#67 = PRODUCT_CONTEXT ( 'NONE', #125, 'mechanical' ) ;
#68 = PLANE ( 'NONE',  #52 ) ;
#69 = ADVANCED_BREP_SHAPE_REPRESENTATION ( 'Micro_DMM-040-2120X', ( #287, #305 ), #169 ) ;
#70 = CIRCLE ( 'NONE', #158, 0.07874000000000000443 ) ;
#71 = CARTESIAN_POINT ( 'NONE',  ( 0.07874000000000000443, 9.642868896486258509E-18, 1.968503999999999809 ) ) ;
#72 = ORIENTED_EDGE ( 'NONE', *, *, #166, .F. ) ;
#73 = VERTEX_POINT ( 'NONE', #54 ) ;
#74 = VECTOR ( 'NONE', #8, 39.37007874015748854 ) ;
#75 = CARTESIAN_POINT ( 'NONE',  ( 0.0000000000000000000, 0.0000000000000000000, 1.707404996040164512E-17 ) ) ;
#76 = ORIENTED_EDGE ( 'NONE', *, *, #302, .T. ) ;
#77 = UNCERTAINTY_MEASURE_WITH_UNIT (LENGTH_MEASURE( 1.000000000000000082E-05 ), #243, 'distance_accuracy_value', 'NONE');
#78 = ORIENTED_EDGE ( 'NONE', *, *, #293, .T. ) ;
#79 = STYLED_ITEM ( 'NONE', ( #99 ), #287 ) ;
#80 = CARTESIAN_POINT ( 'NONE',  ( 0.0000000000000000000, 0.0000000000000000000, 1.968503999999999809 ) ) ;
#81 = EDGE_CURVE ( 'NONE', #126, #290, #221, .T. ) ;
#82 = DIRECTION ( 'NONE',  ( 0.0000000000000000000, 0.0000000000000000000, -1.000000000000000000 ) ) ;
#83 = DIRECTION ( 'NONE',  ( 1.000000000000000000, 0.0000000000000000000, 0.0000000000000000000 ) ) ;
#84 = FACE_BOUND ( 'NONE', #87, .T. ) ;
#85 = LINE ( 'NONE', #28, #23 ) ;
#86 = DIRECTION ( 'NONE',  ( 0.0000000000000000000, 0.0000000000000000000, -1.000000000000000000 ) ) ;
#87 = EDGE_LOOP ( 'NONE', ( #106, #161 ) ) ;
#88 = PRODUCT_DEFINITION ( 'UNKNOWN', '', #97, #140 ) ;
#89 = DIRECTION ( 'NONE',  ( -1.000000000000000000, 0.0000000000000000000, 0.0000000000000000000 ) ) ;
#90 = FACE_OUTER_BOUND ( 'NONE', #145, .T. ) ;
#91 = DIRECTION ( 'NONE',  ( -1.000000000000000000, 0.0000000000000000000, 0.0000000000000000000 ) ) ;
#92 = DIRECTION ( 'NONE',  ( 1.000000000000000000, 0.0000000000000000000, -0.0000000000000000000 ) ) ;
#93 = DIRECTION ( 'NONE',  ( -0.0000000000000000000, 0.0000000000000000000, -1.000000000000000000 ) ) ;
#94 = LINE ( 'NONE', #71, #275 ) ;
#95 = DIRECTION ( 'NONE',  ( -0.0000000000000000000, -0.0000000000000000000, -1.000000000000000000 ) ) ;
#96 = EDGE_CURVE ( 'NONE', #21, #49, #256, .T. ) ;
#97 = PRODUCT_DEFINITION_FORMATION_WITH_SPECIFIED_SOURCE ( 'ANY', '', #269, .NOT_KNOWN. ) ;
#98 =( NAMED_UNIT ( * ) SI_UNIT ( $, .STERADIAN. ) SOLID_ANGLE_UNIT ( ) );
#99 = PRESENTATION_STYLE_ASSIGNMENT (( #16 ) ) ;
#100 =( NAMED_UNIT ( * ) SI_UNIT ( $, .STERADIAN. ) SOLID_ANGLE_UNIT ( ) );
#101 = FILL_AREA_STYLE ('',( #236 ) ) ;
#102 = DIRECTION ( 'NONE',  ( 1.000000000000000000, 0.0000000000000000000, 0.0000000000000000000 ) ) ;
#103 = UNCERTAINTY_MEASURE_WITH_UNIT (LENGTH_MEASURE( 1.000000000000000082E-05 ), #233, 'distance_accuracy_value', 'NONE');
#104 = AXIS2_PLACEMENT_3D ( 'NONE', #139, #214, #297 ) ;
#105 = ORIENTED_EDGE ( 'NONE', *, *, #190, .F. ) ;
#106 = ORIENTED_EDGE ( 'NONE', *, *, #27, .F. ) ;
#107 = ADVANCED_FACE ( 'NONE', ( #35 ), #151, .T. ) ;
#108 = AXIS2_PLACEMENT_3D ( 'NONE', #155, #283, #254 ) ;
#109 = ORIENTED_EDGE ( 'NONE', *, *, #96, .F. ) ;
#110 = ORIENTED_EDGE ( 'NONE', *, *, #173, .T. ) ;
#111 = ORIENTED_EDGE ( 'NONE', *, *, #166, .T. ) ;
#112 = AXIS2_PLACEMENT_3D ( 'NONE', #122, #86, #181 ) ;
#113 = CARTESIAN_POINT ( 'NONE',  ( 0.0000000000000000000, 0.0000000000000000000, 1.953504000000000129 ) ) ;
#114 = DIRECTION ( 'NONE',  ( 1.000000000000000000, 0.0000000000000000000, 0.0000000000000000000 ) ) ;
#115 = DIRECTION ( 'NONE',  ( -1.000000000000000000, 0.0000000000000000000, 0.0000000000000000000 ) ) ;
#116 = DIRECTION ( 'NONE',  ( -1.000000000000000000, 0.0000000000000000000, 0.0000000000000000000 ) ) ;
#117 = DIRECTION ( 'NONE',  ( -1.000000000000000000, 0.0000000000000000000, 0.0000000000000000000 ) ) ;
#118 = PRODUCT_RELATED_PRODUCT_CATEGORY ( 'part', '', ( #269 ) ) ;
#119 = CIRCLE ( 'NONE', #48, 0.007499999999999999722 ) ;
#120 = FACE_OUTER_BOUND ( 'NONE', #170, .T. ) ;
#121 = CARTESIAN_POINT ( 'NONE',  ( 0.0000000000000000000, 0.0000000000000000000, 1.968503999999999809 ) ) ;
#122 = CARTESIAN_POINT ( 'NONE',  ( 0.0000000000000000000, 0.0000000000000000000, 1.953504000000000129 ) ) ;
#123 = CIRCLE ( 'NONE', #152, 0.07874000000000000443 ) ;
#124 = AXIS2_PLACEMENT_3D ( 'NONE', #33, #279, #114 ) ;
#125 = APPLICATION_CONTEXT ( 'automotive_design' ) ;
#126 = VERTEX_POINT ( 'NONE', #26 ) ;
#127 = ORIENTED_EDGE ( 'NONE', *, *, #153, .T. ) ;
#128 =( NAMED_UNIT ( * ) PLANE_ANGLE_UNIT ( ) SI_UNIT ( $, .RADIAN. ) );
#129 = CARTESIAN_POINT ( 'NONE',  ( 0.007499999999999999722, 0.0000000000000000000, 1.707404996040164512E-17 ) ) ;
#130 = CARTESIAN_POINT ( 'NONE',  ( 0.007499999999999999722, 0.0000000000000000000, 1.707404996040164512E-17 ) ) ;
#131 = AXIS2_PLACEMENT_3D ( 'NONE', #183, #188, #296 ) ;
#132 = CARTESIAN_POINT ( 'NONE',  ( -0.07869000000000000994, 9.636745662490523605E-18, 0.04110156566360921582 ) ) ;
#133 = DIRECTION ( 'NONE',  ( -1.000000000000000000, 0.0000000000000000000, 0.0000000000000000000 ) ) ;
#134 = EDGE_CURVE ( 'NONE', #62, #195, #229, .T. ) ;
#135 = ORIENTED_EDGE ( 'NONE', *, *, #27, .T. ) ;
#136 = CARTESIAN_POINT ( 'NONE',  ( 0.07869000000000000994, 0.0000000000000000000, 0.04110156566360921582 ) ) ;
#137 = CARTESIAN_POINT ( 'NONE',  ( -0.07874000000000000443, 0.0000000000000000000, 0.4330709999999999837 ) ) ;
#138 = DIRECTION ( 'NONE',  ( 0.0000000000000000000, 0.0000000000000000000, 1.000000000000000000 ) ) ;
#139 = CARTESIAN_POINT ( 'NONE',  ( 0.0000000000000000000, 0.0000000000000000000, 1.707404996040164512E-17 ) ) ;
#140 = PRODUCT_DEFINITION_CONTEXT ( 'detailed design', #150, 'design' ) ;
#141 = ORIENTED_EDGE ( 'NONE', *, *, #143, .F. ) ;
#142 = ORIENTED_EDGE ( 'NONE', *, *, #4, .T. ) ;
#143 = EDGE_CURVE ( 'NONE', #50, #17, #123, .T. ) ;
#144 = ORIENTED_EDGE ( 'NONE', *, *, #134, .T. ) ;
#145 = EDGE_LOOP ( 'NONE', ( #135, #111, #105, #109 ) ) ;
#146 = AXIS2_PLACEMENT_3D ( 'NONE', #64, #259, #115 ) ;
#147 = EDGE_LOOP ( 'NONE', ( #271, #303, #144, #110 ) ) ;
#148 = MECHANICAL_DESIGN_GEOMETRIC_PRESENTATION_REPRESENTATION (  '', ( #79 ), #231 ) ;
#149 = ADVANCED_FACE ( 'NONE', ( #199 ), #313, .T. ) ;
#150 = APPLICATION_CONTEXT ( 'automotive_design' ) ;
#151 = CYLINDRICAL_SURFACE ( 'NONE', #245, 0.07869000000000003769 ) ;
#152 = AXIS2_PLACEMENT_3D ( 'NONE', #113, #198, #55 ) ;
#153 = EDGE_CURVE ( 'NONE', #73, #21, #191, .T. ) ;
#154 = FILL_AREA_STYLE ('',( #219 ) ) ;
#155 = CARTESIAN_POINT ( 'NONE',  ( 0.0000000000000000000, 0.0000000000000000000, 1.968503999999999809 ) ) ;
#156 = CARTESIAN_POINT ( 'NONE',  ( 0.0000000000000000000, 0.0000000000000000000, 1.968503999999999809 ) ) ;
#157 = CARTESIAN_POINT ( 'NONE',  ( 0.0000000000000000000, 0.0000000000000000000, 0.04110156566360921582 ) ) ;
#158 = AXIS2_PLACEMENT_3D ( 'NONE', #159, #264, #45 ) ;
#159 = CARTESIAN_POINT ( 'NONE',  ( 0.0000000000000000000, 0.0000000000000000000, 0.4330709999999999837 ) ) ;
#160 = CONICAL_SURFACE ( 'NONE', #327, 0.06374000000000018540, 0.7853981633974522758 ) ;
#161 = ORIENTED_EDGE ( 'NONE', *, *, #153, .F. ) ;
#162 = PRODUCT_DEFINITION_SHAPE ( 'NONE', 'NONE',  #88 ) ;
#163 = ORIENTED_EDGE ( 'NONE', *, *, #293, .F. ) ;
#164 = AXIS2_PLACEMENT_3D ( 'NONE', #248, #226, #174 ) ;
#165 = VECTOR ( 'NONE', #285, 39.37007874015748854 ) ;
#166 = EDGE_CURVE ( 'NONE', #73, #195, #205, .T. ) ;
#167 = ORIENTED_EDGE ( 'NONE', *, *, #250, .T. ) ;
#168 = ADVANCED_FACE ( 'NONE', ( #90 ), #30, .T. ) ;
#169 =( GEOMETRIC_REPRESENTATION_CONTEXT ( 3 ) GLOBAL_UNCERTAINTY_ASSIGNED_CONTEXT ( ( #77 ) ) GLOBAL_UNIT_ASSIGNED_CONTEXT ( ( #243, #128, #98 ) ) REPRESENTATION_CONTEXT ( 'NONE', 'WORKASPACE' ) );
#170 = EDGE_LOOP ( 'NONE', ( #326, #329 ) ) ;
#171 = CARTESIAN_POINT ( 'NONE',  ( -0.07874000000000000443, 0.0000000000000000000, 1.953504000000000129 ) ) ;
#172 = DIRECTION ( 'NONE',  ( -1.000000000000000000, 0.0000000000000000000, 0.0000000000000000000 ) ) ;
#173 = EDGE_CURVE ( 'NONE', #195, #49, #298, .T. ) ;
#174 = DIRECTION ( 'NONE',  ( -1.000000000000000000, 0.0000000000000000000, 0.0000000000000000000 ) ) ;
#175 = CYLINDRICAL_SURFACE ( 'NONE', #222, 0.07874000000000000443 ) ;
#176 = CARTESIAN_POINT ( 'NONE',  ( -0.07869000000000006545, 0.0000000000000000000, 0.4330709999999999837 ) ) ;
#177 = CARTESIAN_POINT ( 'NONE',  ( -0.07869000000000003769, 0.0000000000000000000, 0.0000000000000000000 ) ) ;
#178 = FACE_OUTER_BOUND ( 'NONE', #308, .T. ) ;
#179 = LENGTH_MEASURE_WITH_UNIT ( LENGTH_MEASURE( 0.02539999999999999897 ), #204 );
#180 = DIRECTION ( 'NONE',  ( -0.0000000000000000000, -0.0000000000000000000, -1.000000000000000000 ) ) ;
#181 = DIRECTION ( 'NONE',  ( 1.000000000000000000, 0.0000000000000000000, 0.0000000000000000000 ) ) ;
#182 = ADVANCED_FACE ( 'NONE', ( #84, #258 ), #68, .T. ) ;
#183 = CARTESIAN_POINT ( 'NONE',  ( 0.0000000000000000000, 0.0000000000000000000, 1.968503999999999809 ) ) ;
#184 = AXIS2_PLACEMENT_3D ( 'NONE', #121, #13, #224 ) ;
#185 =( NAMED_UNIT ( * ) SI_UNIT ( $, .STERADIAN. ) SOLID_ANGLE_UNIT ( ) );
#186 = EDGE_CURVE ( 'NONE', #17, #50, #2, .T. ) ;
#187 =( CONVERSION_BASED_UNIT ( 'INCH', #208 ) LENGTH_UNIT ( ) NAMED_UNIT ( #194 ) );
#188 = DIRECTION ( 'NONE',  ( 0.0000000000000000000, 0.0000000000000000000, -1.000000000000000000 ) ) ;
#189 = EDGE_LOOP ( 'NONE', ( #78, #32 ) ) ;
#190 = EDGE_CURVE ( 'NONE', #49, #195, #206, .T. ) ;
#191 = CIRCLE ( 'NONE', #56, 0.07869000000000006545 ) ;
#192 = ORIENTED_EDGE ( 'NONE', *, *, #186, .T. ) ;
#193 = ORIENTED_EDGE ( 'NONE', *, *, #312, .F. ) ;
#194 = DIMENSIONAL_EXPONENTS ( 1.000000000000000000, 0.0000000000000000000, 0.0000000000000000000, 0.0000000000000000000, 0.0000000000000000000, 0.0000000000000000000, 0.0000000000000000000 ) ;
#195 = VERTEX_POINT ( 'NONE', #136 ) ;
#196 = STYLED_ITEM ( 'NONE', ( #315 ), #69 ) ;
#197 = ADVANCED_FACE ( 'NONE', ( #255 ), #38, .T. ) ;
#198 = DIRECTION ( 'NONE',  ( 0.0000000000000000000, 0.0000000000000000000, -1.000000000000000000 ) ) ;
#199 = FACE_OUTER_BOUND ( 'NONE', #270, .T. ) ;
#200 = DIRECTION ( 'NONE',  ( 0.0000000000000000000, 0.0000000000000000000, 1.000000000000000000 ) ) ;
#201 = SURFACE_STYLE_USAGE ( .BOTH. , #31 ) ;
#202 = VECTOR ( 'NONE', #5, 39.37007874015748143 ) ;
#203 = PLANE ( 'NONE',  #184 ) ;
#204 =( LENGTH_UNIT ( ) NAMED_UNIT ( * ) SI_UNIT ( $, .METRE. ) );
#205 = LINE ( 'NONE', #260, #282 ) ;
#206 = CIRCLE ( 'NONE', #44, 0.07869000000000000994 ) ;
#207 = ADVANCED_FACE ( 'NONE', ( #211 ), #246, .T. ) ;
#208 = LENGTH_MEASURE_WITH_UNIT ( LENGTH_MEASURE( 0.02539999999999999897 ), #294 );
#209 = DIRECTION ( 'NONE',  ( -0.0000000000000000000, -0.0000000000000000000, -1.000000000000000000 ) ) ;
#210 = CIRCLE ( 'NONE', #320, 0.06374000000000018540 ) ;
#211 = FACE_OUTER_BOUND ( 'NONE', #147, .T. ) ;
#212 = CIRCLE ( 'NONE', #104, 0.007499999999999999722 ) ;
#213 = ORIENTED_EDGE ( 'NONE', *, *, #250, .F. ) ;
#214 = DIRECTION ( 'NONE',  ( -0.0000000000000000000, -0.0000000000000000000, -1.000000000000000000 ) ) ;
#215 = ORIENTED_EDGE ( 'NONE', *, *, #143, .T. ) ;
#216 = EDGE_LOOP ( 'NONE', ( #268, #167, #218, #22 ) ) ;
#217 = AXIS2_PLACEMENT_3D ( 'NONE', #36, #319, #92 ) ;
#218 = ORIENTED_EDGE ( 'NONE', *, *, #186, .F. ) ;
#219 = FILL_AREA_STYLE_COLOUR ( '', #18 ) ;
#220 = DIRECTION ( 'NONE',  ( -1.000000000000000000, 0.0000000000000000000, 0.0000000000000000000 ) ) ;
#221 = CIRCLE ( 'NONE', #164, 0.07874000000000000443 ) ;
#222 = AXIS2_PLACEMENT_3D ( 'NONE', #253, #3, #172 ) ;
#223 = DIRECTION ( 'NONE',  ( 0.8660254037844400399, 0.0000000000000000000, 0.4999999999999976685 ) ) ;
#224 = DIRECTION ( 'NONE',  ( 1.000000000000000000, 0.0000000000000000000, -0.0000000000000000000 ) ) ;
#225 = ADVANCED_FACE ( 'NONE', ( #120 ), #203, .T. ) ;
#226 = DIRECTION ( 'NONE',  ( -0.0000000000000000000, -0.0000000000000000000, -1.000000000000000000 ) ) ;
#227 = DIRECTION ( 'NONE',  ( 0.0000000000000000000, 0.0000000000000000000, 1.000000000000000000 ) ) ;
#228 = ADVANCED_FACE ( 'NONE', ( #251 ), #175, .T. ) ;
#229 = LINE ( 'NONE', #130, #304 ) ;
#230 = AXIS2_PLACEMENT_3D ( 'NONE', #157, #95, #133 ) ;
#231 =( GEOMETRIC_REPRESENTATION_CONTEXT ( 3 ) GLOBAL_UNCERTAINTY_ASSIGNED_CONTEXT ( ( #307 ) ) GLOBAL_UNIT_ASSIGNED_CONTEXT ( ( #187, #266, #100 ) ) REPRESENTATION_CONTEXT ( 'NONE', 'WORKASPACE' ) );
#232 = LINE ( 'NONE', #10, #74 ) ;
#233 =( CONVERSION_BASED_UNIT ( 'INCH', #179 ) LENGTH_UNIT ( ) NAMED_UNIT ( #39 ) );
#234 = SURFACE_SIDE_STYLE ('',( #262 ) ) ;
#235 = EDGE_CURVE ( 'NONE', #19, #244, #309, .T. ) ;
#236 = FILL_AREA_STYLE_COLOUR ( '', #40 ) ;
#237 = AXIS2_PLACEMENT_3D ( 'NONE', #75, #200, #83 ) ;
#238 = SHAPE_DEFINITION_REPRESENTATION ( #162, #69 ) ;
#239 = DIRECTION ( 'NONE',  ( -0.0000000000000000000, -0.0000000000000000000, -1.000000000000000000 ) ) ;
#240 = APPLICATION_PROTOCOL_DEFINITION ( 'draft international standard', 'automotive_design', 1998, #150 ) ;
#241 = ORIENTED_EDGE ( 'NONE', *, *, #81, .F. ) ;
#242 = ORIENTED_EDGE ( 'NONE', *, *, #134, .F. ) ;
#243 =( CONVERSION_BASED_UNIT ( 'INCH', #301 ) LENGTH_UNIT ( ) NAMED_UNIT ( #60 ) );
#244 = VERTEX_POINT ( 'NONE', #29 ) ;
#245 = AXIS2_PLACEMENT_3D ( 'NONE', #249, #61, #220 ) ;
#246 = CONICAL_SURFACE ( 'NONE', #237, 0.007499999999999999722, 1.047197551196600518 ) ;
#247 = ORIENTED_EDGE ( 'NONE', *, *, #277, .T. ) ;
#248 = CARTESIAN_POINT ( 'NONE',  ( 0.0000000000000000000, 0.0000000000000000000, 0.4330709999999999837 ) ) ;
#249 = CARTESIAN_POINT ( 'NONE',  ( 0.0000000000000000000, 0.0000000000000000000, 0.0000000000000000000 ) ) ;
#250 = EDGE_CURVE ( 'NONE', #244, #50, #232, .T. ) ;
#251 = FACE_OUTER_BOUND ( 'NONE', #317, .T. ) ;
#252 =( GEOMETRIC_REPRESENTATION_CONTEXT ( 3 ) GLOBAL_UNCERTAINTY_ASSIGNED_CONTEXT ( ( #103 ) ) GLOBAL_UNIT_ASSIGNED_CONTEXT ( ( #233, #11, #185 ) ) REPRESENTATION_CONTEXT ( 'NONE', 'WORKASPACE' ) );
#253 = CARTESIAN_POINT ( 'NONE',  ( 0.0000000000000000000, 0.0000000000000000000, 1.968503999999999809 ) ) ;
#254 = DIRECTION ( 'NONE',  ( -1.000000000000000000, 0.0000000000000000000, 0.0000000000000000000 ) ) ;
#255 = FACE_OUTER_BOUND ( 'NONE', #310, .T. ) ;
#256 = LINE ( 'NONE', #177, #202 ) ;
#257 = CARTESIAN_POINT ( 'NONE',  ( 0.0000000000000000000, 0.0000000000000000000, 1.707404996040164512E-17 ) ) ;
#258 = FACE_OUTER_BOUND ( 'NONE', #189, .T. ) ;
#259 = DIRECTION ( 'NONE',  ( -0.0000000000000000000, -0.0000000000000000000, -1.000000000000000000 ) ) ;
#260 = CARTESIAN_POINT ( 'NONE',  ( 0.07869000000000003769, 9.636745662490528228E-18, 0.0000000000000000000 ) ) ;
#261 = EDGE_CURVE ( 'NONE', #19, #17, #318, .T. ) ;
#262 = SURFACE_STYLE_FILL_AREA ( #101 ) ;
#263 = DIRECTION ( 'NONE',  ( 0.0000000000000000000, 0.0000000000000000000, 1.000000000000000000 ) ) ;
#264 = DIRECTION ( 'NONE',  ( -0.0000000000000000000, -0.0000000000000000000, -1.000000000000000000 ) ) ;
#265 = APPLICATION_PROTOCOL_DEFINITION ( 'draft international standard', 'automotive_design', 1998, #125 ) ;
#266 =( NAMED_UNIT ( * ) PLANE_ANGLE_UNIT ( ) SI_UNIT ( $, .RADIAN. ) );
#267 = EDGE_CURVE ( 'NONE', #274, #62, #119, .T. ) ;
#268 = ORIENTED_EDGE ( 'NONE', *, *, #20, .F. ) ;
#269 = PRODUCT ( 'Micro_DMM-040-2120X', 'Micro_DMM-040-2120X', '', ( #67 ) ) ;
#270 = EDGE_LOOP ( 'NONE', ( #192, #276, #163, #47 ) ) ;
#271 = ORIENTED_EDGE ( 'NONE', *, *, #277, .F. ) ;
#272 = ADVANCED_FACE ( 'NONE', ( #178 ), #288, .F. ) ;
#273 = ORIENTED_EDGE ( 'NONE', *, *, #173, .F. ) ;
#274 = VERTEX_POINT ( 'NONE', #289 ) ;
#275 = VECTOR ( 'NONE', #239, 39.37007874015748143 ) ;
#276 = ORIENTED_EDGE ( 'NONE', *, *, #312, .T. ) ;
#277 = EDGE_CURVE ( 'NONE', #274, #49, #63, .T. ) ;
#278 = CARTESIAN_POINT ( 'NONE',  ( 0.07874000000000000443, 9.642868896486258509E-18, 1.953504000000000129 ) ) ;
#279 = DIRECTION ( 'NONE',  ( 0.0000000000000000000, 0.0000000000000000000, 1.000000000000000000 ) ) ;
#280 = DIRECTION ( 'NONE',  ( 1.000000000000000000, 0.0000000000000000000, 0.0000000000000000000 ) ) ;
#281 = ORIENTED_EDGE ( 'NONE', *, *, #235, .F. ) ;
#282 = VECTOR ( 'NONE', #292, 39.37007874015748143 ) ;
#283 = DIRECTION ( 'NONE',  ( -0.0000000000000000000, -0.0000000000000000000, -1.000000000000000000 ) ) ;
#284 = ADVANCED_FACE ( 'NONE', ( #46 ), #316, .T. ) ;
#285 = DIRECTION ( 'NONE',  ( -0.7071067811865502373, 0.0000000000000000000, -0.7071067811865446862 ) ) ;
#286 = DIRECTION ( 'NONE',  ( -0.0000000000000000000, -0.0000000000000000000, -1.000000000000000000 ) ) ;
#287 = MANIFOLD_SOLID_BREP ( 'Cut-Revolve4', #37 ) ;
#288 = PLANE ( 'NONE',  #217 ) ;
#289 = CARTESIAN_POINT ( 'NONE',  ( -0.007499999999999999722, 5.277615380925519009E-18, 1.707404996040164512E-17 ) ) ;
#290 = VERTEX_POINT ( 'NONE', #137 ) ;
#291 = CIRCLE ( 'NONE', #51, 0.07869000000000006545 ) ;
#292 = DIRECTION ( 'NONE',  ( -0.0000000000000000000, -0.0000000000000000000, -1.000000000000000000 ) ) ;
#293 = EDGE_CURVE ( 'NONE', #290, #126, #70, .T. ) ;
#294 =( LENGTH_UNIT ( ) NAMED_UNIT ( * ) SI_UNIT ( $, .METRE. ) );
#295 = CARTESIAN_POINT ( 'NONE',  ( 0.0000000000000000000, 0.0000000000000000000, 0.4330709999999999837 ) ) ;
#296 = DIRECTION ( 'NONE',  ( -1.000000000000000000, 0.0000000000000000000, 0.0000000000000000000 ) ) ;
#297 = DIRECTION ( 'NONE',  ( -1.000000000000000000, 0.0000000000000000000, 0.0000000000000000000 ) ) ;
#298 = CIRCLE ( 'NONE', #230, 0.07869000000000000994 ) ;
#299 = VECTOR ( 'NONE', #15, 39.37007874015748143 ) ;
#300 = ORIENTED_EDGE ( 'NONE', *, *, #96, .T. ) ;
#301 = LENGTH_MEASURE_WITH_UNIT ( LENGTH_MEASURE( 0.02539999999999999897 ), #14 );
#302 = EDGE_CURVE ( 'NONE', #62, #274, #212, .T. ) ;
#303 = ORIENTED_EDGE ( 'NONE', *, *, #302, .F. ) ;
#304 = VECTOR ( 'NONE', #223, 39.37007874015748143 ) ;
#305 = AXIS2_PLACEMENT_3D ( 'NONE', #323, #263, #43 ) ;
#306 = EDGE_LOOP ( 'NONE', ( #213, #281, #324, #141 ) ) ;
#307 = UNCERTAINTY_MEASURE_WITH_UNIT (LENGTH_MEASURE( 1.000000000000000082E-05 ), #187, 'distance_accuracy_value', 'NONE');
#308 = EDGE_LOOP ( 'NONE', ( #76, #65 ) ) ;
#309 = CIRCLE ( 'NONE', #124, 0.06374000000000018540 ) ;
#310 = EDGE_LOOP ( 'NONE', ( #325, #247, #24, #242 ) ) ;
#311 = FACE_OUTER_BOUND ( 'NONE', #216, .T. ) ;
#312 = EDGE_CURVE ( 'NONE', #50, #126, #94, .T. ) ;
#313 = CYLINDRICAL_SURFACE ( 'NONE', #108, 0.07874000000000000443 ) ;
#314 = CARTESIAN_POINT ( 'NONE',  ( -0.06374000000000018540, 0.0000000000000000000, 1.968503999999999809 ) ) ;
#315 = PRESENTATION_STYLE_ASSIGNMENT (( #201 ) ) ;
#316 = CONICAL_SURFACE ( 'NONE', #131, 0.06374000000000018540, 0.7853981633974522758 ) ;
#317 = EDGE_LOOP ( 'NONE', ( #193, #215, #142, #241 ) ) ;
#318 = LINE ( 'NONE', #314, #165 ) ;
#319 = DIRECTION ( 'NONE',  ( 0.0000000000000000000, 0.0000000000000000000, 1.000000000000000000 ) ) ;
#320 = AXIS2_PLACEMENT_3D ( 'NONE', #156, #227, #280 ) ;
#321 = MECHANICAL_DESIGN_GEOMETRIC_PRESENTATION_REPRESENTATION (  '', ( #196 ), #252 ) ;
#322 = CARTESIAN_POINT ( 'NONE',  ( -0.007499999999999999722, 9.184850993605147975E-19, 1.707404996040164512E-17 ) ) ;
#323 = CARTESIAN_POINT ( 'NONE',  ( 0.0000000000000000000, 0.0000000000000000000, 0.0000000000000000000 ) ) ;
#324 = ORIENTED_EDGE ( 'NONE', *, *, #261, .T. ) ;
#325 = ORIENTED_EDGE ( 'NONE', *, *, #267, .F. ) ;
#326 = ORIENTED_EDGE ( 'NONE', *, *, #235, .T. ) ;
#327 = AXIS2_PLACEMENT_3D ( 'NONE', #80, #82, #116 ) ;
#328 = PRESENTATION_LAYER_ASSIGNMENT (  '', '', ( #79 ) ) ;
#329 = ORIENTED_EDGE ( 'NONE', *, *, #20, .T. ) ;
ENDSEC;
END-ISO-10303-21;
