ISO-10303-21;
HEADER;
FILE_DESCRIPTION (( 'STEP AP214' ),
    '1' );
FILE_NAME ('82942.STEP',
    '2023-06-23T07:11:08',
    ( '' ),
    ( '' ),
    'SwSTEP 2.0',
    'SolidWorks 2023',
    '' );
FILE_SCHEMA (( 'AUTOMOTIVE_DESIGN' ));
ENDSEC;

DATA;
#1 =( NAMED_UNIT ( * ) SI_UNIT ( $, .STERADIAN. ) SOLID_ANGLE_UNIT ( ) );
#2 = COLOUR_RGB ( '',1.000000000000000000, 0.000000000000000000, 0.000000000000000000 ) ;
#3 = AXIS2_PLACEMENT_3D ( 'NONE', #15, #103, #259 ) ;
#4 = SURFACE_SIDE_STYLE ('',( #177 ) ) ;
#5 = FILL_AREA_STYLE ('',( #219 ) ) ;
#6 = FACE_OUTER_BOUND ( 'NONE', #97, .T. ) ;
#7 = MECHANICAL_DESIGN_GEOMETRIC_PRESENTATION_REPRESENTATION (  '', ( #69 ), #120 ) ;
#8 = CYLINDRICAL_SURFACE ( 'NONE', #47, 0.1249999999999999029 ) ;
#9 = DIRECTION ( 'NONE',  ( 7.536287994752946416E-17, 1.000000000000000000, -0.000000000000000000 ) ) ;
#10 = COLOUR_RGB ( '',1.000000000000000000, 0.000000000000000000, 0.000000000000000000 ) ;
#11 =( GEOMETRIC_REPRESENTATION_CONTEXT ( 3 ) GLOBAL_UNCERTAINTY_ASSIGNED_CONTEXT ( ( #98 ) ) GLOBAL_UNIT_ASSIGNED_CONTEXT ( ( #206, #309, #195 ) ) REPRESENTATION_CONTEXT ( 'NONE', 'WORKASPACE' ) );
#12 = CYLINDRICAL_SURFACE ( 'NONE', #173, 0.1250000000000000000 ) ;
#13 = ADVANCED_FACE ( 'NONE', ( #40 ), #136, .T. ) ;
#14 = DIRECTION ( 'NONE',  ( 1.000000000000000000, 0.000000000000000000, 0.000000000000000000 ) ) ;
#15 = CARTESIAN_POINT ( 'NONE',  ( 0.000000000000000000, 0.7499999999999998890, 0.000000000000000000 ) ) ;
#16 = STYLED_ITEM ( 'NONE', ( #118 ), #66 ) ;
#17 = MECHANICAL_DESIGN_GEOMETRIC_PRESENTATION_REPRESENTATION (  '', ( #218 ), #11 ) ;
#18 = CARTESIAN_POINT ( 'NONE',  ( -0.1249999999999996531, 4.000000000000000000, 0.000000000000000000 ) ) ;
#19 = SURFACE_STYLE_FILL_AREA ( #109 ) ;
#20 = CARTESIAN_POINT ( 'NONE',  ( 0.1250000000000001388, 4.000000000000000000, 1.530808498934190276E-17 ) ) ;
#21 = UNCERTAINTY_MEASURE_WITH_UNIT (LENGTH_MEASURE( 1.000000000000000082E-05 ), #105, 'distance_accuracy_value', 'NONE');
#22 = FILL_AREA_STYLE_COLOUR ( '', #292 ) ;
#23 = EDGE_LOOP ( 'NONE', ( #273, #170 ) ) ;
#24 = DIRECTION ( 'NONE',  ( -1.000000000000000000, 0.000000000000000000, 0.000000000000000000 ) ) ;
#25 = SURFACE_STYLE_FILL_AREA ( #138 ) ;
#26 = DIRECTION ( 'NONE',  ( 7.536287994752946416E-17, 1.000000000000000000, -0.000000000000000000 ) ) ;
#27 = DIRECTION ( 'NONE',  ( -0.000000000000000000, -1.000000000000000000, -0.000000000000000000 ) ) ;
#28 = UNCERTAINTY_MEASURE_WITH_UNIT (LENGTH_MEASURE( 1.000000000000000082E-05 ), #30, 'distance_accuracy_value', 'NONE');
#29 =( NAMED_UNIT ( * ) PLANE_ANGLE_UNIT ( ) SI_UNIT ( $, .RADIAN. ) );
#30 =( CONVERSION_BASED_UNIT ( 'INCH', #217 ) LENGTH_UNIT ( ) NAMED_UNIT ( #234 ) );
#31 = DIRECTION ( 'NONE',  ( -1.000000000000000000, 0.000000000000000000, 0.000000000000000000 ) ) ;
#32 = DIRECTION ( 'NONE',  ( -1.000000000000000000, 7.536287994752946416E-17, 0.000000000000000000 ) ) ;
#33 =( GEOMETRIC_REPRESENTATION_CONTEXT ( 3 ) GLOBAL_UNCERTAINTY_ASSIGNED_CONTEXT ( ( #28 ) ) GLOBAL_UNIT_ASSIGNED_CONTEXT ( ( #30, #247, #1 ) ) REPRESENTATION_CONTEXT ( 'NONE', 'WORKASPACE' ) );
#34 = ORIENTED_EDGE ( 'NONE', *, *, #165, .F. ) ;
#35 = CARTESIAN_POINT ( 'NONE',  ( 0.000000000000000000, 0.000000000000000000, 0.000000000000000000 ) ) ;
#36 = ORIENTED_EDGE ( 'NONE', *, *, #175, .F. ) ;
#37 = FACE_OUTER_BOUND ( 'NONE', #286, .T. ) ;
#38 = ADVANCED_FACE ( 'NONE', ( #242 ), #12, .T. ) ;
#39 = STYLED_ITEM ( 'NONE', ( #58 ), #13 ) ;
#40 = FACE_OUTER_BOUND ( 'NONE', #161, .T. ) ;
#41 = ORIENTED_EDGE ( 'NONE', *, *, #290, .T. ) ;
#42 =( NAMED_UNIT ( * ) SI_UNIT ( $, .STERADIAN. ) SOLID_ANGLE_UNIT ( ) );
#43 = CARTESIAN_POINT ( 'NONE',  ( 0.000000000000000000, 0.000000000000000000, 0.000000000000000000 ) ) ;
#44 = EDGE_CURVE ( 'NONE', #114, #278, #302, .T. ) ;
#45 = MECHANICAL_DESIGN_GEOMETRIC_PRESENTATION_REPRESENTATION (  '', ( #16 ), #158 ) ;
#46 = DIRECTION ( 'NONE',  ( 0.000000000000000000, -0.000000000000000000, 1.000000000000000000 ) ) ;
#47 = AXIS2_PLACEMENT_3D ( 'NONE', #126, #9, #222 ) ;
#48 = DIRECTION ( 'NONE',  ( -1.000000000000000000, 0.000000000000000000, 0.000000000000000000 ) ) ;
#49 = PRESENTATION_LAYER_ASSIGNMENT (  '', '', ( #16 ) ) ;
#50 = CIRCLE ( 'NONE', #3, 0.1250000000000000000 ) ;
#51 = VERTEX_POINT ( 'NONE', #140 ) ;
#52 = ORIENTED_EDGE ( 'NONE', *, *, #81, .T. ) ;
#53 = ORIENTED_EDGE ( 'NONE', *, *, #44, .T. ) ;
#54 = PRODUCT_RELATED_PRODUCT_CATEGORY ( 'part', '', ( #232 ) ) ;
#55 = FACE_OUTER_BOUND ( 'NONE', #183, .T. ) ;
#56 = ORIENTED_EDGE ( 'NONE', *, *, #125, .F. ) ;
#57 = AXIS2_PLACEMENT_3D ( 'NONE', #82, #262, #24 ) ;
#58 = PRESENTATION_STYLE_ASSIGNMENT (( #281 ) ) ;
#59 = CARTESIAN_POINT ( 'NONE',  ( 0.000000000000000000, 0.7499999999999998890, 0.000000000000000000 ) ) ;
#60 = FILL_AREA_STYLE_COLOUR ( '', #2 ) ;
#61 = SURFACE_STYLE_USAGE ( .BOTH. , #216 ) ;
#62 = AXIS2_PLACEMENT_3D ( 'NONE', #280, #131, #14 ) ;
#63 = FILL_AREA_STYLE ('',( #88 ) ) ;
#64 = DIRECTION ( 'NONE',  ( -1.000000000000000000, 0.000000000000000000, 0.000000000000000000 ) ) ;
#65 = SURFACE_SIDE_STYLE ('',( #87 ) ) ;
#66 = MANIFOLD_SOLID_BREP ( 'Revolve - Cutting Edge', #123 ) ;
#67 = PRESENTATION_LAYER_ASSIGNMENT (  '', '', ( #116 ) ) ;
#68 =( LENGTH_UNIT ( ) NAMED_UNIT ( * ) SI_UNIT ( $, .METRE. ) );
#69 = STYLED_ITEM ( 'NONE', ( #172 ), #91 ) ;
#70 = CIRCLE ( 'NONE', #289, 0.1250000000000000000 ) ;
#71 = EDGE_CURVE ( 'NONE', #76, #114, #233, .T. ) ;
#72 = ORIENTED_EDGE ( 'NONE', *, *, #81, .F. ) ;
#73 = ORIENTED_EDGE ( 'NONE', *, *, #78, .T. ) ;
#74 = UNCERTAINTY_MEASURE_WITH_UNIT (LENGTH_MEASURE( 1.000000000000000082E-05 ), #200, 'distance_accuracy_value', 'NONE');
#75 = DIRECTION ( 'NONE',  ( -0.000000000000000000, -1.000000000000000000, -0.000000000000000000 ) ) ;
#76 = VERTEX_POINT ( 'NONE', #146 ) ;
#77 = DIRECTION ( 'NONE',  ( 0.000000000000000000, 0.000000000000000000, -1.000000000000000000 ) ) ;
#78 = EDGE_CURVE ( 'NONE', #186, #51, #193, .T. ) ;
#79 = SURFACE_SIDE_STYLE ('',( #238 ) ) ;
#80 = AXIS2_PLACEMENT_3D ( 'NONE', #102, #251, #115 ) ;
#81 = EDGE_CURVE ( 'NONE', #278, #114, #274, .T. ) ;
#82 = CARTESIAN_POINT ( 'NONE',  ( 2.449293598294707400E-16, 4.000000000000000000, 0.000000000000000000 ) ) ;
#83 =( LENGTH_UNIT ( ) NAMED_UNIT ( * ) SI_UNIT ( $, .METRE. ) );
#84 = DIMENSIONAL_EXPONENTS ( 1.000000000000000000, 0.000000000000000000, 0.000000000000000000, 0.000000000000000000, 0.000000000000000000, 0.000000000000000000, 0.000000000000000000 ) ;
#85 = VECTOR ( 'NONE', #207, 39.37007874015748143 ) ;
#86 = PRESENTATION_STYLE_ASSIGNMENT (( #144 ) ) ;
#87 = SURFACE_STYLE_FILL_AREA ( #5 ) ;
#88 = FILL_AREA_STYLE_COLOUR ( '', #159 ) ;
#89 = VECTOR ( 'NONE', #112, 39.37007874015748143 ) ;
#90 =( LENGTH_UNIT ( ) NAMED_UNIT ( * ) SI_UNIT ( $, .METRE. ) );
#91 = ADVANCED_FACE ( 'NONE', ( #96 ), #122, .T. ) ;
#92 = PRODUCT_DEFINITION_FORMATION_WITH_SPECIFIED_SOURCE ( 'ANY', '', #232, .NOT_KNOWN. ) ;
#93 = APPLICATION_CONTEXT ( 'automotive_design' ) ;
#94 = DIRECTION ( 'NONE',  ( -0.000000000000000000, -1.000000000000000000, -0.000000000000000000 ) ) ;
#95 = AXIS2_PLACEMENT_3D ( 'NONE', #231, #26, #32 ) ;
#96 = FACE_OUTER_BOUND ( 'NONE', #23, .T. ) ;
#97 = EDGE_LOOP ( 'NONE', ( #277, #227, #130, #132 ) ) ;
#98 = UNCERTAINTY_MEASURE_WITH_UNIT (LENGTH_MEASURE( 1.000000000000000082E-05 ), #206, 'distance_accuracy_value', 'NONE');
#99 = PRODUCT_CONTEXT ( 'NONE', #303, 'mechanical' ) ;
#100 = VERTEX_POINT ( 'NONE', #257 ) ;
#101 = DIRECTION ( 'NONE',  ( 0.000000000000000000, 0.000000000000000000, -1.000000000000000000 ) ) ;
#102 = CARTESIAN_POINT ( 'NONE',  ( 0.000000000000000000, 0.7500000000000001110, 0.000000000000000000 ) ) ;
#103 = DIRECTION ( 'NONE',  ( 7.536287994752946416E-17, 1.000000000000000000, -0.000000000000000000 ) ) ;
#104 = AXIS2_PLACEMENT_3D ( 'NONE', #35, #75, #168 ) ;
#105 =( CONVERSION_BASED_UNIT ( 'INCH', #228 ) LENGTH_UNIT ( ) NAMED_UNIT ( #287 ) );
#106 = CARTESIAN_POINT ( 'NONE',  ( 0.000000000000000000, 0.7500000000000001110, -0.1250000000000000000 ) ) ;
#107 = LENGTH_MEASURE_WITH_UNIT ( LENGTH_MEASURE( 0.02539999999999999897 ), #301 );
#108 = APPLICATION_PROTOCOL_DEFINITION ( 'draft international standard', 'automotive_design', 1998, #303 ) ;
#109 = FILL_AREA_STYLE ('',( #22 ) ) ;
#110 = PLANE ( 'NONE',  #243 ) ;
#111 = SURFACE_SIDE_STYLE ('',( #147 ) ) ;
#112 = DIRECTION ( 'NONE',  ( 7.536287994752946416E-17, 1.000000000000000000, -0.000000000000000000 ) ) ;
#113 = SURFACE_SIDE_STYLE ('',( #25 ) ) ;
#114 = VERTEX_POINT ( 'NONE', #202 ) ;
#115 = DIRECTION ( 'NONE',  ( 0.000000000000000000, 0.000000000000000000, -1.000000000000000000 ) ) ;
#116 = STYLED_ITEM ( 'NONE', ( #265 ), #38 ) ;
#117 = PRESENTATION_LAYER_ASSIGNMENT (  '', '', ( #275 ) ) ;
#118 = PRESENTATION_STYLE_ASSIGNMENT (( #61 ) ) ;
#119 = DIRECTION ( 'NONE',  ( 7.536287994752946416E-17, 1.000000000000000000, -0.000000000000000000 ) ) ;
#120 =( GEOMETRIC_REPRESENTATION_CONTEXT ( 3 ) GLOBAL_UNCERTAINTY_ASSIGNED_CONTEXT ( ( #241 ) ) GLOBAL_UNIT_ASSIGNED_CONTEXT ( ( #299, #29, #42 ) ) REPRESENTATION_CONTEXT ( 'NONE', 'WORKASPACE' ) );
#121 = CIRCLE ( 'NONE', #104, 0.1250000000000000000 ) ;
#122 = PLANE ( 'NONE',  #297 ) ;
#123 = CLOSED_SHELL ( 'NONE', ( #38, #13, #268, #91 ) ) ;
#124 = LENGTH_MEASURE_WITH_UNIT ( LENGTH_MEASURE( 0.02539999999999999897 ), #90 );
#125 = EDGE_CURVE ( 'NONE', #186, #256, #169, .T. ) ;
#126 = CARTESIAN_POINT ( 'NONE',  ( 2.449293598294707400E-16, 4.000000000000000000, 0.000000000000000000 ) ) ;
#127 = PRODUCT_DEFINITION_CONTEXT ( 'detailed design', #93, 'design' ) ;
#128 = DIRECTION ( 'NONE',  ( 0.000000000000000000, -1.000000000000000000, -0.000000000000000000 ) ) ;
#129 =( LENGTH_UNIT ( ) NAMED_UNIT ( * ) SI_UNIT ( $, .METRE. ) );
#130 = ORIENTED_EDGE ( 'NONE', *, *, #194, .T. ) ;
#131 = DIRECTION ( 'NONE',  ( 0.000000000000000000, 0.000000000000000000, 1.000000000000000000 ) ) ;
#132 = ORIENTED_EDGE ( 'NONE', *, *, #44, .F. ) ;
#133 = VECTOR ( 'NONE', #237, 39.37007874015748143 ) ;
#134 = AXIS2_PLACEMENT_3D ( 'NONE', #43, #137, #208 ) ;
#135 = ORIENTED_EDGE ( 'NONE', *, *, #125, .T. ) ;
#136 = PLANE ( 'NONE',  #263 ) ;
#137 = DIRECTION ( 'NONE',  ( -0.000000000000000000, -1.000000000000000000, -0.000000000000000000 ) ) ;
#138 = FILL_AREA_STYLE ('',( #291 ) ) ;
#139 = ADVANCED_FACE ( 'NONE', ( #276 ), #8, .T. ) ;
#140 = CARTESIAN_POINT ( 'NONE',  ( 1.530808498934191509E-17, 0.000000000000000000, 0.1250000000000000000 ) ) ;
#141 =( NAMED_UNIT ( * ) SI_UNIT ( $, .STERADIAN. ) SOLID_ANGLE_UNIT ( ) );
#142 = UNCERTAINTY_MEASURE_WITH_UNIT (LENGTH_MEASURE( 1.000000000000000082E-05 ), #246, 'distance_accuracy_value', 'NONE');
#143 = ADVANCED_BREP_SHAPE_REPRESENTATION ( '82942', ( #66, #284, #62 ), #199 ) ;
#144 = SURFACE_STYLE_USAGE ( .BOTH. , #113 ) ;
#145 = AXIS2_PLACEMENT_3D ( 'NONE', #293, #295, #48 ) ;
#146 = CARTESIAN_POINT ( 'NONE',  ( 0.1250000000000000000, 0.7499999999999998890, 1.530808498934190893E-17 ) ) ;
#147 = SURFACE_STYLE_FILL_AREA ( #239 ) ;
#148 = DIMENSIONAL_EXPONENTS ( 1.000000000000000000, 0.000000000000000000, 0.000000000000000000, 0.000000000000000000, 0.000000000000000000, 0.000000000000000000, 0.000000000000000000 ) ;
#149 = CARTESIAN_POINT ( 'NONE',  ( 0.000000000000000000, 0.7500000000000001110, 0.000000000000000000 ) ) ;
#150 = CARTESIAN_POINT ( 'NONE',  ( 0.000000000000000000, 0.7500000000000001110, 0.000000000000000000 ) ) ;
#151 = CYLINDRICAL_SURFACE ( 'NONE', #223, 0.1250000000000000000 ) ;
#152 = AXIS2_PLACEMENT_3D ( 'NONE', #187, #155, #31 ) ;
#153 = ADVANCED_FACE ( 'NONE', ( #210 ), #300, .F. ) ;
#154 = LENGTH_MEASURE_WITH_UNIT ( LENGTH_MEASURE( 0.02539999999999999897 ), #68 );
#155 = DIRECTION ( 'NONE',  ( 7.536287994752946416E-17, 1.000000000000000000, -0.000000000000000000 ) ) ;
#156 = LENGTH_MEASURE_WITH_UNIT ( LENGTH_MEASURE( 0.02539999999999999897 ), #83 );
#157 =( NAMED_UNIT ( * ) PLANE_ANGLE_UNIT ( ) SI_UNIT ( $, .RADIAN. ) );
#158 =( GEOMETRIC_REPRESENTATION_CONTEXT ( 3 ) GLOBAL_UNCERTAINTY_ASSIGNED_CONTEXT ( ( #167 ) ) GLOBAL_UNIT_ASSIGNED_CONTEXT ( ( #198, #171, #141 ) ) REPRESENTATION_CONTEXT ( 'NONE', 'WORKASPACE' ) );
#159 = COLOUR_RGB ( '',1.000000000000000000, 0.000000000000000000, 0.000000000000000000 ) ;
#160 = CARTESIAN_POINT ( 'NONE',  ( -0.1249999999999995420, 4.000000000000000000, 0.000000000000000000 ) ) ;
#161 = EDGE_LOOP ( 'NONE', ( #34, #56 ) ) ;
#162 = APPLICATION_PROTOCOL_DEFINITION ( 'draft international standard', 'automotive_design', 1998, #93 ) ;
#163 = MECHANICAL_DESIGN_GEOMETRIC_PRESENTATION_REPRESENTATION (  '', ( #116 ), #267 ) ;
#164 = ORIENTED_EDGE ( 'NONE', *, *, #71, .T. ) ;
#165 = EDGE_CURVE ( 'NONE', #256, #186, #226, .T. ) ;
#166 = CARTESIAN_POINT ( 'NONE',  ( -0.1250000000000000000, 0.7499999999999998890, 0.000000000000000000 ) ) ;
#167 = UNCERTAINTY_MEASURE_WITH_UNIT (LENGTH_MEASURE( 1.000000000000000082E-05 ), #198, 'distance_accuracy_value', 'NONE');
#168 = DIRECTION ( 'NONE',  ( 0.000000000000000000, 0.000000000000000000, -1.000000000000000000 ) ) ;
#169 = CIRCLE ( 'NONE', #192, 0.1250000000000000000 ) ;
#170 = ORIENTED_EDGE ( 'NONE', *, *, #190, .T. ) ;
#171 =( NAMED_UNIT ( * ) PLANE_ANGLE_UNIT ( ) SI_UNIT ( $, .RADIAN. ) );
#172 = PRESENTATION_STYLE_ASSIGNMENT (( #240 ) ) ;
#173 = AXIS2_PLACEMENT_3D ( 'NONE', #261, #236, #77 ) ;
#174 = PRESENTATION_STYLE_ASSIGNMENT (( #224 ) ) ;
#175 = EDGE_CURVE ( 'NONE', #100, #51, #308, .T. ) ;
#176 = SURFACE_STYLE_USAGE ( .BOTH. , #65 ) ;
#177 = SURFACE_STYLE_FILL_AREA ( #63 ) ;
#178 =( NAMED_UNIT ( * ) SI_UNIT ( $, .STERADIAN. ) SOLID_ANGLE_UNIT ( ) );
#179 = CLOSED_SHELL ( 'NONE', ( #139, #153, #296, #203 ) ) ;
#180 = LENGTH_MEASURE_WITH_UNIT ( LENGTH_MEASURE( 0.02539999999999999897 ), #189 );
#181 = DIRECTION ( 'NONE',  ( 0.000000000000000000, 0.000000000000000000, -1.000000000000000000 ) ) ;
#182 = ORIENTED_EDGE ( 'NONE', *, *, #194, .F. ) ;
#183 = EDGE_LOOP ( 'NONE', ( #270, #135, #41, #225 ) ) ;
#184 = LINE ( 'NONE', #254, #85 ) ;
#185 = PRESENTATION_LAYER_ASSIGNMENT (  '', '', ( #69 ) ) ;
#186 = VERTEX_POINT ( 'NONE', #255 ) ;
#187 = CARTESIAN_POINT ( 'NONE',  ( 2.449293598294707400E-16, 4.000000000000000000, 0.000000000000000000 ) ) ;
#188 = ORIENTED_EDGE ( 'NONE', *, *, #196, .T. ) ;
#189 =( LENGTH_UNIT ( ) NAMED_UNIT ( * ) SI_UNIT ( $, .METRE. ) );
#190 = EDGE_CURVE ( 'NONE', #51, #100, #121, .T. ) ;
#191 = DIMENSIONAL_EXPONENTS ( 1.000000000000000000, 0.000000000000000000, 0.000000000000000000, 0.000000000000000000, 0.000000000000000000, 0.000000000000000000, 0.000000000000000000 ) ;
#192 = AXIS2_PLACEMENT_3D ( 'NONE', #150, #27, #220 ) ;
#193 = LINE ( 'NONE', #283, #133 ) ;
#194 = EDGE_CURVE ( 'NONE', #253, #278, #230, .T. ) ;
#195 =( NAMED_UNIT ( * ) SI_UNIT ( $, .STERADIAN. ) SOLID_ANGLE_UNIT ( ) );
#196 = EDGE_CURVE ( 'NONE', #253, #76, #50, .T. ) ;
#197 = CARTESIAN_POINT ( 'NONE',  ( 0.000000000000000000, 0.000000000000000000, 0.000000000000000000 ) ) ;
#198 =( CONVERSION_BASED_UNIT ( 'INCH', #156 ) LENGTH_UNIT ( ) NAMED_UNIT ( #191 ) );
#199 =( GEOMETRIC_REPRESENTATION_CONTEXT ( 3 ) GLOBAL_UNCERTAINTY_ASSIGNED_CONTEXT ( ( #74 ) ) GLOBAL_UNIT_ASSIGNED_CONTEXT ( ( #200, #157, #178 ) ) REPRESENTATION_CONTEXT ( 'NONE', 'WORKASPACE' ) );
#200 =( CONVERSION_BASED_UNIT ( 'INCH', #124 ) LENGTH_UNIT ( ) NAMED_UNIT ( #148 ) );
#201 =( NAMED_UNIT ( * ) PLANE_ANGLE_UNIT ( ) SI_UNIT ( $, .RADIAN. ) );
#202 = CARTESIAN_POINT ( 'NONE',  ( 0.1250000000000000278, 4.000000000000000000, 1.530808498934190893E-17 ) ) ;
#203 = ADVANCED_FACE ( 'NONE', ( #37 ), #110, .F. ) ;
#204 = PRODUCT_DEFINITION_SHAPE ( 'NONE', 'NONE',  #269 ) ;
#205 = ORIENTED_EDGE ( 'NONE', *, *, #290, .F. ) ;
#206 =( CONVERSION_BASED_UNIT ( 'INCH', #107 ) LENGTH_UNIT ( ) NAMED_UNIT ( #84 ) );
#207 = DIRECTION ( 'NONE',  ( -0.000000000000000000, -1.000000000000000000, -0.000000000000000000 ) ) ;
#208 = DIRECTION ( 'NONE',  ( 0.000000000000000000, 0.000000000000000000, -1.000000000000000000 ) ) ;
#209 = ORIENTED_EDGE ( 'NONE', *, *, #248, .F. ) ;
#210 = FACE_OUTER_BOUND ( 'NONE', #215, .T. ) ;
#211 = FILL_AREA_STYLE_COLOUR ( '', #10 ) ;
#212 = DIRECTION ( 'NONE',  ( -7.536287994752946416E-17, -1.000000000000000000, 0.000000000000000000 ) ) ;
#213 = COLOUR_RGB ( '',1.000000000000000000, 0.000000000000000000, 0.000000000000000000 ) ;
#214 = VECTOR ( 'NONE', #258, 39.37007874015748143 ) ;
#215 = EDGE_LOOP ( 'NONE', ( #260, #209 ) ) ;
#216 = SURFACE_SIDE_STYLE ('',( #19 ) ) ;
#217 = LENGTH_MEASURE_WITH_UNIT ( LENGTH_MEASURE( 0.02539999999999999897 ), #235 );
#218 = STYLED_ITEM ( 'NONE', ( #174 ), #268 ) ;
#219 = FILL_AREA_STYLE_COLOUR ( '', #213 ) ;
#220 = DIRECTION ( 'NONE',  ( 0.000000000000000000, 0.000000000000000000, -1.000000000000000000 ) ) ;
#221 =( NAMED_UNIT ( * ) SI_UNIT ( $, .STERADIAN. ) SOLID_ANGLE_UNIT ( ) );
#222 = DIRECTION ( 'NONE',  ( -1.000000000000000000, 0.000000000000000000, 0.000000000000000000 ) ) ;
#223 = AXIS2_PLACEMENT_3D ( 'NONE', #249, #94, #181 ) ;
#224 = SURFACE_STYLE_USAGE ( .BOTH. , #4 ) ;
#225 = ORIENTED_EDGE ( 'NONE', *, *, #190, .F. ) ;
#226 = CIRCLE ( 'NONE', #80, 0.1250000000000000000 ) ;
#227 = ORIENTED_EDGE ( 'NONE', *, *, #248, .T. ) ;
#228 = LENGTH_MEASURE_WITH_UNIT ( LENGTH_MEASURE( 0.02539999999999999897 ), #129 );
#229 =( GEOMETRIC_REPRESENTATION_CONTEXT ( 3 ) GLOBAL_UNCERTAINTY_ASSIGNED_CONTEXT ( ( #142 ) ) GLOBAL_UNIT_ASSIGNED_CONTEXT ( ( #246, #266, #221 ) ) REPRESENTATION_CONTEXT ( 'NONE', 'WORKASPACE' ) );
#230 = LINE ( 'NONE', #18, #214 ) ;
#231 = CARTESIAN_POINT ( 'NONE',  ( 3.549727296241086423E-34, 0.7500000000000001110, 0.000000000000000000 ) ) ;
#232 = PRODUCT ( '82942', '82942', '', ( #99 ) ) ;
#233 = LINE ( 'NONE', #20, #89 ) ;
#234 = DIMENSIONAL_EXPONENTS ( 1.000000000000000000, 0.000000000000000000, 0.000000000000000000, 0.000000000000000000, 0.000000000000000000, 0.000000000000000000, 0.000000000000000000 ) ;
#235 =( LENGTH_UNIT ( ) NAMED_UNIT ( * ) SI_UNIT ( $, .METRE. ) );
#236 = DIRECTION ( 'NONE',  ( -0.000000000000000000, -1.000000000000000000, -0.000000000000000000 ) ) ;
#237 = DIRECTION ( 'NONE',  ( -0.000000000000000000, -1.000000000000000000, -0.000000000000000000 ) ) ;
#238 = SURFACE_STYLE_FILL_AREA ( #305 ) ;
#239 = FILL_AREA_STYLE ('',( #60 ) ) ;
#240 = SURFACE_STYLE_USAGE ( .BOTH. , #111 ) ;
#241 = UNCERTAINTY_MEASURE_WITH_UNIT (LENGTH_MEASURE( 1.000000000000000082E-05 ), #299, 'distance_accuracy_value', 'NONE');
#242 = FACE_OUTER_BOUND ( 'NONE', #279, .T. ) ;
#243 = AXIS2_PLACEMENT_3D ( 'NONE', #282, #212, #306 ) ;
#244 = DIRECTION ( 'NONE',  ( 0.000000000000000000, 1.000000000000000000, 0.000000000000000000 ) ) ;
#245 = DIMENSIONAL_EXPONENTS ( 1.000000000000000000, 0.000000000000000000, 0.000000000000000000, 0.000000000000000000, 0.000000000000000000, 0.000000000000000000, 0.000000000000000000 ) ;
#246 =( CONVERSION_BASED_UNIT ( 'INCH', #154 ) LENGTH_UNIT ( ) NAMED_UNIT ( #307 ) );
#247 =( NAMED_UNIT ( * ) PLANE_ANGLE_UNIT ( ) SI_UNIT ( $, .RADIAN. ) );
#248 = EDGE_CURVE ( 'NONE', #76, #253, #70, .T. ) ;
#249 = CARTESIAN_POINT ( 'NONE',  ( 0.000000000000000000, 0.000000000000000000, 0.000000000000000000 ) ) ;
#250 = MECHANICAL_DESIGN_GEOMETRIC_PRESENTATION_REPRESENTATION (  '', ( #39 ), #33 ) ;
#251 = DIRECTION ( 'NONE',  ( -0.000000000000000000, -1.000000000000000000, -0.000000000000000000 ) ) ;
#252 =( NAMED_UNIT ( * ) SI_UNIT ( $, .STERADIAN. ) SOLID_ANGLE_UNIT ( ) );
#253 = VERTEX_POINT ( 'NONE', #166 ) ;
#254 = CARTESIAN_POINT ( 'NONE',  ( 0.000000000000000000, 0.000000000000000000, -0.1250000000000000000 ) ) ;
#255 = CARTESIAN_POINT ( 'NONE',  ( 1.530808498934191509E-17, 0.7500000000000001110, 0.1250000000000000000 ) ) ;
#256 = VERTEX_POINT ( 'NONE', #106 ) ;
#257 = CARTESIAN_POINT ( 'NONE',  ( 0.000000000000000000, 0.000000000000000000, -0.1250000000000000000 ) ) ;
#258 = DIRECTION ( 'NONE',  ( 7.536287994752946416E-17, 1.000000000000000000, -0.000000000000000000 ) ) ;
#259 = DIRECTION ( 'NONE',  ( -1.000000000000000000, 0.000000000000000000, 0.000000000000000000 ) ) ;
#260 = ORIENTED_EDGE ( 'NONE', *, *, #196, .F. ) ;
#261 = CARTESIAN_POINT ( 'NONE',  ( 0.000000000000000000, 0.000000000000000000, 0.000000000000000000 ) ) ;
#262 = DIRECTION ( 'NONE',  ( 7.536287994752946416E-17, 1.000000000000000000, -0.000000000000000000 ) ) ;
#263 = AXIS2_PLACEMENT_3D ( 'NONE', #149, #244, #46 ) ;
#264 = COLOUR_RGB ( '',0.7921568627450980005, 0.8196078431372548767, 0.9333333333333333481 ) ;
#265 = PRESENTATION_STYLE_ASSIGNMENT (( #176 ) ) ;
#266 =( NAMED_UNIT ( * ) PLANE_ANGLE_UNIT ( ) SI_UNIT ( $, .RADIAN. ) );
#267 =( GEOMETRIC_REPRESENTATION_CONTEXT ( 3 ) GLOBAL_UNCERTAINTY_ASSIGNED_CONTEXT ( ( #21 ) ) GLOBAL_UNIT_ASSIGNED_CONTEXT ( ( #105, #201, #252 ) ) REPRESENTATION_CONTEXT ( 'NONE', 'WORKASPACE' ) );
#268 = ADVANCED_FACE ( 'NONE', ( #55 ), #151, .T. ) ;
#269 = PRODUCT_DEFINITION ( 'UNKNOWN', '', #92, #127 ) ;
#270 = ORIENTED_EDGE ( 'NONE', *, *, #78, .F. ) ;
#271 = EDGE_LOOP ( 'NONE', ( #188, #164, #72, #182 ) ) ;
#272 = SHAPE_DEFINITION_REPRESENTATION ( #204, #143 ) ;
#273 = ORIENTED_EDGE ( 'NONE', *, *, #175, .T. ) ;
#274 = CIRCLE ( 'NONE', #145, 0.1249999999999997780 ) ;
#275 = STYLED_ITEM ( 'NONE', ( #86 ), #284 ) ;
#276 = FACE_OUTER_BOUND ( 'NONE', #271, .T. ) ;
#277 = ORIENTED_EDGE ( 'NONE', *, *, #71, .F. ) ;
#278 = VERTEX_POINT ( 'NONE', #160 ) ;
#279 = EDGE_LOOP ( 'NONE', ( #304, #73, #36, #205 ) ) ;
#280 = CARTESIAN_POINT ( 'NONE',  ( 0.000000000000000000, 0.000000000000000000, 0.000000000000000000 ) ) ;
#281 = SURFACE_STYLE_USAGE ( .BOTH. , #79 ) ;
#282 = CARTESIAN_POINT ( 'NONE',  ( 0.1250000000000000278, 4.000000000000000000, 0.000000000000000000 ) ) ;
#283 = CARTESIAN_POINT ( 'NONE',  ( 1.530808498934191509E-17, 0.000000000000000000, 0.1250000000000000000 ) ) ;
#284 = MANIFOLD_SOLID_BREP ( 'Revolve - Tool Body (Straight Shanked)', #179 ) ;
#285 = CYLINDRICAL_SURFACE ( 'NONE', #152, 0.1249999999999999029 ) ;
#286 = EDGE_LOOP ( 'NONE', ( #52, #53 ) ) ;
#287 = DIMENSIONAL_EXPONENTS ( 1.000000000000000000, 0.000000000000000000, 0.000000000000000000, 0.000000000000000000, 0.000000000000000000, 0.000000000000000000, 0.000000000000000000 ) ;
#288 = PRESENTATION_LAYER_ASSIGNMENT (  '', '', ( #39 ) ) ;
#289 = AXIS2_PLACEMENT_3D ( 'NONE', #59, #119, #64 ) ;
#290 = EDGE_CURVE ( 'NONE', #256, #100, #184, .T. ) ;
#291 = FILL_AREA_STYLE_COLOUR ( '', #264 ) ;
#292 = COLOUR_RGB ( '',0.7921568627450980005, 0.8196078431372548767, 0.9333333333333333481 ) ;
#293 = CARTESIAN_POINT ( 'NONE',  ( 2.449293598294707400E-16, 4.000000000000000000, 0.000000000000000000 ) ) ;
#294 = MECHANICAL_DESIGN_GEOMETRIC_PRESENTATION_REPRESENTATION (  '', ( #275 ), #229 ) ;
#295 = DIRECTION ( 'NONE',  ( 7.536287994752946416E-17, 1.000000000000000000, -0.000000000000000000 ) ) ;
#296 = ADVANCED_FACE ( 'NONE', ( #6 ), #285, .T. ) ;
#297 = AXIS2_PLACEMENT_3D ( 'NONE', #197, #128, #101 ) ;
#298 = PRESENTATION_LAYER_ASSIGNMENT (  '', '', ( #218 ) ) ;
#299 =( CONVERSION_BASED_UNIT ( 'INCH', #180 ) LENGTH_UNIT ( ) NAMED_UNIT ( #245 ) );
#300 = PLANE ( 'NONE',  #95 ) ;
#301 =( LENGTH_UNIT ( ) NAMED_UNIT ( * ) SI_UNIT ( $, .METRE. ) );
#302 = CIRCLE ( 'NONE', #57, 0.1249999999999997780 ) ;
#303 = APPLICATION_CONTEXT ( 'automotive_design' ) ;
#304 = ORIENTED_EDGE ( 'NONE', *, *, #165, .T. ) ;
#305 = FILL_AREA_STYLE ('',( #211 ) ) ;
#306 = DIRECTION ( 'NONE',  ( 1.000000000000000000, -7.536287994752946416E-17, 0.000000000000000000 ) ) ;
#307 = DIMENSIONAL_EXPONENTS ( 1.000000000000000000, 0.000000000000000000, 0.000000000000000000, 0.000000000000000000, 0.000000000000000000, 0.000000000000000000, 0.000000000000000000 ) ;
#308 = CIRCLE ( 'NONE', #134, 0.1250000000000000000 ) ;
#309 =( NAMED_UNIT ( * ) PLANE_ANGLE_UNIT ( ) SI_UNIT ( $, .RADIAN. ) );
ENDSEC;
END-ISO-10303-21;
