ISO-10303-21;
HEADER;
FILE_DESCRIPTION (( 'STEP AP214' ),
    '1' );
FILE_NAME ('59492.STEP',
    '2023-07-24T15:07:45',
    ( '' ),
    ( '' ),
    'SwSTEP 2.0',
    'SolidWorks 2023',
    '' );
FILE_SCHEMA (( 'AUTOMOTIVE_DESIGN' ));
ENDSEC;

DATA;
#1 = CARTESIAN_POINT ( 'NONE',  ( -10.00000000000000533, 100.0000000000000000, 0.000000000000000000 ) ) ;
#2 = CARTESIAN_POINT ( 'NONE',  ( 0.000000000000000000, 40.00000000000000000, 0.000000000000000000 ) ) ;
#3 = DIRECTION ( 'NONE',  ( 0.000000000000000000, 0.000000000000000000, -1.000000000000000000 ) ) ;
#4 = EDGE_CURVE ( 'NONE', #246, #153, #167, .T. ) ;
#5 = ORIENTED_EDGE ( 'NONE', *, *, #216, .T. ) ;
#6 = ORIENTED_EDGE ( 'NONE', *, *, #329, .T. ) ;
#7 = DIRECTION ( 'NONE',  ( -0.000000000000000000, -1.000000000000000000, -0.000000000000000000 ) ) ;
#8 = CIRCLE ( 'NONE', #227, 10.00000000000000355 ) ;
#9 = CARTESIAN_POINT ( 'NONE',  ( 10.00000000000000178, 40.00000000000000000, 1.224646799147353651E-15 ) ) ;
#10 = CARTESIAN_POINT ( 'NONE',  ( 0.000000000000000000, 0.5000000000000000000, 0.000000000000000000 ) ) ;
#11 = PRESENTATION_LAYER_ASSIGNMENT (  '', '', ( #352 ) ) ;
#12 = ORIENTED_EDGE ( 'NONE', *, *, #321, .F. ) ;
#13 = DIRECTION ( 'NONE',  ( 0.000000000000000000, -0.000000000000000000, 1.000000000000000000 ) ) ;
#14 = FILL_AREA_STYLE ('',( #131 ) ) ;
#15 = PRESENTATION_LAYER_ASSIGNMENT (  '', '', ( #127 ) ) ;
#16 = STYLED_ITEM ( 'NONE', ( #154 ), #58 ) ;
#17 = SURFACE_SIDE_STYLE ('',( #105 ) ) ;
#18 = ADVANCED_FACE ( 'NONE', ( #304 ), #87, .T. ) ;
#19 = DIRECTION ( 'NONE',  ( -0.000000000000000000, -1.000000000000000000, -0.000000000000000000 ) ) ;
#20 = PRESENTATION_LAYER_ASSIGNMENT (  '', '', ( #213 ) ) ;
#21 = MANIFOLD_SOLID_BREP ( 'Revolve - Tool Body (Straight Shanked)', #364 ) ;
#22 = EDGE_LOOP ( 'NONE', ( #306, #363 ) ) ;
#23 = SURFACE_STYLE_USAGE ( .BOTH. , #255 ) ;
#24 = PRODUCT_CONTEXT ( 'NONE', #334, 'mechanical' ) ;
#25 =( GEOMETRIC_REPRESENTATION_CONTEXT ( 3 ) GLOBAL_UNCERTAINTY_ASSIGNED_CONTEXT ( ( #312 ) ) GLOBAL_UNIT_ASSIGNED_CONTEXT ( ( #138, #112, #286 ) ) REPRESENTATION_CONTEXT ( 'NONE', 'WORKASPACE' ) );
#26 = MANIFOLD_SOLID_BREP ( 'Revolve - Cutting Edge', #36 ) ;
#27 = PRESENTATION_STYLE_ASSIGNMENT (( #23 ) ) ;
#28 = CARTESIAN_POINT ( 'NONE',  ( 0.000000000000000000, 0.000000000000000000, -10.00000000000000000 ) ) ;
#29 = PRESENTATION_STYLE_ASSIGNMENT (( #109 ) ) ;
#30 = AXIS2_PLACEMENT_3D ( 'NONE', #63, #152, #3 ) ;
#31 = AXIS2_PLACEMENT_3D ( 'NONE', #189, #162, #210 ) ;
#32 = FACE_OUTER_BOUND ( 'NONE', #157, .T. ) ;
#33 = MECHANICAL_DESIGN_GEOMETRIC_PRESENTATION_REPRESENTATION (  '', ( #127 ), #249 ) ;
#34 = DIRECTION ( 'NONE',  ( 1.000000000000000000, 0.000000000000000000, -1.224646799147353207E-16 ) ) ;
#35 = ADVANCED_FACE ( 'NONE', ( #115 ), #53, .T. ) ;
#36 = CLOSED_SHELL ( 'NONE', ( #58, #367, #46, #18, #360, #203 ) ) ;
#37 = SURFACE_STYLE_FILL_AREA ( #290 ) ;
#38 = UNCERTAINTY_MEASURE_WITH_UNIT (LENGTH_MEASURE( 1.000000000000000082E-05 ), #322, 'distance_accuracy_value', 'NONE');
#39 = DIRECTION ( 'NONE',  ( -1.236440607496819135E-16, 1.000000000000000000, -0.000000000000000000 ) ) ;
#40 = SURFACE_STYLE_FILL_AREA ( #293 ) ;
#41 = DIRECTION ( 'NONE',  ( -1.236440607496819135E-16, 1.000000000000000000, -0.000000000000000000 ) ) ;
#42 = AXIS2_PLACEMENT_3D ( 'NONE', #10, #7, #289 ) ;
#43 = ORIENTED_EDGE ( 'NONE', *, *, #212, .F. ) ;
#44 =( NAMED_UNIT ( * ) PLANE_ANGLE_UNIT ( ) SI_UNIT ( $, .RADIAN. ) );
#45 = EDGE_LOOP ( 'NONE', ( #281, #98 ) ) ;
#46 = ADVANCED_FACE ( 'NONE', ( #361 ), #314, .T. ) ;
#47 = CARTESIAN_POINT ( 'NONE',  ( -9.999999999999987566, 40.00000000000000000, 0.000000000000000000 ) ) ;
#48 = STYLED_ITEM ( 'NONE', ( #27 ), #367 ) ;
#49 = MECHANICAL_DESIGN_GEOMETRIC_PRESENTATION_REPRESENTATION (  '', ( #213 ), #147 ) ;
#50 = AXIS2_PLACEMENT_3D ( 'NONE', #77, #193, #301 ) ;
#51 = CARTESIAN_POINT ( 'NONE',  ( 0.000000000000000000, 0.5000000000000000000, 0.000000000000000000 ) ) ;
#52 = ORIENTED_EDGE ( 'NONE', *, *, #224, .T. ) ;
#53 = CYLINDRICAL_SURFACE ( 'NONE', #81, 9.999999999999998224 ) ;
#54 =( NAMED_UNIT ( * ) PLANE_ANGLE_UNIT ( ) SI_UNIT ( $, .RADIAN. ) );
#55 = PRODUCT ( '59492', '59492', '', ( #24 ) ) ;
#56 = DIRECTION ( 'NONE',  ( 1.000000000000000000, 0.000000000000000000, 0.000000000000000000 ) ) ;
#57 = DIRECTION ( 'NONE',  ( -0.000000000000000000, -1.000000000000000000, -0.000000000000000000 ) ) ;
#58 = ADVANCED_FACE ( 'NONE', ( #244 ), #158, .T. ) ;
#59 = FILL_AREA_STYLE_COLOUR ( '', #252 ) ;
#60 = DIRECTION ( 'NONE',  ( -1.236440607496819135E-16, 1.000000000000000000, -0.000000000000000000 ) ) ;
#61 = ORIENTED_EDGE ( 'NONE', *, *, #212, .T. ) ;
#62 = ADVANCED_BREP_SHAPE_REPRESENTATION ( '59492', ( #26, #21, #265 ), #25 ) ;
#63 = CARTESIAN_POINT ( 'NONE',  ( 0.000000000000000000, 0.000000000000000000, 0.000000000000000000 ) ) ;
#64 = PRODUCT_DEFINITION_CONTEXT ( 'detailed design', #218, 'design' ) ;
#65 = CARTESIAN_POINT ( 'NONE',  ( 6.071532165918824830E-15, 40.00000000000000000, 0.000000000000000000 ) ) ;
#66 = DIRECTION ( 'NONE',  ( 0.000000000000000000, -1.000000000000000000, -0.000000000000000000 ) ) ;
#67 = CIRCLE ( 'NONE', #267, 0.5000000000000004441 ) ;
#68 =( NAMED_UNIT ( * ) PLANE_ANGLE_UNIT ( ) SI_UNIT ( $, .RADIAN. ) );
#69 = VERTEX_POINT ( 'NONE', #9 ) ;
#70 = DIRECTION ( 'NONE',  ( -1.000000000000000000, 0.000000000000000000, 0.000000000000000000 ) ) ;
#71 =( NAMED_UNIT ( * ) SI_UNIT ( $, .STERADIAN. ) SOLID_ANGLE_UNIT ( ) );
#72 = PRESENTATION_LAYER_ASSIGNMENT (  '', '', ( #230 ) ) ;
#73 = CARTESIAN_POINT ( 'NONE',  ( 0.000000000000000000, 0.000000000000000000, -9.500000000000000000 ) ) ;
#74 = CARTESIAN_POINT ( 'NONE',  ( 0.000000000000000000, 40.00000000000000000, 0.000000000000000000 ) ) ;
#75 = EDGE_LOOP ( 'NONE', ( #196, #122, #134, #194 ) ) ;
#76 = PRESENTATION_STYLE_ASSIGNMENT (( #300 ) ) ;
#77 = CARTESIAN_POINT ( 'NONE',  ( -1.347111479062089982E-15, 100.0000000000000000, 0.000000000000000000 ) ) ;
#78 = ORIENTED_EDGE ( 'NONE', *, *, #262, .T. ) ;
#79 =( NAMED_UNIT ( * ) SI_UNIT ( $, .STERADIAN. ) SOLID_ANGLE_UNIT ( ) );
#80 = MECHANICAL_DESIGN_GEOMETRIC_PRESENTATION_REPRESENTATION (  '', ( #16 ), #125 ) ;
#81 = AXIS2_PLACEMENT_3D ( 'NONE', #140, #200, #86 ) ;
#82 = FILL_AREA_STYLE ('',( #59 ) ) ;
#83 = SHAPE_DEFINITION_REPRESENTATION ( #338, #62 ) ;
#84 = CARTESIAN_POINT ( 'NONE',  ( -10.00000000000000000, 100.0000000000000000, 0.000000000000000000 ) ) ;
#85 = UNCERTAINTY_MEASURE_WITH_UNIT (LENGTH_MEASURE( 1.000000000000000082E-05 ), #199, 'distance_accuracy_value', 'NONE');
#86 = DIRECTION ( 'NONE',  ( -1.000000000000000000, 0.000000000000000000, 0.000000000000000000 ) ) ;
#87 = TOROIDAL_SURFACE ( 'NONE', #296, 9.500000000000000000, 0.5000000000000002220 ) ;
#88 = DIRECTION ( 'NONE',  ( -1.236440607496819135E-16, 1.000000000000000000, -0.000000000000000000 ) ) ;
#89 = CARTESIAN_POINT ( 'NONE',  ( 1.194030629168669469E-15, 0.000000000000000000, 9.500000000000000000 ) ) ;
#90 = PRODUCT_DEFINITION ( 'UNKNOWN', '', #225, #64 ) ;
#91 = TOROIDAL_SURFACE ( 'NONE', #368, 9.500000000000000000, 0.5000000000000002220 ) ;
#92 = EDGE_LOOP ( 'NONE', ( #228, #220, #104, #43 ) ) ;
#93 = SURFACE_STYLE_USAGE ( .BOTH. , #180 ) ;
#94 =( GEOMETRIC_REPRESENTATION_CONTEXT ( 3 ) GLOBAL_UNCERTAINTY_ASSIGNED_CONTEXT ( ( #156 ) ) GLOBAL_UNIT_ASSIGNED_CONTEXT ( ( #358, #307, #79 ) ) REPRESENTATION_CONTEXT ( 'NONE', 'WORKASPACE' ) );
#95 = SURFACE_STYLE_USAGE ( .BOTH. , #121 ) ;
#96 = EDGE_LOOP ( 'NONE', ( #223, #120 ) ) ;
#97 = VECTOR ( 'NONE', #41, 1000.000000000000000 ) ;
#98 = ORIENTED_EDGE ( 'NONE', *, *, #4, .F. ) ;
#99 = CIRCLE ( 'NONE', #278, 10.00000000000000000 ) ;
#100 =( GEOMETRIC_REPRESENTATION_CONTEXT ( 3 ) GLOBAL_UNCERTAINTY_ASSIGNED_CONTEXT ( ( #366 ) ) GLOBAL_UNIT_ASSIGNED_CONTEXT ( ( #201, #169, #370 ) ) REPRESENTATION_CONTEXT ( 'NONE', 'WORKASPACE' ) );
#101 = EDGE_CURVE ( 'NONE', #243, #313, #233, .T. ) ;
#102 = PLANE ( 'NONE',  #362 ) ;
#103 =( NAMED_UNIT ( * ) SI_UNIT ( $, .STERADIAN. ) SOLID_ANGLE_UNIT ( ) );
#104 = ORIENTED_EDGE ( 'NONE', *, *, #333, .T. ) ;
#105 = SURFACE_STYLE_FILL_AREA ( #277 ) ;
#106 = EDGE_CURVE ( 'NONE', #183, #280, #67, .T. ) ;
#107 = DIRECTION ( 'NONE',  ( 0.000000000000000000, 0.000000000000000000, -1.000000000000000000 ) ) ;
#108 = EDGE_CURVE ( 'NONE', #153, #246, #99, .T. ) ;
#109 = SURFACE_STYLE_USAGE ( .BOTH. , #343 ) ;
#110 = ORIENTED_EDGE ( 'NONE', *, *, #321, .T. ) ;
#111 = CARTESIAN_POINT ( 'NONE',  ( 0.000000000000000000, 0.5000000000000000000, 0.000000000000000000 ) ) ;
#112 =( NAMED_UNIT ( * ) PLANE_ANGLE_UNIT ( ) SI_UNIT ( $, .RADIAN. ) );
#113 = SURFACE_SIDE_STYLE ('',( #365 ) ) ;
#114 = DIRECTION ( 'NONE',  ( -1.000000000000000000, -1.236440607496819135E-16, 0.000000000000000000 ) ) ;
#115 = FACE_OUTER_BOUND ( 'NONE', #215, .T. ) ;
#116 = AXIS2_PLACEMENT_3D ( 'NONE', #353, #19, #330 ) ;
#117 = CARTESIAN_POINT ( 'NONE',  ( 9.999999999999996447, 100.0000000000000000, 1.224646799147353059E-15 ) ) ;
#118 = CARTESIAN_POINT ( 'NONE',  ( 0.000000000000000000, 0.5000000000000000000, -10.00000000000000000 ) ) ;
#119 = ORIENTED_EDGE ( 'NONE', *, *, #101, .T. ) ;
#120 = ORIENTED_EDGE ( 'NONE', *, *, #340, .F. ) ;
#121 = SURFACE_SIDE_STYLE ('',( #37 ) ) ;
#122 = ORIENTED_EDGE ( 'NONE', *, *, #283, .T. ) ;
#123 = SURFACE_SIDE_STYLE ('',( #124 ) ) ;
#124 = SURFACE_STYLE_FILL_AREA ( #248 ) ;
#125 =( GEOMETRIC_REPRESENTATION_CONTEXT ( 3 ) GLOBAL_UNCERTAINTY_ASSIGNED_CONTEXT ( ( #208 ) ) GLOBAL_UNIT_ASSIGNED_CONTEXT ( ( #241, #320, #103 ) ) REPRESENTATION_CONTEXT ( 'NONE', 'WORKASPACE' ) );
#126 = SURFACE_STYLE_FILL_AREA ( #14 ) ;
#127 = STYLED_ITEM ( 'NONE', ( #29 ), #46 ) ;
#128 = COLOUR_RGB ( '',1.000000000000000000, 0.000000000000000000, 0.000000000000000000 ) ;
#129 = SURFACE_STYLE_USAGE ( .BOTH. , #17 ) ;
#130 = FACE_OUTER_BOUND ( 'NONE', #346, .T. ) ;
#131 = FILL_AREA_STYLE_COLOUR ( '', #285 ) ;
#132 = AXIS2_PLACEMENT_3D ( 'NONE', #311, #60, #175 ) ;
#133 = SURFACE_STYLE_FILL_AREA ( #195 ) ;
#134 = ORIENTED_EDGE ( 'NONE', *, *, #216, .F. ) ;
#135 = VECTOR ( 'NONE', #317, 1000.000000000000000 ) ;
#136 = EDGE_CURVE ( 'NONE', #173, #280, #310, .T. ) ;
#137 = CYLINDRICAL_SURFACE ( 'NONE', #324, 10.00000000000000000 ) ;
#138 =( LENGTH_UNIT ( ) NAMED_UNIT ( * ) SI_UNIT ( .MILLI., .METRE. ) );
#139 = DIRECTION ( 'NONE',  ( 0.000000000000000000, 0.000000000000000000, 1.000000000000000000 ) ) ;
#140 = CARTESIAN_POINT ( 'NONE',  ( -1.347111479062090180E-15, 100.0000000000000000, 0.000000000000000000 ) ) ;
#141 = CIRCLE ( 'NONE', #31, 10.00000000000000000 ) ;
#142 = CARTESIAN_POINT ( 'NONE',  ( 0.000000000000000000, 0.000000000000000000, 0.000000000000000000 ) ) ;
#143 =( LENGTH_UNIT ( ) NAMED_UNIT ( * ) SI_UNIT ( .MILLI., .METRE. ) );
#144 =( LENGTH_UNIT ( ) NAMED_UNIT ( * ) SI_UNIT ( .MILLI., .METRE. ) );
#145 = CARTESIAN_POINT ( 'NONE',  ( 1.224646799147353256E-15, 40.00000000000000000, 10.00000000000000000 ) ) ;
#146 = COLOUR_RGB ( '',1.000000000000000000, 0.000000000000000000, 0.000000000000000000 ) ;
#147 =( GEOMETRIC_REPRESENTATION_CONTEXT ( 3 ) GLOBAL_UNCERTAINTY_ASSIGNED_CONTEXT ( ( #235 ) ) GLOBAL_UNIT_ASSIGNED_CONTEXT ( ( #295, #44, #161 ) ) REPRESENTATION_CONTEXT ( 'NONE', 'WORKASPACE' ) );
#148 = CARTESIAN_POINT ( 'NONE',  ( 0.000000000000000000, 0.5000000000000000000, -9.500000000000000000 ) ) ;
#149 = COLOUR_RGB ( '',1.000000000000000000, 0.000000000000000000, 0.000000000000000000 ) ;
#150 = DIRECTION ( 'NONE',  ( -1.224646799147353454E-16, 0.000000000000000000, -1.000000000000000000 ) ) ;
#151 =( GEOMETRIC_REPRESENTATION_CONTEXT ( 3 ) GLOBAL_UNCERTAINTY_ASSIGNED_CONTEXT ( ( #178 ) ) GLOBAL_UNIT_ASSIGNED_CONTEXT ( ( #144, #54, #259 ) ) REPRESENTATION_CONTEXT ( 'NONE', 'WORKASPACE' ) );
#152 = DIRECTION ( 'NONE',  ( -0.000000000000000000, -1.000000000000000000, -0.000000000000000000 ) ) ;
#153 = VERTEX_POINT ( 'NONE', #245 ) ;
#154 = PRESENTATION_STYLE_ASSIGNMENT (( #93 ) ) ;
#155 = FILL_AREA_STYLE_COLOUR ( '', #146 ) ;
#156 = UNCERTAINTY_MEASURE_WITH_UNIT (LENGTH_MEASURE( 1.000000000000000082E-05 ), #358, 'distance_accuracy_value', 'NONE');
#157 = EDGE_LOOP ( 'NONE', ( #78, #110, #298, #349 ) ) ;
#158 = CYLINDRICAL_SURFACE ( 'NONE', #181, 10.00000000000000000 ) ;
#159 = AXIS2_PLACEMENT_3D ( 'NONE', #148, #185, #294 ) ;
#160 = LINE ( 'NONE', #316, #135 ) ;
#161 =( NAMED_UNIT ( * ) SI_UNIT ( $, .STERADIAN. ) SOLID_ANGLE_UNIT ( ) );
#162 = DIRECTION ( 'NONE',  ( -0.000000000000000000, -1.000000000000000000, -0.000000000000000000 ) ) ;
#163 = MECHANICAL_DESIGN_GEOMETRIC_PRESENTATION_REPRESENTATION (  '', ( #48 ), #260 ) ;
#164 = AXIS2_PLACEMENT_3D ( 'NONE', #184, #66, #186 ) ;
#165 = SURFACE_SIDE_STYLE ('',( #126 ) ) ;
#166 = VERTEX_POINT ( 'NONE', #47 ) ;
#167 = CIRCLE ( 'NONE', #116, 10.00000000000000000 ) ;
#168 =( NAMED_UNIT ( * ) PLANE_ANGLE_UNIT ( ) SI_UNIT ( $, .RADIAN. ) );
#169 =( NAMED_UNIT ( * ) PLANE_ANGLE_UNIT ( ) SI_UNIT ( $, .RADIAN. ) );
#170 =( NAMED_UNIT ( * ) SI_UNIT ( $, .STERADIAN. ) SOLID_ANGLE_UNIT ( ) );
#171 = CARTESIAN_POINT ( 'NONE',  ( 10.00000000000000355, 100.0000000000000000, 1.224646799147353651E-15 ) ) ;
#172 = ADVANCED_FACE ( 'NONE', ( #326 ), #102, .F. ) ;
#173 = VERTEX_POINT ( 'NONE', #73 ) ;
#174 = SURFACE_STYLE_FILL_AREA ( #82 ) ;
#175 = DIRECTION ( 'NONE',  ( -1.000000000000000000, 0.000000000000000000, 0.000000000000000000 ) ) ;
#176 = PRESENTATION_LAYER_ASSIGNMENT (  '', '', ( #48 ) ) ;
#177 = PRESENTATION_LAYER_ASSIGNMENT (  '', '', ( #16 ) ) ;
#178 = UNCERTAINTY_MEASURE_WITH_UNIT (LENGTH_MEASURE( 1.000000000000000082E-05 ), #144, 'distance_accuracy_value', 'NONE');
#179 = ORIENTED_EDGE ( 'NONE', *, *, #284, .F. ) ;
#180 = SURFACE_SIDE_STYLE ('',( #40 ) ) ;
#181 = AXIS2_PLACEMENT_3D ( 'NONE', #239, #327, #272 ) ;
#182 = CARTESIAN_POINT ( 'NONE',  ( 6.071532165918824830E-15, 40.00000000000000000, 0.000000000000000000 ) ) ;
#183 = VERTEX_POINT ( 'NONE', #348 ) ;
#184 = CARTESIAN_POINT ( 'NONE',  ( 0.000000000000000000, 0.000000000000000000, 0.000000000000000000 ) ) ;
#185 = DIRECTION ( 'NONE',  ( -1.000000000000000000, 0.000000000000000000, 0.000000000000000000 ) ) ;
#186 = DIRECTION ( 'NONE',  ( 0.000000000000000000, 0.000000000000000000, -1.000000000000000000 ) ) ;
#187 = CIRCLE ( 'NONE', #30, 9.500000000000000000 ) ;
#188 = MECHANICAL_DESIGN_GEOMETRIC_PRESENTATION_REPRESENTATION (  '', ( #339 ), #100 ) ;
#189 = CARTESIAN_POINT ( 'NONE',  ( 0.000000000000000000, 0.5000000000000000000, 0.000000000000000000 ) ) ;
#190 = ORIENTED_EDGE ( 'NONE', *, *, #282, .T. ) ;
#191 = DIRECTION ( 'NONE',  ( 1.236440607496819135E-16, -1.000000000000000000, 0.000000000000000000 ) ) ;
#192 = AXIS2_PLACEMENT_3D ( 'NONE', #182, #271, #214 ) ;
#193 = DIRECTION ( 'NONE',  ( -1.236440607496819135E-16, 1.000000000000000000, -0.000000000000000000 ) ) ;
#194 = ORIENTED_EDGE ( 'NONE', *, *, #333, .F. ) ;
#195 = FILL_AREA_STYLE ('',( #253 ) ) ;
#196 = ORIENTED_EDGE ( 'NONE', *, *, #108, .T. ) ;
#197 = FILL_AREA_STYLE_COLOUR ( '', #128 ) ;
#198 = CIRCLE ( 'NONE', #247, 9.999999999999994671 ) ;
#199 =( LENGTH_UNIT ( ) NAMED_UNIT ( * ) SI_UNIT ( .MILLI., .METRE. ) );
#200 = DIRECTION ( 'NONE',  ( -1.236440607496819135E-16, 1.000000000000000000, -0.000000000000000000 ) ) ;
#201 =( LENGTH_UNIT ( ) NAMED_UNIT ( * ) SI_UNIT ( .MILLI., .METRE. ) );
#202 = CIRCLE ( 'NONE', #42, 10.00000000000000000 ) ;
#203 = ADVANCED_FACE ( 'NONE', ( #217 ), #273, .T. ) ;
#204 = LINE ( 'NONE', #84, #325 ) ;
#205 = PRESENTATION_LAYER_ASSIGNMENT (  '', '', ( #357 ) ) ;
#206 = ORIENTED_EDGE ( 'NONE', *, *, #282, .F. ) ;
#207 = DIRECTION ( 'NONE',  ( -0.000000000000000000, -1.000000000000000000, -0.000000000000000000 ) ) ;
#208 = UNCERTAINTY_MEASURE_WITH_UNIT (LENGTH_MEASURE( 1.000000000000000082E-05 ), #241, 'distance_accuracy_value', 'NONE');
#209 = CARTESIAN_POINT ( 'NONE',  ( 1.163414459189985485E-15, 0.5000000000000000000, 9.500000000000000000 ) ) ;
#210 = DIRECTION ( 'NONE',  ( 0.000000000000000000, 0.000000000000000000, -1.000000000000000000 ) ) ;
#211 = MECHANICAL_DESIGN_GEOMETRIC_PRESENTATION_REPRESENTATION (  '', ( #230 ), #328 ) ;
#212 = EDGE_CURVE ( 'NONE', #183, #250, #141, .T. ) ;
#213 = STYLED_ITEM ( 'NONE', ( #76 ), #203 ) ;
#214 = DIRECTION ( 'NONE',  ( -1.000000000000000000, 0.000000000000000000, 0.000000000000000000 ) ) ;
#215 = EDGE_LOOP ( 'NONE', ( #12, #351, #52, #206 ) ) ;
#216 = EDGE_CURVE ( 'NONE', #250, #183, #202, .T. ) ;
#217 = FACE_OUTER_BOUND ( 'NONE', #45, .T. ) ;
#218 = APPLICATION_CONTEXT ( 'automotive_design' ) ;
#219 = DIRECTION ( 'NONE',  ( 1.000000000000000000, 1.236440607496819135E-16, 0.000000000000000000 ) ) ;
#220 = ORIENTED_EDGE ( 'NONE', *, *, #4, .T. ) ;
#221 = DIRECTION ( 'NONE',  ( 0.000000000000000000, 0.000000000000000000, -1.000000000000000000 ) ) ;
#222 = CARTESIAN_POINT ( 'NONE',  ( 10.00000000000000178, 100.0000000000000000, 0.000000000000000000 ) ) ;
#223 = ORIENTED_EDGE ( 'NONE', *, *, #262, .F. ) ;
#224 = EDGE_CURVE ( 'NONE', #166, #243, #204, .T. ) ;
#225 = PRODUCT_DEFINITION_FORMATION_WITH_SPECIFIED_SOURCE ( 'ANY', '', #55, .NOT_KNOWN. ) ;
#226 = CARTESIAN_POINT ( 'NONE',  ( 0.000000000000000000, 0.000000000000000000, 0.000000000000000000 ) ) ;
#227 = AXIS2_PLACEMENT_3D ( 'NONE', #292, #315, #70 ) ;
#228 = ORIENTED_EDGE ( 'NONE', *, *, #283, .F. ) ;
#229 = DIRECTION ( 'NONE',  ( -0.000000000000000000, -1.000000000000000000, -0.000000000000000000 ) ) ;
#230 = STYLED_ITEM ( 'NONE', ( #269 ), #360 ) ;
#231 = COLOUR_RGB ( '',1.000000000000000000, 0.000000000000000000, 0.000000000000000000 ) ;
#232 = MECHANICAL_DESIGN_GEOMETRIC_PRESENTATION_REPRESENTATION (  '', ( #357 ), #94 ) ;
#233 = CIRCLE ( 'NONE', #50, 10.00000000000000355 ) ;
#234 = SURFACE_STYLE_USAGE ( .BOTH. , #113 ) ;
#235 = UNCERTAINTY_MEASURE_WITH_UNIT (LENGTH_MEASURE( 1.000000000000000082E-05 ), #295, 'distance_accuracy_value', 'NONE');
#236 = LINE ( 'NONE', #117, #97 ) ;
#237 = DIRECTION ( 'NONE',  ( -1.000000000000000000, 0.000000000000000000, 0.000000000000000000 ) ) ;
#238 = PRODUCT_RELATED_PRODUCT_CATEGORY ( 'part', '', ( #55 ) ) ;
#239 = CARTESIAN_POINT ( 'NONE',  ( 0.000000000000000000, 0.000000000000000000, 0.000000000000000000 ) ) ;
#240 = ORIENTED_EDGE ( 'NONE', *, *, #106, .F. ) ;
#241 =( LENGTH_UNIT ( ) NAMED_UNIT ( * ) SI_UNIT ( .MILLI., .METRE. ) );
#242 = AXIS2_PLACEMENT_3D ( 'NONE', #65, #266, #114 ) ;
#243 = VERTEX_POINT ( 'NONE', #1 ) ;
#244 = FACE_OUTER_BOUND ( 'NONE', #75, .T. ) ;
#245 = CARTESIAN_POINT ( 'NONE',  ( 0.000000000000000000, 40.00000000000000000, -10.00000000000000000 ) ) ;
#246 = VERTEX_POINT ( 'NONE', #145 ) ;
#247 = AXIS2_PLACEMENT_3D ( 'NONE', #347, #39, #237 ) ;
#248 = FILL_AREA_STYLE ('',( #274 ) ) ;
#249 =( GEOMETRIC_REPRESENTATION_CONTEXT ( 3 ) GLOBAL_UNCERTAINTY_ASSIGNED_CONTEXT ( ( #342 ) ) GLOBAL_UNIT_ASSIGNED_CONTEXT ( ( #143, #168, #71 ) ) REPRESENTATION_CONTEXT ( 'NONE', 'WORKASPACE' ) );
#250 = VERTEX_POINT ( 'NONE', #118 ) ;
#251 = SURFACE_STYLE_USAGE ( .BOTH. , #165 ) ;
#252 = COLOUR_RGB ( '',1.000000000000000000, 0.000000000000000000, 0.000000000000000000 ) ;
#253 = FILL_AREA_STYLE_COLOUR ( '', #331 ) ;
#254 = FILL_AREA_STYLE_COLOUR ( '', #149 ) ;
#255 = SURFACE_SIDE_STYLE ('',( #133 ) ) ;
#256 = AXIS2_PLACEMENT_3D ( 'NONE', #74, #323, #13 ) ;
#257 = DIRECTION ( 'NONE',  ( 0.000000000000000000, 0.000000000000000000, -1.000000000000000000 ) ) ;
#258 = COLOUR_RGB ( '',0.7921568627450980005, 0.8196078431372548767, 0.9333333333333333481 ) ;
#259 =( NAMED_UNIT ( * ) SI_UNIT ( $, .STERADIAN. ) SOLID_ANGLE_UNIT ( ) );
#260 =( GEOMETRIC_REPRESENTATION_CONTEXT ( 3 ) GLOBAL_UNCERTAINTY_ASSIGNED_CONTEXT ( ( #85 ) ) GLOBAL_UNIT_ASSIGNED_CONTEXT ( ( #199, #309, #170 ) ) REPRESENTATION_CONTEXT ( 'NONE', 'WORKASPACE' ) );
#261 = APPLICATION_PROTOCOL_DEFINITION ( 'draft international standard', 'automotive_design', 1998, #218 ) ;
#262 = EDGE_CURVE ( 'NONE', #166, #69, #345, .T. ) ;
#263 = FILL_AREA_STYLE_COLOUR ( '', #258 ) ;
#264 = PRESENTATION_STYLE_ASSIGNMENT (( #234 ) ) ;
#265 = AXIS2_PLACEMENT_3D ( 'NONE', #142, #139, #56 ) ;
#266 = DIRECTION ( 'NONE',  ( -1.236440607496819135E-16, 1.000000000000000000, 0.000000000000000000 ) ) ;
#267 = AXIS2_PLACEMENT_3D ( 'NONE', #209, #34, #150 ) ;
#268 = FACE_OUTER_BOUND ( 'NONE', #96, .T. ) ;
#269 = PRESENTATION_STYLE_ASSIGNMENT (( #95 ) ) ;
#270 = ORIENTED_EDGE ( 'NONE', *, *, #329, .F. ) ;
#271 = DIRECTION ( 'NONE',  ( -1.236440607496819135E-16, 1.000000000000000000, -0.000000000000000000 ) ) ;
#272 = DIRECTION ( 'NONE',  ( 0.000000000000000000, 0.000000000000000000, -1.000000000000000000 ) ) ;
#273 = PLANE ( 'NONE',  #256 ) ;
#274 = FILL_AREA_STYLE_COLOUR ( '', #231 ) ;
#275 = DIRECTION ( 'NONE',  ( -0.000000000000000000, -1.000000000000000000, -0.000000000000000000 ) ) ;
#276 = PRESENTATION_LAYER_ASSIGNMENT (  '', '', ( #339 ) ) ;
#277 = FILL_AREA_STYLE ('',( #197 ) ) ;
#278 = AXIS2_PLACEMENT_3D ( 'NONE', #2, #299, #350 ) ;
#279 = ADVANCED_FACE ( 'NONE', ( #268 ), #369, .F. ) ;
#280 = VERTEX_POINT ( 'NONE', #89 ) ;
#281 = ORIENTED_EDGE ( 'NONE', *, *, #108, .F. ) ;
#282 = EDGE_CURVE ( 'NONE', #313, #243, #8, .T. ) ;
#283 = EDGE_CURVE ( 'NONE', #246, #183, #160, .T. ) ;
#284 = EDGE_CURVE ( 'NONE', #280, #173, #187, .T. ) ;
#285 = COLOUR_RGB ( '',0.7921568627450980005, 0.8196078431372548767, 0.9333333333333333481 ) ;
#286 =( NAMED_UNIT ( * ) SI_UNIT ( $, .STERADIAN. ) SOLID_ANGLE_UNIT ( ) );
#287 = LINE ( 'NONE', #28, #335 ) ;
#288 = FILL_AREA_STYLE ('',( #263 ) ) ;
#289 = DIRECTION ( 'NONE',  ( 0.000000000000000000, 0.000000000000000000, -1.000000000000000000 ) ) ;
#290 = FILL_AREA_STYLE ('',( #155 ) ) ;
#291 = ORIENTED_EDGE ( 'NONE', *, *, #106, .T. ) ;
#292 = CARTESIAN_POINT ( 'NONE',  ( -1.347111479062089982E-15, 100.0000000000000000, 0.000000000000000000 ) ) ;
#293 = FILL_AREA_STYLE ('',( #254 ) ) ;
#294 = DIRECTION ( 'NONE',  ( 0.000000000000000000, 0.000000000000000000, 1.000000000000000000 ) ) ;
#295 =( LENGTH_UNIT ( ) NAMED_UNIT ( * ) SI_UNIT ( .MILLI., .METRE. ) );
#296 = AXIS2_PLACEMENT_3D ( 'NONE', #51, #229, #257 ) ;
#297 = ORIENTED_EDGE ( 'NONE', *, *, #136, .F. ) ;
#298 = ORIENTED_EDGE ( 'NONE', *, *, #101, .F. ) ;
#299 = DIRECTION ( 'NONE',  ( -0.000000000000000000, -1.000000000000000000, -0.000000000000000000 ) ) ;
#300 = SURFACE_STYLE_USAGE ( .BOTH. , #123 ) ;
#301 = DIRECTION ( 'NONE',  ( -1.000000000000000000, 0.000000000000000000, 0.000000000000000000 ) ) ;
#302 = EDGE_LOOP ( 'NONE', ( #119, #190 ) ) ;
#303 = MECHANICAL_DESIGN_GEOMETRIC_PRESENTATION_REPRESENTATION (  '', ( #352 ), #151 ) ;
#304 = FACE_OUTER_BOUND ( 'NONE', #319, .T. ) ;
#305 = DIRECTION ( 'NONE',  ( -0.000000000000000000, -1.000000000000000000, -0.000000000000000000 ) ) ;
#306 = ORIENTED_EDGE ( 'NONE', *, *, #136, .T. ) ;
#307 =( NAMED_UNIT ( * ) PLANE_ANGLE_UNIT ( ) SI_UNIT ( $, .RADIAN. ) );
#308 = ADVANCED_FACE ( 'NONE', ( #32 ), #341, .T. ) ;
#309 =( NAMED_UNIT ( * ) PLANE_ANGLE_UNIT ( ) SI_UNIT ( $, .RADIAN. ) );
#310 = CIRCLE ( 'NONE', #318, 9.500000000000000000 ) ;
#311 = CARTESIAN_POINT ( 'NONE',  ( -1.347111479062090180E-15, 100.0000000000000000, 0.000000000000000000 ) ) ;
#312 = UNCERTAINTY_MEASURE_WITH_UNIT (LENGTH_MEASURE( 1.000000000000000082E-05 ), #138, 'distance_accuracy_value', 'NONE');
#313 = VERTEX_POINT ( 'NONE', #171 ) ;
#314 = PLANE ( 'NONE',  #164 ) ;
#315 = DIRECTION ( 'NONE',  ( -1.236440607496819135E-16, 1.000000000000000000, -0.000000000000000000 ) ) ;
#316 = CARTESIAN_POINT ( 'NONE',  ( 1.224646799147353256E-15, 0.000000000000000000, 10.00000000000000000 ) ) ;
#317 = DIRECTION ( 'NONE',  ( -0.000000000000000000, -1.000000000000000000, -0.000000000000000000 ) ) ;
#318 = AXIS2_PLACEMENT_3D ( 'NONE', #355, #275, #221 ) ;
#319 = EDGE_LOOP ( 'NONE', ( #240, #61, #6, #179 ) ) ;
#320 =( NAMED_UNIT ( * ) PLANE_ANGLE_UNIT ( ) SI_UNIT ( $, .RADIAN. ) );
#321 = EDGE_CURVE ( 'NONE', #69, #313, #236, .T. ) ;
#322 =( LENGTH_UNIT ( ) NAMED_UNIT ( * ) SI_UNIT ( .MILLI., .METRE. ) );
#323 = DIRECTION ( 'NONE',  ( 0.000000000000000000, 1.000000000000000000, 0.000000000000000000 ) ) ;
#324 = AXIS2_PLACEMENT_3D ( 'NONE', #226, #305, #107 ) ;
#325 = VECTOR ( 'NONE', #88, 1000.000000000000000 ) ;
#326 = FACE_OUTER_BOUND ( 'NONE', #302, .T. ) ;
#327 = DIRECTION ( 'NONE',  ( -0.000000000000000000, -1.000000000000000000, -0.000000000000000000 ) ) ;
#328 =( GEOMETRIC_REPRESENTATION_CONTEXT ( 3 ) GLOBAL_UNCERTAINTY_ASSIGNED_CONTEXT ( ( #38 ) ) GLOBAL_UNIT_ASSIGNED_CONTEXT ( ( #322, #68, #337 ) ) REPRESENTATION_CONTEXT ( 'NONE', 'WORKASPACE' ) );
#329 = EDGE_CURVE ( 'NONE', #250, #173, #356, .T. ) ;
#330 = DIRECTION ( 'NONE',  ( 0.000000000000000000, 0.000000000000000000, -1.000000000000000000 ) ) ;
#331 = COLOUR_RGB ( '',1.000000000000000000, 0.000000000000000000, 0.000000000000000000 ) ;
#332 = PRESENTATION_STYLE_ASSIGNMENT (( #129 ) ) ;
#333 = EDGE_CURVE ( 'NONE', #153, #250, #287, .T. ) ;
#334 = APPLICATION_CONTEXT ( 'automotive_design' ) ;
#335 = VECTOR ( 'NONE', #207, 1000.000000000000000 ) ;
#336 = APPLICATION_PROTOCOL_DEFINITION ( 'draft international standard', 'automotive_design', 1998, #334 ) ;
#337 =( NAMED_UNIT ( * ) SI_UNIT ( $, .STERADIAN. ) SOLID_ANGLE_UNIT ( ) );
#338 = PRODUCT_DEFINITION_SHAPE ( 'NONE', 'NONE',  #90 ) ;
#339 = STYLED_ITEM ( 'NONE', ( #264 ), #26 ) ;
#340 = EDGE_CURVE ( 'NONE', #69, #166, #198, .T. ) ;
#341 = CYLINDRICAL_SURFACE ( 'NONE', #132, 9.999999999999998224 ) ;
#342 = UNCERTAINTY_MEASURE_WITH_UNIT (LENGTH_MEASURE( 1.000000000000000082E-05 ), #143, 'distance_accuracy_value', 'NONE');
#343 = SURFACE_SIDE_STYLE ('',( #174 ) ) ;
#344 = FACE_OUTER_BOUND ( 'NONE', #92, .T. ) ;
#345 = CIRCLE ( 'NONE', #192, 9.999999999999994671 ) ;
#346 = EDGE_LOOP ( 'NONE', ( #5, #291, #297, #270 ) ) ;
#347 = CARTESIAN_POINT ( 'NONE',  ( 6.071532165918824830E-15, 40.00000000000000000, 0.000000000000000000 ) ) ;
#348 = CARTESIAN_POINT ( 'NONE',  ( 1.224646799147353256E-15, 0.5000000000000000000, 10.00000000000000000 ) ) ;
#349 = ORIENTED_EDGE ( 'NONE', *, *, #224, .F. ) ;
#350 = DIRECTION ( 'NONE',  ( 0.000000000000000000, 0.000000000000000000, -1.000000000000000000 ) ) ;
#351 = ORIENTED_EDGE ( 'NONE', *, *, #340, .T. ) ;
#352 = STYLED_ITEM ( 'NONE', ( #354 ), #21 ) ;
#353 = CARTESIAN_POINT ( 'NONE',  ( 0.000000000000000000, 40.00000000000000000, 0.000000000000000000 ) ) ;
#354 = PRESENTATION_STYLE_ASSIGNMENT (( #251 ) ) ;
#355 = CARTESIAN_POINT ( 'NONE',  ( 0.000000000000000000, 0.000000000000000000, 0.000000000000000000 ) ) ;
#356 = CIRCLE ( 'NONE', #159, 0.5000000000000004441 ) ;
#357 = STYLED_ITEM ( 'NONE', ( #332 ), #18 ) ;
#358 =( LENGTH_UNIT ( ) NAMED_UNIT ( * ) SI_UNIT ( .MILLI., .METRE. ) );
#359 = DIRECTION ( 'NONE',  ( 0.000000000000000000, 0.000000000000000000, -1.000000000000000000 ) ) ;
#360 = ADVANCED_FACE ( 'NONE', ( #344 ), #137, .T. ) ;
#361 = FACE_OUTER_BOUND ( 'NONE', #22, .T. ) ;
#362 = AXIS2_PLACEMENT_3D ( 'NONE', #222, #191, #219 ) ;
#363 = ORIENTED_EDGE ( 'NONE', *, *, #284, .T. ) ;
#364 = CLOSED_SHELL ( 'NONE', ( #308, #279, #35, #172 ) ) ;
#365 = SURFACE_STYLE_FILL_AREA ( #288 ) ;
#366 = UNCERTAINTY_MEASURE_WITH_UNIT (LENGTH_MEASURE( 1.000000000000000082E-05 ), #201, 'distance_accuracy_value', 'NONE');
#367 = ADVANCED_FACE ( 'NONE', ( #130 ), #91, .T. ) ;
#368 = AXIS2_PLACEMENT_3D ( 'NONE', #111, #57, #359 ) ;
#369 = PLANE ( 'NONE',  #242 ) ;
#370 =( NAMED_UNIT ( * ) SI_UNIT ( $, .STERADIAN. ) SOLID_ANGLE_UNIT ( ) );
ENDSEC;
END-ISO-10303-21;
