ISO-10303-21;
HEADER;
FILE_DESCRIPTION (( 'STEP AP214' ),
    '1' );
FILE_NAME ('Micro_RDD-110.STEP',
    '2021-08-31T15:20:26',
    ( '' ),
    ( '' ),
    'SwSTEP 2.0',
    'SolidWorks 2020',
    '' );
FILE_SCHEMA (( 'AUTOMOTIVE_DESIGN' ));
ENDSEC;

DATA;
#1 = ORIENTED_EDGE ( 'NONE', *, *, #152, .F. ) ;
#2 =( NAMED_UNIT ( * ) PLANE_ANGLE_UNIT ( ) SI_UNIT ( $, .RADIAN. ) );
#3 = FACE_OUTER_BOUND ( 'NONE', #175, .T. ) ;
#4 = DIMENSIONAL_EXPONENTS ( 1.000000000000000000, 0.0000000000000000000, 0.0000000000000000000, 0.0000000000000000000, 0.0000000000000000000, 0.0000000000000000000, 0.0000000000000000000 ) ;
#5 = CARTESIAN_POINT ( 'NONE',  ( 0.0000000000000000000, 0.0000000000000000000, 3.000000000000000444 ) ) ;
#6 = LENGTH_MEASURE_WITH_UNIT ( LENGTH_MEASURE( 0.02539999999999999897 ), #181 );
#7 = CIRCLE ( 'NONE', #192, 0.2497500000000000553 ) ;
#8 = ORIENTED_EDGE ( 'NONE', *, *, #282, .T. ) ;
#9 = ADVANCED_FACE ( 'NONE', ( #94 ), #199, .T. ) ;
#10 =( NAMED_UNIT ( * ) PLANE_ANGLE_UNIT ( ) SI_UNIT ( $, .RADIAN. ) );
#11 =( LENGTH_UNIT ( ) NAMED_UNIT ( * ) SI_UNIT ( $, .METRE. ) );
#12 = CARTESIAN_POINT ( 'NONE',  ( 0.0000000000000000000, 0.0000000000000000000, 3.000000000000000444 ) ) ;
#13 = AXIS2_PLACEMENT_3D ( 'NONE', #270, #188, #285 ) ;
#14 = EDGE_LOOP ( 'NONE', ( #219, #315, #150 ) ) ;
#15 = DIRECTION ( 'NONE',  ( -1.224646799147353454E-16, -0.0000000000000000000, -1.000000000000000000 ) ) ;
#16 = CARTESIAN_POINT ( 'NONE',  ( 0.0000000000000000000, 0.0000000000000000000, 0.0000000000000000000 ) ) ;
#17 = EDGE_CURVE ( 'NONE', #244, #298, #7, .T. ) ;
#18 = DIRECTION ( 'NONE',  ( 1.000000000000000000, 0.0000000000000000000, -1.379608302175842567E-16 ) ) ;
#19 = ORIENTED_EDGE ( 'NONE', *, *, #184, .T. ) ;
#20 = DIRECTION ( 'NONE',  ( 1.000000000000000000, 0.0000000000000000000, 0.0000000000000000000 ) ) ;
#21 = ORIENTED_EDGE ( 'NONE', *, *, #203, .T. ) ;
#22 = FACE_OUTER_BOUND ( 'NONE', #274, .T. ) ;
#23 = AXIS2_PLACEMENT_3D ( 'NONE', #164, #35, #317 ) ;
#24 = DIRECTION ( 'NONE',  ( 1.224646799147353454E-16, 0.0000000000000000000, 1.000000000000000000 ) ) ;
#25 = EDGE_CURVE ( 'NONE', #67, #236, #93, .T. ) ;
#26 = CARTESIAN_POINT ( 'NONE',  ( 0.2500000000000001110, 3.061616997868383634E-17, 1.001417820454904017 ) ) ;
#27 = VECTOR ( 'NONE', #308, 39.37007874015748143 ) ;
#28 = CARTESIAN_POINT ( 'NONE',  ( 1.224646799147353454E-16, 0.0000000000000000000, 1.000000000000000000 ) ) ;
#29 = CIRCLE ( 'NONE', #176, 0.2500000000000000000 ) ;
#30 = FILL_AREA_STYLE ('',( #134 ) ) ;
#31 = EDGE_CURVE ( 'NONE', #89, #166, #240, .T. ) ;
#32 = UNCERTAINTY_MEASURE_WITH_UNIT (LENGTH_MEASURE( 1.000000000000000082E-05 ), #314, 'distance_accuracy_value', 'NONE');
#33 = ADVANCED_FACE ( 'NONE', ( #243 ), #183, .T. ) ;
#34 = SURFACE_STYLE_USAGE ( .BOTH. , #316 ) ;
#35 = DIRECTION ( 'NONE',  ( -1.224646799147353454E-16, -0.0000000000000000000, -1.000000000000000000 ) ) ;
#36 = CIRCLE ( 'NONE', #221, 0.2500000000000000000 ) ;
#37 = COLOUR_RGB ( '',0.7921568627450980005, 0.8196078431372548767, 0.9333333333333333481 ) ;
#38 = ORIENTED_EDGE ( 'NONE', *, *, #81, .F. ) ;
#39 = ORIENTED_EDGE ( 'NONE', *, *, #251, .F. ) ;
#40 = ORIENTED_EDGE ( 'NONE', *, *, #251, .T. ) ;
#41 = AXIS2_PLACEMENT_3D ( 'NONE', #253, #180, #46 ) ;
#42 = ORIENTED_EDGE ( 'NONE', *, *, #309, .F. ) ;
#43 = EDGE_CURVE ( 'NONE', #66, #286, #216, .T. ) ;
#44 = ORIENTED_EDGE ( 'NONE', *, *, #295, .T. ) ;
#45 = APPLICATION_CONTEXT ( 'automotive_design' ) ;
#46 = DIRECTION ( 'NONE',  ( 1.000000000000000000, 0.0000000000000000000, 0.0000000000000000000 ) ) ;
#47 = CARTESIAN_POINT ( 'NONE',  ( 0.0000000000000000000, 0.0000000000000000000, 3.000000000000000444 ) ) ;
#48 = DIRECTION ( 'NONE',  ( -1.000000000000000000, 0.0000000000000000000, 1.367291288120251888E-16 ) ) ;
#49 = AXIS2_PLACEMENT_3D ( 'NONE', #47, #102, #154 ) ;
#50 = EDGE_CURVE ( 'NONE', #236, #143, #202, .T. ) ;
#51 = SURFACE_SIDE_STYLE ('',( #227 ) ) ;
#52 = DIMENSIONAL_EXPONENTS ( 1.000000000000000000, 0.0000000000000000000, 0.0000000000000000000, 0.0000000000000000000, 0.0000000000000000000, 0.0000000000000000000, 0.0000000000000000000 ) ;
#53 = CYLINDRICAL_SURFACE ( 'NONE', #281, 0.2500000000000000000 ) ;
#54 = LINE ( 'NONE', #157, #60 ) ;
#55 = DIRECTION ( 'NONE',  ( -1.000000000000000000, 0.0000000000000000000, 0.0000000000000000000 ) ) ;
#56 = FILL_AREA_STYLE_COLOUR ( '', #37 ) ;
#57 = ORIENTED_EDGE ( 'NONE', *, *, #95, .F. ) ;
#58 = AXIS2_PLACEMENT_3D ( 'NONE', #12, #264, #238 ) ;
#59 = CARTESIAN_POINT ( 'NONE',  ( -0.2497499999999999165, 3.060086189369449292E-17, 1.000000000000000000 ) ) ;
#60 = VECTOR ( 'NONE', #75, 39.37007874015748854 ) ;
#61 = CARTESIAN_POINT ( 'NONE',  ( 0.0000000000000000000, 0.0000000000000000000, 0.0000000000000000000 ) ) ;
#62 = CARTESIAN_POINT ( 'NONE',  ( 0.0000000000000000000, 0.0000000000000000000, 0.0000000000000000000 ) ) ;
#63 = ADVANCED_FACE ( 'NONE', ( #128 ), #323, .T. ) ;
#64 = CARTESIAN_POINT ( 'NONE',  ( 0.0000000000000000000, 0.0000000000000000000, 3.000000000000000444 ) ) ;
#65 = VECTOR ( 'NONE', #293, 39.37007874015747433 ) ;
#66 = VERTEX_POINT ( 'NONE', #206 ) ;
#67 = VERTEX_POINT ( 'NONE', #201 ) ;
#68 = CARTESIAN_POINT ( 'NONE',  ( 1.224646799147353454E-16, 0.0000000000000000000, 1.000000000000000000 ) ) ;
#69 = CIRCLE ( 'NONE', #233, 0.2497499999999999998 ) ;
#70 = DIRECTION ( 'NONE',  ( -1.224646799147353454E-16, -0.0000000000000000000, -1.000000000000000000 ) ) ;
#71 = DIRECTION ( 'NONE',  ( -0.0000000000000000000, -0.0000000000000000000, -1.000000000000000000 ) ) ;
#72 = ADVANCED_FACE ( 'NONE', ( #3 ), #146, .T. ) ;
#73 = CARTESIAN_POINT ( 'NONE',  ( 1.266895120025762727E-17, 0.0000000000000000000, 0.1034498372026795149 ) ) ;
#74 = VECTOR ( 'NONE', #220, 39.37007874015748143 ) ;
#75 = DIRECTION ( 'NONE',  ( 0.9238795325112879597, 0.0000000000000000000, 0.3826834323650865621 ) ) ;
#76 = CONICAL_SURFACE ( 'NONE', #230, 0.2350000000000011524, 0.7853981633974380649 ) ;
#77 = AXIS2_PLACEMENT_3D ( 'NONE', #118, #217, #122 ) ;
#78 = CARTESIAN_POINT ( 'NONE',  ( 0.0000000000000000000, 0.0000000000000000000, 3.000000000000000444 ) ) ;
#79 = PRESENTATION_STYLE_ASSIGNMENT (( #224 ) ) ;
#80 = PRESENTATION_LAYER_ASSIGNMENT (  '', '', ( #190 ) ) ;
#81 = EDGE_CURVE ( 'NONE', #244, #159, #106, .T. ) ;
#82 =( NAMED_UNIT ( * ) SI_UNIT ( $, .STERADIAN. ) SOLID_ANGLE_UNIT ( ) );
#83 = UNCERTAINTY_MEASURE_WITH_UNIT (LENGTH_MEASURE( 1.000000000000000082E-05 ), #109, 'distance_accuracy_value', 'NONE');
#84 = CIRCLE ( 'NONE', #23, 0.2497499999999999998 ) ;
#85 =( NAMED_UNIT ( * ) SI_UNIT ( $, .STERADIAN. ) SOLID_ANGLE_UNIT ( ) );
#86 = VECTOR ( 'NONE', #179, 39.37007874015748143 ) ;
#87 = VECTOR ( 'NONE', #92, 39.37007874015748854 ) ;
#88 = PRODUCT_CONTEXT ( 'NONE', #45, 'mechanical' ) ;
#89 = VERTEX_POINT ( 'NONE', #299 ) ;
#90 = EDGE_LOOP ( 'NONE', ( #260, #310, #140, #297 ) ) ;
#91 = ORIENTED_EDGE ( 'NONE', *, *, #17, .T. ) ;
#92 = DIRECTION ( 'NONE',  ( -0.7071067811865402453, 0.0000000000000000000, -0.7071067811865546782 ) ) ;
#93 = LINE ( 'NONE', #248, #74 ) ;
#94 = FACE_OUTER_BOUND ( 'NONE', #144, .T. ) ;
#95 = EDGE_CURVE ( 'NONE', #286, #143, #137, .T. ) ;
#96 = CARTESIAN_POINT ( 'NONE',  ( -0.2497499999999999165, 3.058555380870515566E-17, 1.000000000000000000 ) ) ;
#97 = ORIENTED_EDGE ( 'NONE', *, *, #31, .F. ) ;
#98 = PRODUCT ( 'Micro_RDD-110', 'Micro_RDD-110', '', ( #88 ) ) ;
#99 = EDGE_LOOP ( 'NONE', ( #196, #284, #210, #218 ) ) ;
#100 = CARTESIAN_POINT ( 'NONE',  ( 0.0000000000000000000, 0.0000000000000000000, 0.0000000000000000000 ) ) ;
#101 = LINE ( 'NONE', #275, #304 ) ;
#102 = DIRECTION ( 'NONE',  ( 0.0000000000000000000, 0.0000000000000000000, 1.000000000000000000 ) ) ;
#103 = DIRECTION ( 'NONE',  ( 1.000000000000000000, 0.0000000000000000000, 0.0000000000000000000 ) ) ;
#104 = AXIS2_PLACEMENT_3D ( 'NONE', #100, #155, #250 ) ;
#105 = DIRECTION ( 'NONE',  ( 0.0000000000000000000, 0.0000000000000000000, -1.000000000000000000 ) ) ;
#106 = LINE ( 'NONE', #151, #198 ) ;
#107 = LINE ( 'NONE', #207, #27 ) ;
#108 = ADVANCED_FACE ( 'NONE', ( #257 ), #272, .T. ) ;
#109 =( CONVERSION_BASED_UNIT ( 'INCH', #6 ) LENGTH_UNIT ( ) NAMED_UNIT ( #52 ) );
#110 = AXIS2_PLACEMENT_3D ( 'NONE', #5, #278, #103 ) ;
#111 = AXIS2_PLACEMENT_3D ( 'NONE', #62, #169, #197 ) ;
#112 = ORIENTED_EDGE ( 'NONE', *, *, #300, .T. ) ;
#113 = UNCERTAINTY_MEASURE_WITH_UNIT (LENGTH_MEASURE( 1.000000000000000082E-05 ), #211, 'distance_accuracy_value', 'NONE');
#114 =( GEOMETRIC_REPRESENTATION_CONTEXT ( 3 ) GLOBAL_UNCERTAINTY_ASSIGNED_CONTEXT ( ( #83 ) ) GLOBAL_UNIT_ASSIGNED_CONTEXT ( ( #109, #2, #82 ) ) REPRESENTATION_CONTEXT ( 'NONE', 'WORKASPACE' ) );
#115 = CONICAL_SURFACE ( 'NONE', #77, 95.04777804618574066, 1.178097245096175749 ) ;
#116 = APPLICATION_PROTOCOL_DEFINITION ( 'draft international standard', 'automotive_design', 1998, #45 ) ;
#117 =( NAMED_UNIT ( * ) PLANE_ANGLE_UNIT ( ) SI_UNIT ( $, .RADIAN. ) );
#118 = CARTESIAN_POINT ( 'NONE',  ( 4.821444091131313077E-15, 0.0000000000000000000, 39.37007874015748143 ) ) ;
#119 = CARTESIAN_POINT ( 'NONE',  ( 0.2350000000000011524, 2.877919977996294002E-17, 3.000000000000000444 ) ) ;
#120 = FILL_AREA_STYLE ('',( #56 ) ) ;
#121 = ORIENTED_EDGE ( 'NONE', *, *, #126, .T. ) ;
#122 = DIRECTION ( 'NONE',  ( 1.000000000000000000, 0.0000000000000000000, -1.379608302175842567E-16 ) ) ;
#123 = ORIENTED_EDGE ( 'NONE', *, *, #282, .F. ) ;
#124 = ORIENTED_EDGE ( 'NONE', *, *, #280, .F. ) ;
#125 = CARTESIAN_POINT ( 'NONE',  ( 0.2497500000000001941, 0.0000000000000000000, 1.000000000000000000 ) ) ;
#126 = EDGE_CURVE ( 'NONE', #66, #268, #135, .T. ) ;
#127 = ORIENTED_EDGE ( 'NONE', *, *, #295, .F. ) ;
#128 = FACE_OUTER_BOUND ( 'NONE', #99, .T. ) ;
#129 = AXIS2_PLACEMENT_3D ( 'NONE', #28, #252, #205 ) ;
#130 = ORIENTED_EDGE ( 'NONE', *, *, #25, .T. ) ;
#131 = AXIS2_PLACEMENT_3D ( 'NONE', #215, #318, #18 ) ;
#132 = EDGE_CURVE ( 'NONE', #166, #159, #69, .T. ) ;
#133 = DIRECTION ( 'NONE',  ( 1.000000000000000000, 0.0000000000000000000, 0.0000000000000000000 ) ) ;
#134 = FILL_AREA_STYLE_COLOUR ( '', #185 ) ;
#135 = CIRCLE ( 'NONE', #110, 0.2350000000000011524 ) ;
#136 = VECTOR ( 'NONE', #148, 39.37007874015748854 ) ;
#137 = LINE ( 'NONE', #178, #86 ) ;
#138 = PRODUCT_DEFINITION_FORMATION_WITH_SPECIFIED_SOURCE ( 'ANY', '', #98, .NOT_KNOWN. ) ;
#139 = APPLICATION_PROTOCOL_DEFINITION ( 'draft international standard', 'automotive_design', 1998, #141 ) ;
#140 = ORIENTED_EDGE ( 'NONE', *, *, #95, .T. ) ;
#141 = APPLICATION_CONTEXT ( 'automotive_design' ) ;
#142 = CARTESIAN_POINT ( 'NONE',  ( 0.0000000000000000000, 0.0000000000000000000, 2.985000000000001208 ) ) ;
#143 = VERTEX_POINT ( 'NONE', #153 ) ;
#144 = EDGE_LOOP ( 'NONE', ( #38, #91, #19, #320 ) ) ;
#145 = ADVANCED_FACE ( 'NONE', ( #223 ), #53, .T. ) ;
#146 = CONICAL_SURFACE ( 'NONE', #41, 0.2497500000000000553, 0.1745329251994338637 ) ;
#147 = PRODUCT_DEFINITION_SHAPE ( 'NONE', 'NONE',  #256 ) ;
#148 = DIRECTION ( 'NONE',  ( -0.9238795325112879597, 1.131426112287701740E-16, 0.3826834323650867842 ) ) ;
#149 = DIRECTION ( 'NONE',  ( -1.224646799147353454E-16, -0.0000000000000000000, -1.000000000000000000 ) ) ;
#150 = ORIENTED_EDGE ( 'NONE', *, *, #132, .T. ) ;
#151 = CARTESIAN_POINT ( 'NONE',  ( 0.2497500000000000553, 3.058555380870515566E-17, -3.058555380870515566E-17 ) ) ;
#152 = EDGE_CURVE ( 'NONE', #298, #244, #311, .T. ) ;
#153 = CARTESIAN_POINT ( 'NONE',  ( -0.2499999999999998612, 0.0000000000000000000, 1.001417820454904017 ) ) ;
#154 = DIRECTION ( 'NONE',  ( 1.000000000000000000, 0.0000000000000000000, 0.0000000000000000000 ) ) ;
#155 = DIRECTION ( 'NONE',  ( -1.224646799147353454E-16, -0.0000000000000000000, -1.000000000000000000 ) ) ;
#156 = CARTESIAN_POINT ( 'NONE',  ( 0.0000000000000000000, 0.0000000000000000000, 3.000000000000000444 ) ) ;
#157 = CARTESIAN_POINT ( 'NONE',  ( 0.0000000000000000000, 0.0000000000000000000, 0.0000000000000000000 ) ) ;
#158 = SURFACE_STYLE_FILL_AREA ( #120 ) ;
#159 = VERTEX_POINT ( 'NONE', #303 ) ;
#160 = AXIS2_PLACEMENT_3D ( 'NONE', #61, #239, #263 ) ;
#161 = PLANE ( 'NONE',  #187 ) ;
#162 = PRESENTATION_STYLE_ASSIGNMENT (( #34 ) ) ;
#163 = ORIENTED_EDGE ( 'NONE', *, *, #306, .T. ) ;
#164 = CARTESIAN_POINT ( 'NONE',  ( 1.266895120025762727E-17, 0.0000000000000000000, 0.1034498372026795149 ) ) ;
#165 = LENGTH_MEASURE_WITH_UNIT ( LENGTH_MEASURE( 0.02539999999999999897 ), #11 );
#166 = VERTEX_POINT ( 'NONE', #225 ) ;
#167 = AXIS2_PLACEMENT_3D ( 'NONE', #156, #279, #305 ) ;
#168 =( NAMED_UNIT ( * ) SI_UNIT ( $, .STERADIAN. ) SOLID_ANGLE_UNIT ( ) );
#169 = DIRECTION ( 'NONE',  ( -1.224646799147353454E-16, -0.0000000000000000000, -1.000000000000000000 ) ) ;
#170 = ORIENTED_EDGE ( 'NONE', *, *, #300, .F. ) ;
#171 =( LENGTH_UNIT ( ) NAMED_UNIT ( * ) SI_UNIT ( $, .METRE. ) );
#172 = FACE_OUTER_BOUND ( 'NONE', #14, .T. ) ;
#173 = ORIENTED_EDGE ( 'NONE', *, *, #50, .T. ) ;
#174 = CARTESIAN_POINT ( 'NONE',  ( -0.2350000000000011524, 0.0000000000000000000, 3.000000000000000444 ) ) ;
#175 = EDGE_LOOP ( 'NONE', ( #127, #231, #271, #173 ) ) ;
#176 = AXIS2_PLACEMENT_3D ( 'NONE', #296, #15, #266 ) ;
#177 = CARTESIAN_POINT ( 'NONE',  ( 1.224646799147353454E-16, 0.0000000000000000000, 1.000000000000000000 ) ) ;
#178 = CARTESIAN_POINT ( 'NONE',  ( -0.2500000000000000000, 0.0000000000000000000, 3.000000000000000444 ) ) ;
#179 = DIRECTION ( 'NONE',  ( -0.0000000000000000000, -0.0000000000000000000, -1.000000000000000000 ) ) ;
#180 = DIRECTION ( 'NONE',  ( 1.224646799147353454E-16, 0.0000000000000000000, 1.000000000000000000 ) ) ;
#181 =( LENGTH_UNIT ( ) NAMED_UNIT ( * ) SI_UNIT ( $, .METRE. ) );
#182 = CLOSED_SHELL ( 'NONE', ( #63, #265, #193, #319, #145, #241, #287, #108, #72, #33, #9 ) ) ;
#183 = CONICAL_SURFACE ( 'NONE', #131, 95.04777804618574066, 1.178097245096175749 ) ;
#184 = EDGE_CURVE ( 'NONE', #298, #166, #107, .T. ) ;
#185 = COLOUR_RGB ( '',0.7921568627450980005, 0.8196078431372548767, 0.9333333333333333481 ) ;
#186 = SHAPE_DEFINITION_REPRESENTATION ( #147, #232 ) ;
#187 = AXIS2_PLACEMENT_3D ( 'NONE', #64, #242, #246 ) ;
#188 = DIRECTION ( 'NONE',  ( 0.0000000000000000000, 0.0000000000000000000, -1.000000000000000000 ) ) ;
#189 = EDGE_LOOP ( 'NONE', ( #8, #130, #170, #57 ) ) ;
#190 = STYLED_ITEM ( 'NONE', ( #79 ), #226 ) ;
#191 = AXIS2_PLACEMENT_3D ( 'NONE', #273, #149, #20 ) ;
#192 = AXIS2_PLACEMENT_3D ( 'NONE', #68, #70, #269 ) ;
#193 = ADVANCED_FACE ( 'NONE', ( #22 ), #249, .T. ) ;
#194 = EDGE_LOOP ( 'NONE', ( #42, #40, #123, #247 ) ) ;
#195 =( GEOMETRIC_REPRESENTATION_CONTEXT ( 3 ) GLOBAL_UNCERTAINTY_ASSIGNED_CONTEXT ( ( #32 ) ) GLOBAL_UNIT_ASSIGNED_CONTEXT ( ( #314, #117, #168 ) ) REPRESENTATION_CONTEXT ( 'NONE', 'WORKASPACE' ) );
#196 = ORIENTED_EDGE ( 'NONE', *, *, #152, .T. ) ;
#197 = DIRECTION ( 'NONE',  ( -1.000000000000000000, 0.0000000000000000000, 1.224646799147353207E-16 ) ) ;
#198 = VECTOR ( 'NONE', #301, 39.37007874015748143 ) ;
#199 = CYLINDRICAL_SURFACE ( 'NONE', #111, 0.2497500000000000553 ) ;
#200 = ORIENTED_EDGE ( 'NONE', *, *, #43, .T. ) ;
#201 = CARTESIAN_POINT ( 'NONE',  ( 0.2500000000000000000, 3.061616997868382402E-17, 2.985000000000001208 ) ) ;
#202 = CIRCLE ( 'NONE', #191, 0.2500000000000000000 ) ;
#203 = EDGE_CURVE ( 'NONE', #89, #159, #54, .T. ) ;
#204 = FACE_OUTER_BOUND ( 'NONE', #194, .T. ) ;
#205 = DIRECTION ( 'NONE',  ( -1.000000000000000000, 0.0000000000000000000, 0.0000000000000000000 ) ) ;
#206 = CARTESIAN_POINT ( 'NONE',  ( -0.2350000000000011524, 0.0000000000000000000, 3.000000000000000444 ) ) ;
#207 = CARTESIAN_POINT ( 'NONE',  ( -0.2497500000000000553, 0.0000000000000000000, 3.058555380870515566E-17 ) ) ;
#208 = PRODUCT_RELATED_PRODUCT_CATEGORY ( 'part', '', ( #98 ) ) ;
#209 = MECHANICAL_DESIGN_GEOMETRIC_PRESENTATION_REPRESENTATION (  '', ( #237 ), #222 ) ;
#210 = ORIENTED_EDGE ( 'NONE', *, *, #132, .F. ) ;
#211 =( CONVERSION_BASED_UNIT ( 'INCH', #165 ) LENGTH_UNIT ( ) NAMED_UNIT ( #277 ) );
#212 = LINE ( 'NONE', #119, #213 ) ;
#213 = VECTOR ( 'NONE', #292, 39.37007874015748854 ) ;
#214 = FACE_OUTER_BOUND ( 'NONE', #312, .T. ) ;
#215 = CARTESIAN_POINT ( 'NONE',  ( 4.821444091131313077E-15, 0.0000000000000000000, 39.37007874015748143 ) ) ;
#216 = LINE ( 'NONE', #174, #87 ) ;
#217 = DIRECTION ( 'NONE',  ( 1.224646799147353454E-16, 0.0000000000000000000, 1.000000000000000000 ) ) ;
#218 = ORIENTED_EDGE ( 'NONE', *, *, #184, .F. ) ;
#219 = ORIENTED_EDGE ( 'NONE', *, *, #203, .F. ) ;
#220 = DIRECTION ( 'NONE',  ( -0.0000000000000000000, -0.0000000000000000000, -1.000000000000000000 ) ) ;
#221 = AXIS2_PLACEMENT_3D ( 'NONE', #142, #235, #283 ) ;
#222 =( GEOMETRIC_REPRESENTATION_CONTEXT ( 3 ) GLOBAL_UNCERTAINTY_ASSIGNED_CONTEXT ( ( #113 ) ) GLOBAL_UNIT_ASSIGNED_CONTEXT ( ( #211, #10, #85 ) ) REPRESENTATION_CONTEXT ( 'NONE', 'WORKASPACE' ) );
#223 = FACE_OUTER_BOUND ( 'NONE', #189, .T. ) ;
#224 = SURFACE_STYLE_USAGE ( .BOTH. , #51 ) ;
#225 = CARTESIAN_POINT ( 'NONE',  ( -0.2497499999999999998, 3.058555380870514334E-17, 0.1034498372026795426 ) ) ;
#226 = MANIFOLD_SOLID_BREP ( 'Cut-Revolve1', #182 ) ;
#227 = SURFACE_STYLE_FILL_AREA ( #30 ) ;
#228 = EDGE_CURVE ( 'NONE', #244, #236, #101, .T. ) ;
#229 = PRODUCT_DEFINITION_CONTEXT ( 'detailed design', #141, 'design' ) ;
#230 = AXIS2_PLACEMENT_3D ( 'NONE', #302, #105, #55 ) ;
#231 = ORIENTED_EDGE ( 'NONE', *, *, #17, .F. ) ;
#232 = ADVANCED_BREP_SHAPE_REPRESENTATION ( 'Micro_RDD-110', ( #226, #160 ), #195 ) ;
#233 = AXIS2_PLACEMENT_3D ( 'NONE', #73, #276, #48 ) ;
#234 = CIRCLE ( 'NONE', #49, 0.2350000000000011524 ) ;
#235 = DIRECTION ( 'NONE',  ( 0.0000000000000000000, 0.0000000000000000000, -1.000000000000000000 ) ) ;
#236 = VERTEX_POINT ( 'NONE', #26 ) ;
#237 = STYLED_ITEM ( 'NONE', ( #162 ), #232 ) ;
#238 = DIRECTION ( 'NONE',  ( -1.000000000000000000, 0.0000000000000000000, 0.0000000000000000000 ) ) ;
#239 = DIRECTION ( 'NONE',  ( 0.0000000000000000000, 0.0000000000000000000, 1.000000000000000000 ) ) ;
#240 = LINE ( 'NONE', #16, #136 ) ;
#241 = ADVANCED_FACE ( 'NONE', ( #307 ), #261, .T. ) ;
#242 = DIRECTION ( 'NONE',  ( 0.0000000000000000000, 0.0000000000000000000, 1.000000000000000000 ) ) ;
#243 = FACE_OUTER_BOUND ( 'NONE', #294, .T. ) ;
#244 = VERTEX_POINT ( 'NONE', #125 ) ;
#245 = PRESENTATION_LAYER_ASSIGNMENT (  '', '', ( #237 ) ) ;
#246 = DIRECTION ( 'NONE',  ( 1.000000000000000000, 0.0000000000000000000, -0.0000000000000000000 ) ) ;
#247 = ORIENTED_EDGE ( 'NONE', *, *, #43, .F. ) ;
#248 = CARTESIAN_POINT ( 'NONE',  ( 0.2500000000000000000, 3.061616997868382402E-17, 3.000000000000000444 ) ) ;
#249 = CONICAL_SURFACE ( 'NONE', #290, 0.2497500000000000553, 0.1745329251994338637 ) ;
#250 = DIRECTION ( 'NONE',  ( -1.000000000000000000, 0.0000000000000000000, 1.224646799147353207E-16 ) ) ;
#251 = EDGE_CURVE ( 'NONE', #268, #67, #212, .T. ) ;
#252 = DIRECTION ( 'NONE',  ( -1.224646799147353454E-16, -0.0000000000000000000, -1.000000000000000000 ) ) ;
#253 = CARTESIAN_POINT ( 'NONE',  ( 1.224646799147353454E-16, 0.0000000000000000000, 1.000000000000000000 ) ) ;
#254 = DIRECTION ( 'NONE',  ( 0.1736481776669313581, 0.0000000000000000000, 0.9848077530122077983 ) ) ;
#255 = DIRECTION ( 'NONE',  ( -1.000000000000000000, 0.0000000000000000000, 0.0000000000000000000 ) ) ;
#256 = PRODUCT_DEFINITION ( 'UNKNOWN', '', #138, #229 ) ;
#257 = FACE_OUTER_BOUND ( 'NONE', #289, .T. ) ;
#258 = CIRCLE ( 'NONE', #13, 0.2500000000000000000 ) ;
#259 = ORIENTED_EDGE ( 'NONE', *, *, #228, .F. ) ;
#260 = ORIENTED_EDGE ( 'NONE', *, *, #25, .F. ) ;
#261 = CYLINDRICAL_SURFACE ( 'NONE', #58, 0.2500000000000000000 ) ;
#262 = MECHANICAL_DESIGN_GEOMETRIC_PRESENTATION_REPRESENTATION (  '', ( #190 ), #114 ) ;
#263 = DIRECTION ( 'NONE',  ( 1.000000000000000000, 0.0000000000000000000, 0.0000000000000000000 ) ) ;
#264 = DIRECTION ( 'NONE',  ( -0.0000000000000000000, -0.0000000000000000000, -1.000000000000000000 ) ) ;
#265 = ADVANCED_FACE ( 'NONE', ( #172 ), #115, .T. ) ;
#266 = DIRECTION ( 'NONE',  ( 1.000000000000000000, 0.0000000000000000000, 0.0000000000000000000 ) ) ;
#267 = LENGTH_MEASURE_WITH_UNIT ( LENGTH_MEASURE( 0.02539999999999999897 ), #171 );
#268 = VERTEX_POINT ( 'NONE', #313 ) ;
#269 = DIRECTION ( 'NONE',  ( -1.000000000000000000, 0.0000000000000000000, 0.0000000000000000000 ) ) ;
#270 = CARTESIAN_POINT ( 'NONE',  ( 0.0000000000000000000, 0.0000000000000000000, 2.985000000000001208 ) ) ;
#271 = ORIENTED_EDGE ( 'NONE', *, *, #228, .T. ) ;
#272 = CONICAL_SURFACE ( 'NONE', #167, 0.2350000000000011524, 0.7853981633974380649 ) ;
#273 = CARTESIAN_POINT ( 'NONE',  ( 1.226383128429217454E-16, 0.0000000000000000000, 1.001417820454904017 ) ) ;
#274 = EDGE_LOOP ( 'NONE', ( #1, #44, #112, #259 ) ) ;
#275 = CARTESIAN_POINT ( 'NONE',  ( 0.2497500000000001941, 0.0000000000000000000, 1.000000000000000000 ) ) ;
#276 = DIRECTION ( 'NONE',  ( -1.224646799147353454E-16, -0.0000000000000000000, -1.000000000000000000 ) ) ;
#277 = DIMENSIONAL_EXPONENTS ( 1.000000000000000000, 0.0000000000000000000, 0.0000000000000000000, 0.0000000000000000000, 0.0000000000000000000, 0.0000000000000000000, 0.0000000000000000000 ) ;
#278 = DIRECTION ( 'NONE',  ( 0.0000000000000000000, 0.0000000000000000000, 1.000000000000000000 ) ) ;
#279 = DIRECTION ( 'NONE',  ( 0.0000000000000000000, 0.0000000000000000000, -1.000000000000000000 ) ) ;
#280 = EDGE_CURVE ( 'NONE', #67, #286, #258, .T. ) ;
#281 = AXIS2_PLACEMENT_3D ( 'NONE', #78, #71, #255 ) ;
#282 = EDGE_CURVE ( 'NONE', #286, #67, #36, .T. ) ;
#283 = DIRECTION ( 'NONE',  ( 1.000000000000000000, 0.0000000000000000000, 0.0000000000000000000 ) ) ;
#284 = ORIENTED_EDGE ( 'NONE', *, *, #81, .T. ) ;
#285 = DIRECTION ( 'NONE',  ( 1.000000000000000000, 0.0000000000000000000, 0.0000000000000000000 ) ) ;
#286 = VERTEX_POINT ( 'NONE', #321 ) ;
#287 = ADVANCED_FACE ( 'NONE', ( #214 ), #161, .T. ) ;
#288 = LINE ( 'NONE', #96, #65 ) ;
#289 = EDGE_LOOP ( 'NONE', ( #39, #291, #200, #124 ) ) ;
#290 = AXIS2_PLACEMENT_3D ( 'NONE', #177, #24, #133 ) ;
#291 = ORIENTED_EDGE ( 'NONE', *, *, #126, .F. ) ;
#292 = DIRECTION ( 'NONE',  ( 0.7071067811865402453, 8.659560562354845344E-17, -0.7071067811865546782 ) ) ;
#293 = DIRECTION ( 'NONE',  ( -0.1736481776669311639, 2.126576849575783008E-17, 0.9848077530122080203 ) ) ;
#294 = EDGE_LOOP ( 'NONE', ( #97, #21, #163 ) ) ;
#295 = EDGE_CURVE ( 'NONE', #298, #143, #288, .T. ) ;
#296 = CARTESIAN_POINT ( 'NONE',  ( 1.226383128429217454E-16, 0.0000000000000000000, 1.001417820454904017 ) ) ;
#297 = ORIENTED_EDGE ( 'NONE', *, *, #50, .F. ) ;
#298 = VERTEX_POINT ( 'NONE', #59 ) ;
#299 = CARTESIAN_POINT ( 'NONE',  ( 0.0000000000000000000, 0.0000000000000000000, 0.0000000000000000000 ) ) ;
#300 = EDGE_CURVE ( 'NONE', #143, #236, #29, .T. ) ;
#301 = DIRECTION ( 'NONE',  ( -1.224646799147353454E-16, -0.0000000000000000000, -1.000000000000000000 ) ) ;
#302 = CARTESIAN_POINT ( 'NONE',  ( 0.0000000000000000000, 0.0000000000000000000, 3.000000000000000444 ) ) ;
#303 = CARTESIAN_POINT ( 'NONE',  ( 0.2497499999999999998, 0.0000000000000000000, 0.1034498372026795010 ) ) ;
#304 = VECTOR ( 'NONE', #254, 39.37007874015748143 ) ;
#305 = DIRECTION ( 'NONE',  ( -1.000000000000000000, 0.0000000000000000000, 0.0000000000000000000 ) ) ;
#306 = EDGE_CURVE ( 'NONE', #159, #166, #84, .T. ) ;
#307 = FACE_OUTER_BOUND ( 'NONE', #90, .T. ) ;
#308 = DIRECTION ( 'NONE',  ( -1.224646799147353454E-16, -0.0000000000000000000, -1.000000000000000000 ) ) ;
#309 = EDGE_CURVE ( 'NONE', #268, #66, #234, .T. ) ;
#310 = ORIENTED_EDGE ( 'NONE', *, *, #280, .T. ) ;
#311 = CIRCLE ( 'NONE', #129, 0.2497500000000000553 ) ;
#312 = EDGE_LOOP ( 'NONE', ( #121, #322 ) ) ;
#313 = CARTESIAN_POINT ( 'NONE',  ( 0.2350000000000011524, 2.969768487932338510E-17, 3.000000000000000444 ) ) ;
#314 =( CONVERSION_BASED_UNIT ( 'INCH', #267 ) LENGTH_UNIT ( ) NAMED_UNIT ( #4 ) );
#315 = ORIENTED_EDGE ( 'NONE', *, *, #31, .T. ) ;
#316 = SURFACE_SIDE_STYLE ('',( #158 ) ) ;
#317 = DIRECTION ( 'NONE',  ( -1.000000000000000000, 0.0000000000000000000, 1.367291288120251888E-16 ) ) ;
#318 = DIRECTION ( 'NONE',  ( 1.224646799147353454E-16, 0.0000000000000000000, 1.000000000000000000 ) ) ;
#319 = ADVANCED_FACE ( 'NONE', ( #204 ), #76, .T. ) ;
#320 = ORIENTED_EDGE ( 'NONE', *, *, #306, .F. ) ;
#321 = CARTESIAN_POINT ( 'NONE',  ( -0.2500000000000000000, 0.0000000000000000000, 2.985000000000001208 ) ) ;
#322 = ORIENTED_EDGE ( 'NONE', *, *, #309, .T. ) ;
#323 = CYLINDRICAL_SURFACE ( 'NONE', #104, 0.2497500000000000553 ) ;
ENDSEC;
END-ISO-10303-21;
