ISO-10303-21;
HEADER;
FILE_DESCRIPTION (( 'STEP AP214' ),
    '1' );
FILE_NAME ('Micro_SEM-031-04X.STEP',
    '2021-09-02T00:34:55',
    ( '' ),
    ( '' ),
    'SwSTEP 2.0',
    'SolidWorks 2020',
    '' );
FILE_SCHEMA (( 'AUTOMOTIVE_DESIGN' ));
ENDSEC;

DATA;
#1 = APPLICATION_PROTOCOL_DEFINITION ( 'draft international standard', 'automotive_design', 1998, #185 ) ;
#2 = DIRECTION ( 'NONE',  ( 0.0000000000000000000, 0.0000000000000000000, -1.000000000000000000 ) ) ;
#3 = ORIENTED_EDGE ( 'NONE', *, *, #102, .T. ) ;
#4 = AXIS2_PLACEMENT_3D ( 'NONE', #159, #163, #61 ) ;
#5 = VERTEX_POINT ( 'NONE', #97 ) ;
#6 = ADVANCED_FACE ( 'NONE', ( #117 ), #37, .T. ) ;
#7 = ORIENTED_EDGE ( 'NONE', *, *, #23, .T. ) ;
#8 = ORIENTED_EDGE ( 'NONE', *, *, #30, .F. ) ;
#9 = DIRECTION ( 'NONE',  ( 1.000000000000000000, 0.0000000000000000000, -0.0000000000000000000 ) ) ;
#10 = FACE_OUTER_BOUND ( 'NONE', #82, .T. ) ;
#11 = CARTESIAN_POINT ( 'NONE',  ( -0.06250000000000000000, 0.0000000000000000000, 1.500000000000000222 ) ) ;
#12 = SURFACE_SIDE_STYLE ('',( #110 ) ) ;
#13 = PRODUCT ( 'Micro_SEM-031-04X', 'Micro_SEM-031-04X', '', ( #96 ) ) ;
#14 = ORIENTED_EDGE ( 'NONE', *, *, #27, .T. ) ;
#15 = FILL_AREA_STYLE ('',( #158 ) ) ;
#16 = ADVANCED_FACE ( 'NONE', ( #20 ), #169, .T. ) ;
#17 = AXIS2_PLACEMENT_3D ( 'NONE', #192, #182, #194 ) ;
#18 = ORIENTED_EDGE ( 'NONE', *, *, #27, .F. ) ;
#19 = MANIFOLD_SOLID_BREP ( 'Chamfer', #115 ) ;
#20 = FACE_OUTER_BOUND ( 'NONE', #34, .T. ) ;
#21 = VERTEX_POINT ( 'NONE', #129 ) ;
#22 = DIRECTION ( 'NONE',  ( -0.0000000000000000000, -0.0000000000000000000, -1.000000000000000000 ) ) ;
#23 = EDGE_CURVE ( 'NONE', #131, #21, #191, .T. ) ;
#24 = FACE_OUTER_BOUND ( 'NONE', #56, .T. ) ;
#25 = VECTOR ( 'NONE', #177, 39.37007874015748143 ) ;
#26 = VECTOR ( 'NONE', #108, 39.37007874015748143 ) ;
#27 = EDGE_CURVE ( 'NONE', #5, #131, #28, .T. ) ;
#28 = LINE ( 'NONE', #11, #26 ) ;
#29 = DIRECTION ( 'NONE',  ( -1.000000000000000000, 0.0000000000000000000, 0.0000000000000000000 ) ) ;
#30 = EDGE_CURVE ( 'NONE', #99, #161, #187, .T. ) ;
#31 =( LENGTH_UNIT ( ) NAMED_UNIT ( * ) SI_UNIT ( $, .METRE. ) );
#32 = CIRCLE ( 'NONE', #17, 0.04750000000000064587 ) ;
#33 = AXIS2_PLACEMENT_3D ( 'NONE', #138, #197, #107 ) ;
#34 = EDGE_LOOP ( 'NONE', ( #52, #8, #35, #160 ) ) ;
#35 = ORIENTED_EDGE ( 'NONE', *, *, #50, .T. ) ;
#36 = EDGE_LOOP ( 'NONE', ( #172, #113, #14, #7 ) ) ;
#37 = CYLINDRICAL_SURFACE ( 'NONE', #47, 0.06250000000000000000 ) ;
#38 = CARTESIAN_POINT ( 'NONE',  ( 0.0000000000000000000, 0.0000000000000000000, 1.500000000000000222 ) ) ;
#39 = DIRECTION ( 'NONE',  ( -0.7071067811865456854, 0.0000000000000000000, -0.7071067811865493491 ) ) ;
#40 = CARTESIAN_POINT ( 'NONE',  ( 0.0000000000000000000, 0.0000000000000000000, 1.500000000000000222 ) ) ;
#41 = CARTESIAN_POINT ( 'NONE',  ( -0.04750000000000064587, 0.0000000000000000000, 1.500000000000000222 ) ) ;
#42 = AXIS2_PLACEMENT_3D ( 'NONE', #62, #165, #122 ) ;
#43 = ADVANCED_FACE ( 'NONE', ( #24 ), #155, .T. ) ;
#44 = LINE ( 'NONE', #101, #25 ) ;
#45 = PRODUCT_DEFINITION_CONTEXT ( 'detailed design', #193, 'design' ) ;
#46 =( NAMED_UNIT ( * ) PLANE_ANGLE_UNIT ( ) SI_UNIT ( $, .RADIAN. ) );
#47 = AXIS2_PLACEMENT_3D ( 'NONE', #127, #22, #144 ) ;
#48 =( GEOMETRIC_REPRESENTATION_CONTEXT ( 3 ) GLOBAL_UNCERTAINTY_ASSIGNED_CONTEXT ( ( #60 ) ) GLOBAL_UNIT_ASSIGNED_CONTEXT ( ( #180, #179, #111 ) ) REPRESENTATION_CONTEXT ( 'NONE', 'WORKASPACE' ) );
#49 = PRESENTATION_STYLE_ASSIGNMENT (( #183 ) ) ;
#50 = EDGE_CURVE ( 'NONE', #99, #5, #71, .T. ) ;
#51 = ORIENTED_EDGE ( 'NONE', *, *, #126, .F. ) ;
#52 = ORIENTED_EDGE ( 'NONE', *, *, #173, .F. ) ;
#53 = CIRCLE ( 'NONE', #104, 0.06250000000000000000 ) ;
#54 = COLOUR_RGB ( '',0.7921568627450980005, 0.8196078431372548767, 0.9333333333333333481 ) ;
#55 = SURFACE_SIDE_STYLE ('',( #67 ) ) ;
#56 = EDGE_LOOP ( 'NONE', ( #98, #148 ) ) ;
#57 = ORIENTED_EDGE ( 'NONE', *, *, #50, .F. ) ;
#58 = DIMENSIONAL_EXPONENTS ( 1.000000000000000000, 0.0000000000000000000, 0.0000000000000000000, 0.0000000000000000000, 0.0000000000000000000, 0.0000000000000000000, 0.0000000000000000000 ) ;
#59 =( LENGTH_UNIT ( ) NAMED_UNIT ( * ) SI_UNIT ( $, .METRE. ) );
#60 = UNCERTAINTY_MEASURE_WITH_UNIT (LENGTH_MEASURE( 1.000000000000000082E-05 ), #180, 'distance_accuracy_value', 'NONE');
#61 = DIRECTION ( 'NONE',  ( 1.000000000000000000, 0.0000000000000000000, 0.0000000000000000000 ) ) ;
#62 = CARTESIAN_POINT ( 'NONE',  ( 0.0000000000000000000, 0.0000000000000000000, 1.485000000000000764 ) ) ;
#63 = AXIS2_PLACEMENT_3D ( 'NONE', #154, #190, #124 ) ;
#64 = DIRECTION ( 'NONE',  ( -0.0000000000000000000, -0.0000000000000000000, -1.000000000000000000 ) ) ;
#65 = EDGE_CURVE ( 'NONE', #70, #21, #84, .T. ) ;
#66 = DIRECTION ( 'NONE',  ( 0.0000000000000000000, 0.0000000000000000000, 1.000000000000000000 ) ) ;
#67 = SURFACE_STYLE_FILL_AREA ( #100 ) ;
#68 = ORIENTED_EDGE ( 'NONE', *, *, #65, .T. ) ;
#69 = ORIENTED_EDGE ( 'NONE', *, *, #126, .T. ) ;
#70 = VERTEX_POINT ( 'NONE', #73 ) ;
#71 = LINE ( 'NONE', #178, #164 ) ;
#72 = AXIS2_PLACEMENT_3D ( 'NONE', #40, #76, #29 ) ;
#73 = CARTESIAN_POINT ( 'NONE',  ( 0.06250000000000000000, 7.654042494670956004E-18, 1.485000000000000764 ) ) ;
#74 = ADVANCED_BREP_SHAPE_REPRESENTATION ( 'Micro_SEM-031-04X', ( #19, #128 ), #48 ) ;
#75 = FACE_OUTER_BOUND ( 'NONE', #36, .T. ) ;
#76 = DIRECTION ( 'NONE',  ( 0.0000000000000000000, 0.0000000000000000000, -1.000000000000000000 ) ) ;
#77 = CARTESIAN_POINT ( 'NONE',  ( 0.0000000000000000000, 0.0000000000000000000, 1.500000000000000222 ) ) ;
#78 = DIMENSIONAL_EXPONENTS ( 1.000000000000000000, 0.0000000000000000000, 0.0000000000000000000, 0.0000000000000000000, 0.0000000000000000000, 0.0000000000000000000, 0.0000000000000000000 ) ;
#79 = VECTOR ( 'NONE', #64, 39.37007874015748143 ) ;
#80 = STYLED_ITEM ( 'NONE', ( #186 ), #19 ) ;
#81 = ORIENTED_EDGE ( 'NONE', *, *, #102, .F. ) ;
#82 = EDGE_LOOP ( 'NONE', ( #112, #51 ) ) ;
#83 = EDGE_LOOP ( 'NONE', ( #3, #68, #69, #18 ) ) ;
#84 = LINE ( 'NONE', #168, #79 ) ;
#85 = CIRCLE ( 'NONE', #199, 0.06250000000000000000 ) ;
#86 = DIRECTION ( 'NONE',  ( 0.0000000000000000000, 0.0000000000000000000, 1.000000000000000000 ) ) ;
#87 = DIRECTION ( 'NONE',  ( 0.0000000000000000000, 0.0000000000000000000, 1.000000000000000000 ) ) ;
#88 = CARTESIAN_POINT ( 'NONE',  ( 0.0000000000000000000, 0.0000000000000000000, 1.485000000000000764 ) ) ;
#89 = ADVANCED_FACE ( 'NONE', ( #167 ), #174, .T. ) ;
#90 = DIMENSIONAL_EXPONENTS ( 1.000000000000000000, 0.0000000000000000000, 0.0000000000000000000, 0.0000000000000000000, 0.0000000000000000000, 0.0000000000000000000, 0.0000000000000000000 ) ;
#91 = SHAPE_DEFINITION_REPRESENTATION ( #130, #74 ) ;
#92 = CARTESIAN_POINT ( 'NONE',  ( 0.0000000000000000000, 0.0000000000000000000, 0.0000000000000000000 ) ) ;
#93 = AXIS2_PLACEMENT_3D ( 'NONE', #38, #2, #116 ) ;
#94 = DIRECTION ( 'NONE',  ( 1.000000000000000000, 0.0000000000000000000, 0.0000000000000000000 ) ) ;
#95 = PRESENTATION_LAYER_ASSIGNMENT (  '', '', ( #80 ) ) ;
#96 = PRODUCT_CONTEXT ( 'NONE', #185, 'mechanical' ) ;
#97 = CARTESIAN_POINT ( 'NONE',  ( -0.06250000000000000000, 0.0000000000000000000, 1.485000000000000764 ) ) ;
#98 = ORIENTED_EDGE ( 'NONE', *, *, #30, .T. ) ;
#99 = VERTEX_POINT ( 'NONE', #41 ) ;
#100 = FILL_AREA_STYLE ('',( #175 ) ) ;
#101 = CARTESIAN_POINT ( 'NONE',  ( 0.04750000000000064587, 5.817072295950006528E-18, 1.500000000000000222 ) ) ;
#102 = EDGE_CURVE ( 'NONE', #5, #70, #53, .T. ) ;
#103 = DIRECTION ( 'NONE',  ( 1.000000000000000000, 0.0000000000000000000, -0.0000000000000000000 ) ) ;
#104 = AXIS2_PLACEMENT_3D ( 'NONE', #88, #119, #133 ) ;
#105 =( GEOMETRIC_REPRESENTATION_CONTEXT ( 3 ) GLOBAL_UNCERTAINTY_ASSIGNED_CONTEXT ( ( #136 ) ) GLOBAL_UNIT_ASSIGNED_CONTEXT ( ( #118, #162, #150 ) ) REPRESENTATION_CONTEXT ( 'NONE', 'WORKASPACE' ) );
#106 = DIRECTION ( 'NONE',  ( 1.000000000000000000, 0.0000000000000000000, 0.0000000000000000000 ) ) ;
#107 = DIRECTION ( 'NONE',  ( 1.000000000000000000, 0.0000000000000000000, 0.0000000000000000000 ) ) ;
#108 = DIRECTION ( 'NONE',  ( -0.0000000000000000000, -0.0000000000000000000, -1.000000000000000000 ) ) ;
#109 = UNCERTAINTY_MEASURE_WITH_UNIT (LENGTH_MEASURE( 1.000000000000000082E-05 ), #170, 'distance_accuracy_value', 'NONE');
#110 = SURFACE_STYLE_FILL_AREA ( #15 ) ;
#111 =( NAMED_UNIT ( * ) SI_UNIT ( $, .STERADIAN. ) SOLID_ANGLE_UNIT ( ) );
#112 = ORIENTED_EDGE ( 'NONE', *, *, #23, .F. ) ;
#113 = ORIENTED_EDGE ( 'NONE', *, *, #181, .T. ) ;
#114 = MECHANICAL_DESIGN_GEOMETRIC_PRESENTATION_REPRESENTATION (  '', ( #80 ), #105 ) ;
#115 = CLOSED_SHELL ( 'NONE', ( #89, #6, #196, #43, #149, #16 ) ) ;
#116 = DIRECTION ( 'NONE',  ( -1.000000000000000000, 0.0000000000000000000, 0.0000000000000000000 ) ) ;
#117 = FACE_OUTER_BOUND ( 'NONE', #83, .T. ) ;
#118 =( CONVERSION_BASED_UNIT ( 'INCH', #189 ) LENGTH_UNIT ( ) NAMED_UNIT ( #78 ) );
#119 = DIRECTION ( 'NONE',  ( 0.0000000000000000000, 0.0000000000000000000, -1.000000000000000000 ) ) ;
#120 = PRODUCT_RELATED_PRODUCT_CATEGORY ( 'part', '', ( #13 ) ) ;
#121 = LENGTH_MEASURE_WITH_UNIT ( LENGTH_MEASURE( 0.02539999999999999897 ), #59 );
#122 = DIRECTION ( 'NONE',  ( 1.000000000000000000, 0.0000000000000000000, 0.0000000000000000000 ) ) ;
#123 = COLOUR_RGB ( '',0.7921568627450980005, 0.8196078431372548767, 0.9333333333333333481 ) ;
#124 = DIRECTION ( 'NONE',  ( -1.000000000000000000, 0.0000000000000000000, 0.0000000000000000000 ) ) ;
#125 = CARTESIAN_POINT ( 'NONE',  ( -0.06250000000000000000, 0.0000000000000000000, 0.0000000000000000000 ) ) ;
#126 = EDGE_CURVE ( 'NONE', #21, #131, #85, .T. ) ;
#127 = CARTESIAN_POINT ( 'NONE',  ( 0.0000000000000000000, 0.0000000000000000000, 1.500000000000000222 ) ) ;
#128 = AXIS2_PLACEMENT_3D ( 'NONE', #92, #66, #94 ) ;
#129 = CARTESIAN_POINT ( 'NONE',  ( 0.06250000000000000000, 7.654042494670956004E-18, 0.0000000000000000000 ) ) ;
#130 = PRODUCT_DEFINITION_SHAPE ( 'NONE', 'NONE',  #156 ) ;
#131 = VERTEX_POINT ( 'NONE', #125 ) ;
#132 = SURFACE_STYLE_USAGE ( .BOTH. , #55 ) ;
#133 = DIRECTION ( 'NONE',  ( 1.000000000000000000, 0.0000000000000000000, 0.0000000000000000000 ) ) ;
#134 =( GEOMETRIC_REPRESENTATION_CONTEXT ( 3 ) GLOBAL_UNCERTAINTY_ASSIGNED_CONTEXT ( ( #109 ) ) GLOBAL_UNIT_ASSIGNED_CONTEXT ( ( #170, #46, #171 ) ) REPRESENTATION_CONTEXT ( 'NONE', 'WORKASPACE' ) );
#135 = CARTESIAN_POINT ( 'NONE',  ( 0.0000000000000000000, 0.0000000000000000000, 0.0000000000000000000 ) ) ;
#136 = UNCERTAINTY_MEASURE_WITH_UNIT (LENGTH_MEASURE( 1.000000000000000082E-05 ), #118, 'distance_accuracy_value', 'NONE');
#137 = PLANE ( 'NONE',  #140 ) ;
#138 = CARTESIAN_POINT ( 'NONE',  ( 0.0000000000000000000, 0.0000000000000000000, 1.500000000000000222 ) ) ;
#139 = AXIS2_PLACEMENT_3D ( 'NONE', #77, #87, #9 ) ;
#140 = AXIS2_PLACEMENT_3D ( 'NONE', #135, #195, #103 ) ;
#141 = APPLICATION_PROTOCOL_DEFINITION ( 'draft international standard', 'automotive_design', 1998, #193 ) ;
#142 = EDGE_LOOP ( 'NONE', ( #188, #146, #81, #57 ) ) ;
#143 = LENGTH_MEASURE_WITH_UNIT ( LENGTH_MEASURE( 0.02539999999999999897 ), #31 );
#144 = DIRECTION ( 'NONE',  ( -1.000000000000000000, 0.0000000000000000000, 0.0000000000000000000 ) ) ;
#145 = STYLED_ITEM ( 'NONE', ( #49 ), #74 ) ;
#146 = ORIENTED_EDGE ( 'NONE', *, *, #173, .T. ) ;
#147 = CIRCLE ( 'NONE', #42, 0.06250000000000000000 ) ;
#148 = ORIENTED_EDGE ( 'NONE', *, *, #157, .T. ) ;
#149 = ADVANCED_FACE ( 'NONE', ( #10 ), #137, .F. ) ;
#150 =( NAMED_UNIT ( * ) SI_UNIT ( $, .STERADIAN. ) SOLID_ANGLE_UNIT ( ) );
#151 = CYLINDRICAL_SURFACE ( 'NONE', #63, 0.06250000000000000000 ) ;
#152 = CARTESIAN_POINT ( 'NONE',  ( 0.04750000000000064587, 6.735557395310482421E-18, 1.500000000000000222 ) ) ;
#153 = CARTESIAN_POINT ( 'NONE',  ( 0.0000000000000000000, 0.0000000000000000000, 0.0000000000000000000 ) ) ;
#154 = CARTESIAN_POINT ( 'NONE',  ( 0.0000000000000000000, 0.0000000000000000000, 1.500000000000000222 ) ) ;
#155 = PLANE ( 'NONE',  #139 ) ;
#156 = PRODUCT_DEFINITION ( 'UNKNOWN', '', #184, #45 ) ;
#157 = EDGE_CURVE ( 'NONE', #161, #99, #32, .T. ) ;
#158 = FILL_AREA_STYLE_COLOUR ( '', #54 ) ;
#159 = CARTESIAN_POINT ( 'NONE',  ( 0.0000000000000000000, 0.0000000000000000000, 0.0000000000000000000 ) ) ;
#160 = ORIENTED_EDGE ( 'NONE', *, *, #181, .F. ) ;
#161 = VERTEX_POINT ( 'NONE', #152 ) ;
#162 =( NAMED_UNIT ( * ) PLANE_ANGLE_UNIT ( ) SI_UNIT ( $, .RADIAN. ) );
#163 = DIRECTION ( 'NONE',  ( 0.0000000000000000000, 0.0000000000000000000, 1.000000000000000000 ) ) ;
#164 = VECTOR ( 'NONE', #39, 39.37007874015748143 ) ;
#165 = DIRECTION ( 'NONE',  ( 0.0000000000000000000, 0.0000000000000000000, -1.000000000000000000 ) ) ;
#166 = PRESENTATION_LAYER_ASSIGNMENT (  '', '', ( #145 ) ) ;
#167 = FACE_OUTER_BOUND ( 'NONE', #142, .T. ) ;
#168 = CARTESIAN_POINT ( 'NONE',  ( 0.06250000000000000000, 7.654042494670956004E-18, 1.500000000000000222 ) ) ;
#169 = CONICAL_SURFACE ( 'NONE', #93, 0.04750000000000064587, 0.7853981633974457255 ) ;
#170 =( CONVERSION_BASED_UNIT ( 'INCH', #143 ) LENGTH_UNIT ( ) NAMED_UNIT ( #58 ) );
#171 =( NAMED_UNIT ( * ) SI_UNIT ( $, .STERADIAN. ) SOLID_ANGLE_UNIT ( ) );
#172 = ORIENTED_EDGE ( 'NONE', *, *, #65, .F. ) ;
#173 = EDGE_CURVE ( 'NONE', #161, #70, #44, .T. ) ;
#174 = CONICAL_SURFACE ( 'NONE', #72, 0.04750000000000064587, 0.7853981633974457255 ) ;
#175 = FILL_AREA_STYLE_COLOUR ( '', #123 ) ;
#176 =( LENGTH_UNIT ( ) NAMED_UNIT ( * ) SI_UNIT ( $, .METRE. ) );
#177 = DIRECTION ( 'NONE',  ( 0.7071067811865456854, 8.659560562354911904E-17, -0.7071067811865493491 ) ) ;
#178 = CARTESIAN_POINT ( 'NONE',  ( -0.04750000000000064587, 0.0000000000000000000, 1.500000000000000222 ) ) ;
#179 =( NAMED_UNIT ( * ) PLANE_ANGLE_UNIT ( ) SI_UNIT ( $, .RADIAN. ) );
#180 =( CONVERSION_BASED_UNIT ( 'INCH', #121 ) LENGTH_UNIT ( ) NAMED_UNIT ( #90 ) );
#181 = EDGE_CURVE ( 'NONE', #70, #5, #147, .T. ) ;
#182 = DIRECTION ( 'NONE',  ( 0.0000000000000000000, 0.0000000000000000000, 1.000000000000000000 ) ) ;
#183 = SURFACE_STYLE_USAGE ( .BOTH. , #12 ) ;
#184 = PRODUCT_DEFINITION_FORMATION_WITH_SPECIFIED_SOURCE ( 'ANY', '', #13, .NOT_KNOWN. ) ;
#185 = APPLICATION_CONTEXT ( 'automotive_design' ) ;
#186 = PRESENTATION_STYLE_ASSIGNMENT (( #132 ) ) ;
#187 = CIRCLE ( 'NONE', #33, 0.04750000000000064587 ) ;
#188 = ORIENTED_EDGE ( 'NONE', *, *, #157, .F. ) ;
#189 = LENGTH_MEASURE_WITH_UNIT ( LENGTH_MEASURE( 0.02539999999999999897 ), #176 );
#190 = DIRECTION ( 'NONE',  ( -0.0000000000000000000, -0.0000000000000000000, -1.000000000000000000 ) ) ;
#191 = CIRCLE ( 'NONE', #4, 0.06250000000000000000 ) ;
#192 = CARTESIAN_POINT ( 'NONE',  ( 0.0000000000000000000, 0.0000000000000000000, 1.500000000000000222 ) ) ;
#193 = APPLICATION_CONTEXT ( 'automotive_design' ) ;
#194 = DIRECTION ( 'NONE',  ( 1.000000000000000000, 0.0000000000000000000, 0.0000000000000000000 ) ) ;
#195 = DIRECTION ( 'NONE',  ( 0.0000000000000000000, 0.0000000000000000000, 1.000000000000000000 ) ) ;
#196 = ADVANCED_FACE ( 'NONE', ( #75 ), #151, .T. ) ;
#197 = DIRECTION ( 'NONE',  ( 0.0000000000000000000, 0.0000000000000000000, 1.000000000000000000 ) ) ;
#198 = MECHANICAL_DESIGN_GEOMETRIC_PRESENTATION_REPRESENTATION (  '', ( #145 ), #134 ) ;
#199 = AXIS2_PLACEMENT_3D ( 'NONE', #153, #86, #106 ) ;
ENDSEC;
END-ISO-10303-21;
