ISO-10303-21;
HEADER;
FILE_DESCRIPTION (( 'STEP AP214' ),
    '1' );
FILE_NAME ('Micro_AMRM-002-2X.STEP',
    '2021-09-01T17:08:54',
    ( '' ),
    ( '' ),
    'SwSTEP 2.0',
    'SolidWorks 2020',
    '' );
FILE_SCHEMA (( 'AUTOMOTIVE_DESIGN' ));
ENDSEC;

DATA;
#1 = ORIENTED_EDGE ( 'NONE', *, *, #106, .F. ) ;
#2 =( NAMED_UNIT ( * ) SI_UNIT ( $, .STERADIAN. ) SOLID_ANGLE_UNIT ( ) );
#3 = DIRECTION ( 'NONE',  ( 1.000000000000000000, 0.0000000000000000000, 0.0000000000000000000 ) ) ;
#4 = DIRECTION ( 'NONE',  ( 0.7071067811865507924, 8.659560562354973534E-17, -0.7071067811865443531 ) ) ;
#5 = ORIENTED_EDGE ( 'NONE', *, *, #234, .T. ) ;
#6 = AXIS2_PLACEMENT_3D ( 'NONE', #170, #123, #33 ) ;
#7 = ORIENTED_EDGE ( 'NONE', *, *, #272, .T. ) ;
#8 =( CONVERSION_BASED_UNIT ( 'INCH', #138 ) LENGTH_UNIT ( ) NAMED_UNIT ( #101 ) );
#9 = CARTESIAN_POINT ( 'NONE',  ( 5.898649710075425815E-35, 0.0000000000000000000, 4.816613013794912010E-19 ) ) ;
#10 = VERTEX_POINT ( 'NONE', #117 ) ;
#11 = CYLINDRICAL_SURFACE ( 'NONE', #287, 0.003933063000000019613 ) ;
#12 = ORIENTED_EDGE ( 'NONE', *, *, #78, .T. ) ;
#13 = DIRECTION ( 'NONE',  ( 1.000000000000000000, 0.0000000000000000000, 0.0000000000000000000 ) ) ;
#14 = DIRECTION ( 'NONE',  ( -0.0000000000000000000, -0.0000000000000000000, -1.000000000000000000 ) ) ;
#15 = VECTOR ( 'NONE', #137, 39.37007874015748143 ) ;
#16 = LINE ( 'NONE', #48, #99 ) ;
#17 = VECTOR ( 'NONE', #58, 39.37007874015748143 ) ;
#18 = ORIENTED_EDGE ( 'NONE', *, *, #70, .F. ) ;
#19 = VECTOR ( 'NONE', #14, 39.37007874015748143 ) ;
#20 = SURFACE_STYLE_FILL_AREA ( #204 ) ;
#21 = PRESENTATION_STYLE_ASSIGNMENT (( #81 ) ) ;
#22 = LINE ( 'NONE', #182, #17 ) ;
#23 = AXIS2_PLACEMENT_3D ( 'NONE', #108, #85, #113 ) ;
#24 = ORIENTED_EDGE ( 'NONE', *, *, #296, .F. ) ;
#25 = DIRECTION ( 'NONE',  ( 1.000000000000000000, 0.0000000000000000000, 0.0000000000000000000 ) ) ;
#26 = EDGE_CURVE ( 'NONE', #285, #229, #284, .T. ) ;
#27 = LINE ( 'NONE', #243, #239 ) ;
#28 = CARTESIAN_POINT ( 'NONE',  ( 0.0000000000000000000, 0.0000000000000000000, 1.968503999999999809 ) ) ;
#29 = DIRECTION ( 'NONE',  ( 0.0000000000000000000, 0.0000000000000000000, 1.000000000000000000 ) ) ;
#30 = CIRCLE ( 'NONE', #130, 0.003933063000000020480 ) ;
#31 = DIMENSIONAL_EXPONENTS ( 1.000000000000000000, 0.0000000000000000000, 0.0000000000000000000, 0.0000000000000000000, 0.0000000000000000000, 0.0000000000000000000, 0.0000000000000000000 ) ;
#32 = CARTESIAN_POINT ( 'NONE',  ( 1.928573779297255554E-18, 0.0000000000000000000, 0.01574800000000002934 ) ) ;
#33 = DIRECTION ( 'NONE',  ( 1.000000000000000000, 0.0000000000000000000, 0.0000000000000000000 ) ) ;
#34 = EDGE_LOOP ( 'NONE', ( #188, #122, #187, #283 ) ) ;
#35 = PRODUCT_DEFINITION_CONTEXT ( 'detailed design', #275, 'design' ) ;
#36 = MECHANICAL_DESIGN_GEOMETRIC_PRESENTATION_REPRESENTATION (  '', ( #46 ), #192 ) ;
#37 = CARTESIAN_POINT ( 'NONE',  ( 0.0000000000000000000, 0.0000000000000000000, 0.0000000000000000000 ) ) ;
#38 =( NAMED_UNIT ( * ) PLANE_ANGLE_UNIT ( ) SI_UNIT ( $, .RADIAN. ) );
#39 = PRODUCT ( 'Micro_AMRM-002-2X', 'Micro_AMRM-002-2X', '', ( #228 ) ) ;
#40 = CARTESIAN_POINT ( 'NONE',  ( 1.928573779297255554E-18, 0.0000000000000000000, 0.01574800000000002934 ) ) ;
#41 = ORIENTED_EDGE ( 'NONE', *, *, #119, .T. ) ;
#42 = CARTESIAN_POINT ( 'NONE',  ( 0.06374000000000018540, 7.805898697765251255E-18, 1.968503999999999809 ) ) ;
#43 = VERTEX_POINT ( 'NONE', #63 ) ;
#44 = DIRECTION ( 'NONE',  ( -1.224646799147353207E-16, -0.0000000000000000000, -1.000000000000000000 ) ) ;
#45 = FACE_OUTER_BOUND ( 'NONE', #61, .T. ) ;
#46 = STYLED_ITEM ( 'NONE', ( #21 ), #128 ) ;
#47 = PLANE ( 'NONE',  #172 ) ;
#48 = CARTESIAN_POINT ( 'NONE',  ( -0.003933063000000019613, 0.0000000000000000000, 4.816613013794910084E-19 ) ) ;
#49 = EDGE_LOOP ( 'NONE', ( #242, #210, #279, #18 ) ) ;
#50 = DIRECTION ( 'NONE',  ( -1.000000000000000000, 0.0000000000000000000, 0.0000000000000000000 ) ) ;
#51 = AXIS2_PLACEMENT_3D ( 'NONE', #278, #235, #206 ) ;
#52 = FACE_OUTER_BOUND ( 'NONE', #233, .T. ) ;
#53 = AXIS2_PLACEMENT_3D ( 'NONE', #221, #29, #73 ) ;
#54 = ADVANCED_FACE ( 'NONE', ( #158 ), #95, .T. ) ;
#55 = PRODUCT_DEFINITION_FORMATION_WITH_SPECIFIED_SOURCE ( 'ANY', '', #39, .NOT_KNOWN. ) ;
#56 = DIRECTION ( 'NONE',  ( 1.000000000000000000, 0.0000000000000000000, 0.0000000000000000000 ) ) ;
#57 = VECTOR ( 'NONE', #164, 39.37007874015748143 ) ;
#58 = DIRECTION ( 'NONE',  ( -0.7071067811865507924, 0.0000000000000000000, -0.7071067811865443531 ) ) ;
#59 = DIRECTION ( 'NONE',  ( -1.224646799147353207E-16, -0.0000000000000000000, -1.000000000000000000 ) ) ;
#60 = UNCERTAINTY_MEASURE_WITH_UNIT (LENGTH_MEASURE( 1.000000000000000082E-05 ), #226, 'distance_accuracy_value', 'NONE');
#61 = EDGE_LOOP ( 'NONE', ( #214, #157, #183, #215 ) ) ;
#62 = VECTOR ( 'NONE', #280, 39.37007874015748854 ) ;
#63 = CARTESIAN_POINT ( 'NONE',  ( -0.003933063000000020480, 0.0000000000000000000, 9.633226027589824019E-19 ) ) ;
#64 = CYLINDRICAL_SURFACE ( 'NONE', #23, 0.07874000000000001831 ) ;
#65 = ORIENTED_EDGE ( 'NONE', *, *, #224, .T. ) ;
#66 = EDGE_LOOP ( 'NONE', ( #203, #135, #295, #12 ) ) ;
#67 = DIRECTION ( 'NONE',  ( -1.000000000000000000, 0.0000000000000000000, 0.0000000000000000000 ) ) ;
#68 = DIRECTION ( 'NONE',  ( 0.0000000000000000000, 0.0000000000000000000, -1.000000000000000000 ) ) ;
#69 = AXIS2_PLACEMENT_3D ( 'NONE', #237, #44, #25 ) ;
#70 = EDGE_CURVE ( 'NONE', #112, #285, #22, .T. ) ;
#71 = CARTESIAN_POINT ( 'NONE',  ( 0.003933063000000019613, 4.816613013794910084E-19, -4.816613013794910084E-19 ) ) ;
#72 = CLOSED_SHELL ( 'NONE', ( #180, #199, #202, #252, #125, #196, #54, #139, #185, #298 ) ) ;
#73 = DIRECTION ( 'NONE',  ( 1.000000000000000000, 0.0000000000000000000, 0.0000000000000000000 ) ) ;
#74 = DIRECTION ( 'NONE',  ( -1.224646799147353207E-16, -0.0000000000000000000, -1.000000000000000000 ) ) ;
#75 = CIRCLE ( 'NONE', #115, 0.003933063000000018745 ) ;
#76 = DIRECTION ( 'NONE',  ( -0.0000000000000000000, -0.0000000000000000000, -1.000000000000000000 ) ) ;
#77 = VERTEX_POINT ( 'NONE', #162 ) ;
#78 = EDGE_CURVE ( 'NONE', #293, #229, #257, .T. ) ;
#79 = AXIS2_PLACEMENT_3D ( 'NONE', #120, #219, #288 ) ;
#80 = ORIENTED_EDGE ( 'NONE', *, *, #26, .T. ) ;
#81 = SURFACE_STYLE_USAGE ( .BOTH. , #107 ) ;
#82 = CIRCLE ( 'NONE', #6, 0.07874000000000001831 ) ;
#83 = EDGE_LOOP ( 'NONE', ( #238, #7 ) ) ;
#84 = EDGE_CURVE ( 'NONE', #43, #262, #89, .T. ) ;
#85 = DIRECTION ( 'NONE',  ( -0.0000000000000000000, -0.0000000000000000000, -1.000000000000000000 ) ) ;
#86 = ORIENTED_EDGE ( 'NONE', *, *, #84, .F. ) ;
#87 = EDGE_CURVE ( 'NONE', #229, #293, #109, .T. ) ;
#88 = LINE ( 'NONE', #184, #62 ) ;
#89 = CIRCLE ( 'NONE', #197, 0.003933063000000020480 ) ;
#90 = FILL_AREA_STYLE ('',( #136 ) ) ;
#91 = DIRECTION ( 'NONE',  ( -1.224646799147353207E-16, -0.0000000000000000000, -1.000000000000000000 ) ) ;
#92 = CARTESIAN_POINT ( 'NONE',  ( 0.0000000000000000000, 0.0000000000000000000, 1.953504000000000129 ) ) ;
#93 = DIRECTION ( 'NONE',  ( 0.0000000000000000000, 0.0000000000000000000, -1.000000000000000000 ) ) ;
#94 = PRODUCT_RELATED_PRODUCT_CATEGORY ( 'part', '', ( #39 ) ) ;
#95 = CONICAL_SURFACE ( 'NONE', #207, 0.06374000000000018540, 0.7853981633974528309 ) ;
#96 = CARTESIAN_POINT ( 'NONE',  ( -0.07873999999999996280, 0.0000000000000000000, 0.4399992217893854973 ) ) ;
#97 = CARTESIAN_POINT ( 'NONE',  ( -0.07874000000000001831, 0.0000000000000000000, 1.953504000000000129 ) ) ;
#98 = CARTESIAN_POINT ( 'NONE',  ( 0.0000000000000000000, 0.0000000000000000000, 1.968503999999999809 ) ) ;
#99 = VECTOR ( 'NONE', #74, 39.37007874015748143 ) ;
#100 = DIRECTION ( 'NONE',  ( 0.0000000000000000000, 0.0000000000000000000, 1.000000000000000000 ) ) ;
#101 = DIMENSIONAL_EXPONENTS ( 1.000000000000000000, 0.0000000000000000000, 0.0000000000000000000, 0.0000000000000000000, 0.0000000000000000000, 0.0000000000000000000, 0.0000000000000000000 ) ;
#102 = DIRECTION ( 'NONE',  ( 1.000000000000000000, 0.0000000000000000000, -0.0000000000000000000 ) ) ;
#103 = ORIENTED_EDGE ( 'NONE', *, *, #168, .T. ) ;
#104 =( GEOMETRIC_REPRESENTATION_CONTEXT ( 3 ) GLOBAL_UNCERTAINTY_ASSIGNED_CONTEXT ( ( #148 ) ) GLOBAL_UNIT_ASSIGNED_CONTEXT ( ( #274, #152, #201 ) ) REPRESENTATION_CONTEXT ( 'NONE', 'WORKASPACE' ) );
#105 = FILL_AREA_STYLE_COLOUR ( '', #281 ) ;
#106 = EDGE_CURVE ( 'NONE', #10, #77, #232, .T. ) ;
#107 = SURFACE_SIDE_STYLE ('',( #20 ) ) ;
#108 = CARTESIAN_POINT ( 'NONE',  ( 0.0000000000000000000, 0.0000000000000000000, 1.968503999999999809 ) ) ;
#109 = CIRCLE ( 'NONE', #69, 0.07874000000000001831 ) ;
#110 = AXIS2_PLACEMENT_3D ( 'NONE', #175, #100, #56 ) ;
#111 =( NAMED_UNIT ( * ) PLANE_ANGLE_UNIT ( ) SI_UNIT ( $, .RADIAN. ) );
#112 = VERTEX_POINT ( 'NONE', #154 ) ;
#113 = DIRECTION ( 'NONE',  ( -1.000000000000000000, 0.0000000000000000000, 0.0000000000000000000 ) ) ;
#114 = MANIFOLD_SOLID_BREP ( 'Cut-Revolve1', #72 ) ;
#115 = AXIS2_PLACEMENT_3D ( 'NONE', #32, #198, #292 ) ;
#116 = CARTESIAN_POINT ( 'NONE',  ( 0.0000000000000000000, 0.0000000000000000000, 1.968503999999999809 ) ) ;
#117 = CARTESIAN_POINT ( 'NONE',  ( 0.06374000000000018540, 8.724383797125754882E-18, 1.968503999999999809 ) ) ;
#118 = CARTESIAN_POINT ( 'NONE',  ( 0.003933063000000021348, 4.816613013794912010E-19, -1.184750211852384294E-34 ) ) ;
#119 = EDGE_CURVE ( 'NONE', #166, #143, #131, .T. ) ;
#120 = CARTESIAN_POINT ( 'NONE',  ( 0.0000000000000000000, 0.0000000000000000000, 1.968503999999999809 ) ) ;
#122 = ORIENTED_EDGE ( 'NONE', *, *, #222, .T. ) ;
#121 = ORIENTED_EDGE ( 'NONE', *, *, #234, .F. ) ;
#123 = DIRECTION ( 'NONE',  ( 0.0000000000000000000, 0.0000000000000000000, -1.000000000000000000 ) ) ;
#124 = AXIS2_PLACEMENT_3D ( 'NONE', #98, #167, #146 ) ;
#125 = ADVANCED_FACE ( 'NONE', ( #216 ), #64, .T. ) ;
#126 = DIRECTION ( 'NONE',  ( -1.224646799147353207E-16, -0.0000000000000000000, -1.000000000000000000 ) ) ;
#127 = FACE_OUTER_BOUND ( 'NONE', #49, .T. ) ;
#128 = ADVANCED_BREP_SHAPE_REPRESENTATION ( 'Micro_AMRM-002-2X', ( #114, #110 ), #104 ) ;
#129 = APPLICATION_PROTOCOL_DEFINITION ( 'draft international standard', 'automotive_design', 1998, #249 ) ;
#130 = AXIS2_PLACEMENT_3D ( 'NONE', #9, #126, #194 ) ;
#131 = CIRCLE ( 'NONE', #156, 0.003933063000000018745 ) ;
#132 = SURFACE_STYLE_FILL_AREA ( #90 ) ;
#133 = SURFACE_SIDE_STYLE ('',( #132 ) ) ;
#134 = CIRCLE ( 'NONE', #276, 0.07874000000000001831 ) ;
#135 = ORIENTED_EDGE ( 'NONE', *, *, #119, .F. ) ;
#136 = FILL_AREA_STYLE_COLOUR ( '', #163 ) ;
#137 = DIRECTION ( 'NONE',  ( -0.0000000000000000000, -0.0000000000000000000, -1.000000000000000000 ) ) ;
#138 = LENGTH_MEASURE_WITH_UNIT ( LENGTH_MEASURE( 0.02539999999999999897 ), #209 );
#139 = ADVANCED_FACE ( 'NONE', ( #161 ), #150, .T. ) ;
#140 = CARTESIAN_POINT ( 'NONE',  ( 0.0000000000000000000, 0.0000000000000000000, 0.0000000000000000000 ) ) ;
#141 = FACE_OUTER_BOUND ( 'NONE', #160, .T. ) ;
#142 = DIRECTION ( 'NONE',  ( -1.224646799147353207E-16, -0.0000000000000000000, -1.000000000000000000 ) ) ;
#143 = VERTEX_POINT ( 'NONE', #255 ) ;
#144 = CIRCLE ( 'NONE', #53, 0.06374000000000018540 ) ;
#145 = DIRECTION ( 'NONE',  ( -1.000000000000000000, 0.0000000000000000000, 1.224646799147353207E-16 ) ) ;
#146 = DIRECTION ( 'NONE',  ( 1.000000000000000000, 0.0000000000000000000, -0.0000000000000000000 ) ) ;
#147 = DIMENSIONAL_EXPONENTS ( 1.000000000000000000, 0.0000000000000000000, 0.0000000000000000000, 0.0000000000000000000, 0.0000000000000000000, 0.0000000000000000000, 0.0000000000000000000 ) ;
#148 = UNCERTAINTY_MEASURE_WITH_UNIT (LENGTH_MEASURE( 1.000000000000000082E-05 ), #274, 'distance_accuracy_value', 'NONE');
#149 = LENGTH_MEASURE_WITH_UNIT ( LENGTH_MEASURE( 0.02539999999999999897 ), #269 );
#150 = CONICAL_SURFACE ( 'NONE', #169, 0.003933063000000018745, 0.1745329251994336972 ) ;
#151 = PRODUCT_DEFINITION ( 'UNKNOWN', '', #55, #35 ) ;
#152 =( NAMED_UNIT ( * ) PLANE_ANGLE_UNIT ( ) SI_UNIT ( $, .RADIAN. ) );
#153 = CIRCLE ( 'NONE', #79, 0.06374000000000018540 ) ;
#154 = CARTESIAN_POINT ( 'NONE',  ( -0.06374000000000018540, 0.0000000000000000000, 1.968503999999999809 ) ) ;
#155 = DIRECTION ( 'NONE',  ( 1.224646799147353207E-16, 0.0000000000000000000, 1.000000000000000000 ) ) ;
#156 = AXIS2_PLACEMENT_3D ( 'NONE', #40, #59, #211 ) ;
#157 = ORIENTED_EDGE ( 'NONE', *, *, #159, .T. ) ;
#158 = FACE_OUTER_BOUND ( 'NONE', #299, .T. ) ;
#159 = EDGE_CURVE ( 'NONE', #143, #229, #88, .T. ) ;
#160 = EDGE_LOOP ( 'NONE', ( #256, #103 ) ) ;
#161 = FACE_OUTER_BOUND ( 'NONE', #66, .T. ) ;
#162 = CARTESIAN_POINT ( 'NONE',  ( 0.07874000000000001831, 9.642868896486260050E-18, 1.953504000000000129 ) ) ;
#163 = COLOUR_RGB ( '',0.7921568627450980005, 0.8196078431372548767, 0.9333333333333333481 ) ;
#164 = DIRECTION ( 'NONE',  ( -1.224646799147353207E-16, -0.0000000000000000000, -1.000000000000000000 ) ) ;
#165 = FACE_OUTER_BOUND ( 'NONE', #34, .T. ) ;
#166 = VERTEX_POINT ( 'NONE', #259 ) ;
#167 = DIRECTION ( 'NONE',  ( 0.0000000000000000000, 0.0000000000000000000, 1.000000000000000000 ) ) ;
#168 = EDGE_CURVE ( 'NONE', #10, #112, #144, .T. ) ;
#169 = AXIS2_PLACEMENT_3D ( 'NONE', #260, #155, #3 ) ;
#170 = CARTESIAN_POINT ( 'NONE',  ( 0.0000000000000000000, 0.0000000000000000000, 1.953504000000000129 ) ) ;
#171 = CARTESIAN_POINT ( 'NONE',  ( 0.0000000000000000000, 0.0000000000000000000, 0.0000000000000000000 ) ) ;
#172 = AXIS2_PLACEMENT_3D ( 'NONE', #37, #273, #102 ) ;
#173 = ORIENTED_EDGE ( 'NONE', *, *, #224, .F. ) ;
#174 = EDGE_CURVE ( 'NONE', #285, #77, #82, .T. ) ;
#175 = CARTESIAN_POINT ( 'NONE',  ( 0.0000000000000000000, 0.0000000000000000000, 0.0000000000000000000 ) ) ;
#176 = ORIENTED_EDGE ( 'NONE', *, *, #70, .T. ) ;
#177 = CONICAL_SURFACE ( 'NONE', #245, 0.003933063000000018745, 0.1745329251994336972 ) ;
#178 = UNCERTAINTY_MEASURE_WITH_UNIT (LENGTH_MEASURE( 1.000000000000000082E-05 ), #8, 'distance_accuracy_value', 'NONE');
#179 = ORIENTED_EDGE ( 'NONE', *, *, #272, .F. ) ;
#180 = ADVANCED_FACE ( 'NONE', ( #195 ), #11, .T. ) ;
#181 = DIRECTION ( 'NONE',  ( -1.000000000000000000, 0.0000000000000000000, 1.224646799147353207E-16 ) ) ;
#182 = CARTESIAN_POINT ( 'NONE',  ( -0.06374000000000018540, 0.0000000000000000000, 1.968503999999999809 ) ) ;
#183 = ORIENTED_EDGE ( 'NONE', *, *, #87, .T. ) ;
#184 = CARTESIAN_POINT ( 'NONE',  ( -0.003933063000000017011, 4.816613013794909121E-19, 0.01574800000000002934 ) ) ;
#185 = ADVANCED_FACE ( 'NONE', ( #52 ), #246, .T. ) ;
#186 = AXIS2_PLACEMENT_3D ( 'NONE', #171, #142, #286 ) ;
#187 = ORIENTED_EDGE ( 'NONE', *, *, #87, .F. ) ;
#188 = ORIENTED_EDGE ( 'NONE', *, *, #174, .T. ) ;
#189 = SURFACE_STYLE_USAGE ( .BOTH. , #133 ) ;
#190 = CYLINDRICAL_SURFACE ( 'NONE', #271, 0.07874000000000001831 ) ;
#191 =( GEOMETRIC_REPRESENTATION_CONTEXT ( 3 ) GLOBAL_UNCERTAINTY_ASSIGNED_CONTEXT ( ( #178 ) ) GLOBAL_UNIT_ASSIGNED_CONTEXT ( ( #8, #111, #2 ) ) REPRESENTATION_CONTEXT ( 'NONE', 'WORKASPACE' ) );
#192 =( GEOMETRIC_REPRESENTATION_CONTEXT ( 3 ) GLOBAL_UNCERTAINTY_ASSIGNED_CONTEXT ( ( #60 ) ) GLOBAL_UNIT_ASSIGNED_CONTEXT ( ( #226, #38, #205 ) ) REPRESENTATION_CONTEXT ( 'NONE', 'WORKASPACE' ) );
#193 = DIRECTION ( 'NONE',  ( -1.000000000000000000, 0.0000000000000000000, 0.0000000000000000000 ) ) ;
#194 = DIRECTION ( 'NONE',  ( -1.000000000000000000, 0.0000000000000000000, 1.224646799147353207E-16 ) ) ;
#195 = FACE_OUTER_BOUND ( 'NONE', #258, .T. ) ;
#196 = ADVANCED_FACE ( 'NONE', ( #141 ), #241, .T. ) ;
#197 = AXIS2_PLACEMENT_3D ( 'NONE', #253, #91, #181 ) ;
#198 = DIRECTION ( 'NONE',  ( -1.224646799147353207E-16, -0.0000000000000000000, -1.000000000000000000 ) ) ;
#199 = ADVANCED_FACE ( 'NONE', ( #45 ), #177, .T. ) ;
#200 = APPLICATION_PROTOCOL_DEFINITION ( 'draft international standard', 'automotive_design', 1998, #275 ) ;
#201 =( NAMED_UNIT ( * ) SI_UNIT ( $, .STERADIAN. ) SOLID_ANGLE_UNIT ( ) );
#202 = ADVANCED_FACE ( 'NONE', ( #127 ), #227, .T. ) ;
#203 = ORIENTED_EDGE ( 'NONE', *, *, #159, .F. ) ;
#204 = FILL_AREA_STYLE ('',( #105 ) ) ;
#205 =( NAMED_UNIT ( * ) SI_UNIT ( $, .STERADIAN. ) SOLID_ANGLE_UNIT ( ) );
#206 = DIRECTION ( 'NONE',  ( 1.000000000000000000, 0.0000000000000000000, 0.0000000000000000000 ) ) ;
#207 = AXIS2_PLACEMENT_3D ( 'NONE', #116, #277, #67 ) ;
#208 = PRODUCT_DEFINITION_SHAPE ( 'NONE', 'NONE',  #151 ) ;
#209 =( LENGTH_UNIT ( ) NAMED_UNIT ( * ) SI_UNIT ( $, .METRE. ) );
#210 = ORIENTED_EDGE ( 'NONE', *, *, #106, .T. ) ;
#211 = DIRECTION ( 'NONE',  ( -1.000000000000000000, 0.0000000000000000000, 0.0000000000000000000 ) ) ;
#212 = ORIENTED_EDGE ( 'NONE', *, *, #218, .F. ) ;
#213 = CARTESIAN_POINT ( 'NONE',  ( -0.07874000000000001831, 0.0000000000000000000, 1.968503999999999809 ) ) ;
#214 = ORIENTED_EDGE ( 'NONE', *, *, #244, .F. ) ;
#215 = ORIENTED_EDGE ( 'NONE', *, *, #254, .F. ) ;
#216 = FACE_OUTER_BOUND ( 'NONE', #282, .T. ) ;
#217 = LINE ( 'NONE', #71, #57 ) ;
#218 = EDGE_CURVE ( 'NONE', #112, #10, #153, .T. ) ;
#219 = DIRECTION ( 'NONE',  ( 0.0000000000000000000, 0.0000000000000000000, 1.000000000000000000 ) ) ;
#220 = CARTESIAN_POINT ( 'NONE',  ( 1.928573779297255554E-18, 0.0000000000000000000, 0.01574800000000002934 ) ) ;
#221 = CARTESIAN_POINT ( 'NONE',  ( 0.0000000000000000000, 0.0000000000000000000, 1.968503999999999809 ) ) ;
#222 = EDGE_CURVE ( 'NONE', #77, #293, #223, .T. ) ;
#223 = LINE ( 'NONE', #290, #19 ) ;
#224 = EDGE_CURVE ( 'NONE', #166, #262, #217, .T. ) ;
#225 = PRESENTATION_LAYER_ASSIGNMENT (  '', '', ( #46 ) ) ;
#226 =( CONVERSION_BASED_UNIT ( 'INCH', #250 ) LENGTH_UNIT ( ) NAMED_UNIT ( #31 ) );
#227 = CONICAL_SURFACE ( 'NONE', #267, 0.06374000000000018540, 0.7853981633974528309 ) ;
#228 = PRODUCT_CONTEXT ( 'NONE', #249, 'mechanical' ) ;
#229 = VERTEX_POINT ( 'NONE', #96 ) ;
#230 = PRESENTATION_STYLE_ASSIGNMENT (( #189 ) ) ;
#231 = PRESENTATION_LAYER_ASSIGNMENT (  '', '', ( #251 ) ) ;
#232 = LINE ( 'NONE', #42, #261 ) ;
#233 = EDGE_LOOP ( 'NONE', ( #173, #41, #5, #179 ) ) ;
#234 = EDGE_CURVE ( 'NONE', #143, #43, #16, .T. ) ;
#235 = DIRECTION ( 'NONE',  ( -1.224646799147353207E-16, -0.0000000000000000000, -1.000000000000000000 ) ) ;
#236 = ORIENTED_EDGE ( 'NONE', *, *, #78, .F. ) ;
#237 = CARTESIAN_POINT ( 'NONE',  ( 5.388436385916973653E-17, 0.0000000000000000000, 0.4399992217893854973 ) ) ;
#238 = ORIENTED_EDGE ( 'NONE', *, *, #84, .T. ) ;
#239 = VECTOR ( 'NONE', #264, 39.37007874015747433 ) ;
#240 = CARTESIAN_POINT ( 'NONE',  ( 0.0000000000000000000, 0.0000000000000000000, 1.968503999999999809 ) ) ;
#241 = PLANE ( 'NONE',  #124 ) ;
#242 = ORIENTED_EDGE ( 'NONE', *, *, #168, .F. ) ;
#243 = CARTESIAN_POINT ( 'NONE',  ( 0.003933063000000020480, 0.0000000000000000000, 0.01574800000000002934 ) ) ;
#244 = EDGE_CURVE ( 'NONE', #143, #166, #75, .T. ) ;
#245 = AXIS2_PLACEMENT_3D ( 'NONE', #220, #268, #13 ) ;
#246 = CYLINDRICAL_SURFACE ( 'NONE', #186, 0.003933063000000019613 ) ;
#247 = DIRECTION ( 'NONE',  ( -1.224646799147353207E-16, -0.0000000000000000000, -1.000000000000000000 ) ) ;
#248 =( LENGTH_UNIT ( ) NAMED_UNIT ( * ) SI_UNIT ( $, .METRE. ) );
#249 = APPLICATION_CONTEXT ( 'automotive_design' ) ;
#250 = LENGTH_MEASURE_WITH_UNIT ( LENGTH_MEASURE( 0.02539999999999999897 ), #248 );
#251 = STYLED_ITEM ( 'NONE', ( #230 ), #114 ) ;
#252 = ADVANCED_FACE ( 'NONE', ( #165 ), #190, .T. ) ;
#253 = CARTESIAN_POINT ( 'NONE',  ( 5.898649710075425815E-35, 0.0000000000000000000, 4.816613013794912010E-19 ) ) ;
#254 = EDGE_CURVE ( 'NONE', #166, #293, #27, .T. ) ;
#255 = CARTESIAN_POINT ( 'NONE',  ( -0.003933063000000017011, 5.062265098932876299E-18, 0.01574800000000002934 ) ) ;
#256 = ORIENTED_EDGE ( 'NONE', *, *, #218, .T. ) ;
#257 = CIRCLE ( 'NONE', #51, 0.07874000000000001831 ) ;
#258 = EDGE_LOOP ( 'NONE', ( #297, #65, #86, #121 ) ) ;
#259 = CARTESIAN_POINT ( 'NONE',  ( 0.003933063000000020480, 0.0000000000000000000, 0.01574800000000002934 ) ) ;
#260 = CARTESIAN_POINT ( 'NONE',  ( 1.928573779297255554E-18, 0.0000000000000000000, 0.01574800000000002934 ) ) ;
#261 = VECTOR ( 'NONE', #4, 39.37007874015748143 ) ;
#262 = VERTEX_POINT ( 'NONE', #118 ) ;
#263 = DIRECTION ( 'NONE',  ( 1.000000000000000000, 0.0000000000000000000, 0.0000000000000000000 ) ) ;
#264 = DIRECTION ( 'NONE',  ( 0.1736481776669312194, 0.0000000000000000000, 0.9848077530122080203 ) ) ;
#265 = ORIENTED_EDGE ( 'NONE', *, *, #296, .T. ) ;
#266 = FACE_OUTER_BOUND ( 'NONE', #83, .T. ) ;
#267 = AXIS2_PLACEMENT_3D ( 'NONE', #28, #93, #193 ) ;
#268 = DIRECTION ( 'NONE',  ( 1.224646799147353207E-16, 0.0000000000000000000, 1.000000000000000000 ) ) ;
#269 =( LENGTH_UNIT ( ) NAMED_UNIT ( * ) SI_UNIT ( $, .METRE. ) );
#270 = ORIENTED_EDGE ( 'NONE', *, *, #222, .F. ) ;
#271 = AXIS2_PLACEMENT_3D ( 'NONE', #240, #76, #50 ) ;
#272 = EDGE_CURVE ( 'NONE', #262, #43, #30, .T. ) ;
#273 = DIRECTION ( 'NONE',  ( 0.0000000000000000000, 0.0000000000000000000, 1.000000000000000000 ) ) ;
#274 =( CONVERSION_BASED_UNIT ( 'INCH', #149 ) LENGTH_UNIT ( ) NAMED_UNIT ( #147 ) );
#275 = APPLICATION_CONTEXT ( 'automotive_design' ) ;
#276 = AXIS2_PLACEMENT_3D ( 'NONE', #92, #68, #263 ) ;
#277 = DIRECTION ( 'NONE',  ( 0.0000000000000000000, 0.0000000000000000000, -1.000000000000000000 ) ) ;
#278 = CARTESIAN_POINT ( 'NONE',  ( 5.388436385916973653E-17, 0.0000000000000000000, 0.4399992217893854973 ) ) ;
#279 = ORIENTED_EDGE ( 'NONE', *, *, #174, .F. ) ;
#280 = DIRECTION ( 'NONE',  ( -0.1736481776669309696, 2.126576849575780543E-17, 0.9848077530122080203 ) ) ;
#281 = COLOUR_RGB ( '',0.7921568627450980005, 0.8196078431372548767, 0.9333333333333333481 ) ;
#282 = EDGE_LOOP ( 'NONE', ( #270, #265, #80, #236 ) ) ;
#283 = ORIENTED_EDGE ( 'NONE', *, *, #26, .F. ) ;
#284 = LINE ( 'NONE', #213, #15 ) ;
#285 = VERTEX_POINT ( 'NONE', #97 ) ;
#286 = DIRECTION ( 'NONE',  ( -1.000000000000000000, 0.0000000000000000000, 1.224646799147353207E-16 ) ) ;
#287 = AXIS2_PLACEMENT_3D ( 'NONE', #140, #247, #145 ) ;
#288 = DIRECTION ( 'NONE',  ( 1.000000000000000000, 0.0000000000000000000, 0.0000000000000000000 ) ) ;
#289 = CARTESIAN_POINT ( 'NONE',  ( 0.07874000000000007382, 9.642868896486266213E-18, 0.4399992217893854973 ) ) ;
#290 = CARTESIAN_POINT ( 'NONE',  ( 0.07874000000000001831, 9.642868896486260050E-18, 1.968503999999999809 ) ) ;
#291 = MECHANICAL_DESIGN_GEOMETRIC_PRESENTATION_REPRESENTATION (  '', ( #251 ), #191 ) ;
#292 = DIRECTION ( 'NONE',  ( -1.000000000000000000, 0.0000000000000000000, 0.0000000000000000000 ) ) ;
#293 = VERTEX_POINT ( 'NONE', #289 ) ;
#294 = SHAPE_DEFINITION_REPRESENTATION ( #208, #128 ) ;
#295 = ORIENTED_EDGE ( 'NONE', *, *, #254, .T. ) ;
#296 = EDGE_CURVE ( 'NONE', #77, #285, #134, .T. ) ;
#297 = ORIENTED_EDGE ( 'NONE', *, *, #244, .T. ) ;
#298 = ADVANCED_FACE ( 'NONE', ( #266 ), #47, .F. ) ;
#299 = EDGE_LOOP ( 'NONE', ( #1, #212, #176, #24 ) ) ;
ENDSEC;
END-ISO-10303-21;
