ISO-10303-21;
HEADER;
FILE_DESCRIPTION (( 'STEP AP214' ),
    '1' );
FILE_NAME ('Micro_RNC-187-2.STEP',
    '2021-09-03T17:34:23',
    ( '' ),
    ( '' ),
    'SwSTEP 2.0',
    'SolidWorks 2020',
    '' );
FILE_SCHEMA (( 'AUTOMOTIVE_DESIGN' ));
ENDSEC;

DATA;
#1 = SURFACE_SIDE_STYLE ('',( #190 ) ) ;
#2 =( GEOMETRIC_REPRESENTATION_CONTEXT ( 3 ) GLOBAL_UNCERTAINTY_ASSIGNED_CONTEXT ( ( #8 ) ) GLOBAL_UNIT_ASSIGNED_CONTEXT ( ( #91, #72, #230 ) ) REPRESENTATION_CONTEXT ( 'NONE', 'WORKASPACE' ) );
#3 = ADVANCED_BREP_SHAPE_REPRESENTATION ( 'Micro_RNC-187-2', ( #109, #231 ), #2 ) ;
#4 = ORIENTED_EDGE ( 'NONE', *, *, #103, .T. ) ;
#5 = DIRECTION ( 'NONE',  ( -1.000000000000000000, 0.0000000000000000000, 0.0000000000000000000 ) ) ;
#6 = ORIENTED_EDGE ( 'NONE', *, *, #155, .F. ) ;
#7 = CARTESIAN_POINT ( 'NONE',  ( -0.09375000000000001388, 0.0000000000000000000, 1.910250000000000226 ) ) ;
#8 = UNCERTAINTY_MEASURE_WITH_UNIT (LENGTH_MEASURE( 1.000000000000000082E-05 ), #91, 'distance_accuracy_value', 'NONE');
#9 = PLANE ( 'NONE',  #172 ) ;
#10 = FACE_OUTER_BOUND ( 'NONE', #137, .T. ) ;
#11 = AXIS2_PLACEMENT_3D ( 'NONE', #40, #236, #59 ) ;
#12 = DIRECTION ( 'NONE',  ( 0.0000000000000000000, 0.0000000000000000000, 1.000000000000000000 ) ) ;
#13 = PLANE ( 'NONE',  #139 ) ;
#14 = FILL_AREA_STYLE_COLOUR ( '', #93 ) ;
#15 = APPLICATION_PROTOCOL_DEFINITION ( 'draft international standard', 'automotive_design', 1998, #135 ) ;
#16 = PRODUCT_DEFINITION_FORMATION_WITH_SPECIFIED_SOURCE ( 'ANY', '', #233, .NOT_KNOWN. ) ;
#17 = VECTOR ( 'NONE', #221, 39.37007874015748143 ) ;
#18 = ORIENTED_EDGE ( 'NONE', *, *, #120, .T. ) ;
#19 =( NAMED_UNIT ( * ) SI_UNIT ( $, .STERADIAN. ) SOLID_ANGLE_UNIT ( ) );
#20 =( LENGTH_UNIT ( ) NAMED_UNIT ( * ) SI_UNIT ( $, .METRE. ) );
#21 = DIRECTION ( 'NONE',  ( -1.000000000000000000, 0.0000000000000000000, 0.0000000000000000000 ) ) ;
#22 = AXIS2_PLACEMENT_3D ( 'NONE', #123, #12, #184 ) ;
#23 = AXIS2_PLACEMENT_3D ( 'NONE', #238, #134, #197 ) ;
#24 = FILL_AREA_STYLE_COLOUR ( '', #234 ) ;
#25 = CARTESIAN_POINT ( 'NONE',  ( 0.0000000000000000000, 0.0000000000000000000, 0.0000000000000000000 ) ) ;
#26 = AXIS2_PLACEMENT_3D ( 'NONE', #25, #47, #162 ) ;
#27 = FACE_OUTER_BOUND ( 'NONE', #198, .T. ) ;
#28 = DIRECTION ( 'NONE',  ( -1.000000000000000000, 0.0000000000000000000, 0.0000000000000000000 ) ) ;
#29 = FILL_AREA_STYLE ('',( #14 ) ) ;
#30 = LENGTH_MEASURE_WITH_UNIT ( LENGTH_MEASURE( 0.02539999999999999897 ), #191 );
#31 = PRESENTATION_STYLE_ASSIGNMENT (( #207 ) ) ;
#32 = AXIS2_PLACEMENT_3D ( 'NONE', #223, #90, #28 ) ;
#33 = VECTOR ( 'NONE', #173, 39.37007874015748143 ) ;
#34 = CARTESIAN_POINT ( 'NONE',  ( 0.0000000000000000000, 0.0000000000000000000, 0.08974999999999963562 ) ) ;
#35 = ORIENTED_EDGE ( 'NONE', *, *, #75, .F. ) ;
#36 = CARTESIAN_POINT ( 'NONE',  ( 0.09375000000000001388, 1.148106374200643863E-17, 2.000000000000000000 ) ) ;
#37 = AXIS2_PLACEMENT_3D ( 'NONE', #245, #183, #188 ) ;
#38 = AXIS2_PLACEMENT_3D ( 'NONE', #108, #146, #226 ) ;
#39 = EDGE_LOOP ( 'NONE', ( #195, #45 ) ) ;
#40 = CARTESIAN_POINT ( 'NONE',  ( 0.0000000000000000000, 0.0000000000000000000, 2.000000000000000000 ) ) ;
#41 = EDGE_CURVE ( 'NONE', #51, #113, #159, .T. ) ;
#42 = VERTEX_POINT ( 'NONE', #215 ) ;
#43 = ORIENTED_EDGE ( 'NONE', *, *, #179, .F. ) ;
#44 = LINE ( 'NONE', #96, #33 ) ;
#45 = ORIENTED_EDGE ( 'NONE', *, *, #186, .T. ) ;
#46 = DIRECTION ( 'NONE',  ( 1.000000000000000000, 0.0000000000000000000, -0.0000000000000000000 ) ) ;
#47 = DIRECTION ( 'NONE',  ( -0.0000000000000000000, -0.0000000000000000000, -1.000000000000000000 ) ) ;
#48 = CARTESIAN_POINT ( 'NONE',  ( 0.004000000000000000083, 0.0000000000000000000, 2.000000000000000000 ) ) ;
#49 = PRODUCT_RELATED_PRODUCT_CATEGORY ( 'part', '', ( #233 ) ) ;
#50 = AXIS2_PLACEMENT_3D ( 'NONE', #67, #224, #102 ) ;
#51 = VERTEX_POINT ( 'NONE', #138 ) ;
#52 = DIRECTION ( 'NONE',  ( -1.000000000000000000, 0.0000000000000000000, 0.0000000000000000000 ) ) ;
#53 = AXIS2_PLACEMENT_3D ( 'NONE', #34, #196, #21 ) ;
#54 = FACE_OUTER_BOUND ( 'NONE', #235, .T. ) ;
#55 = DIMENSIONAL_EXPONENTS ( 1.000000000000000000, 0.0000000000000000000, 0.0000000000000000000, 0.0000000000000000000, 0.0000000000000000000, 0.0000000000000000000, 0.0000000000000000000 ) ;
#56 = SHAPE_DEFINITION_REPRESENTATION ( #212, #3 ) ;
#57 = EDGE_CURVE ( 'NONE', #58, #80, #44, .T. ) ;
#58 = VERTEX_POINT ( 'NONE', #115 ) ;
#59 = DIRECTION ( 'NONE',  ( -1.000000000000000000, 0.0000000000000000000, 0.0000000000000000000 ) ) ;
#60 = UNCERTAINTY_MEASURE_WITH_UNIT (LENGTH_MEASURE( 1.000000000000000082E-05 ), #150, 'distance_accuracy_value', 'NONE');
#61 = DIRECTION ( 'NONE',  ( -0.0000000000000000000, -0.0000000000000000000, -1.000000000000000000 ) ) ;
#62 = VECTOR ( 'NONE', #200, 39.37007874015748143 ) ;
#63 = EDGE_LOOP ( 'NONE', ( #237, #243, #214, #210 ) ) ;
#64 = LINE ( 'NONE', #36, #203 ) ;
#65 = VERTEX_POINT ( 'NONE', #177 ) ;
#66 = LINE ( 'NONE', #202, #17 ) ;
#67 = CARTESIAN_POINT ( 'NONE',  ( 0.0000000000000000000, 0.0000000000000000000, 1.910250000000000226 ) ) ;
#68 = CARTESIAN_POINT ( 'NONE',  ( 0.0000000000000000000, 0.0000000000000000000, 0.0000000000000000000 ) ) ;
#69 = CIRCLE ( 'NONE', #26, 0.004000000000000000083 ) ;
#70 = CARTESIAN_POINT ( 'NONE',  ( -0.004000000000000000083, -4.898587196589413537E-19, 2.000000000000000000 ) ) ;
#71 = AXIS2_PLACEMENT_3D ( 'NONE', #240, #61, #5 ) ;
#72 =( NAMED_UNIT ( * ) PLANE_ANGLE_UNIT ( ) SI_UNIT ( $, .RADIAN. ) );
#73 = ADVANCED_FACE ( 'NONE', ( #79 ), #111, .T. ) ;
#74 = PRODUCT_CONTEXT ( 'NONE', #135, 'mechanical' ) ;
#75 = EDGE_CURVE ( 'NONE', #42, #80, #176, .T. ) ;
#76 = CARTESIAN_POINT ( 'NONE',  ( -0.09375000000000001388, 0.0000000000000000000, 0.08974999999999963562 ) ) ;
#77 = DIMENSIONAL_EXPONENTS ( 1.000000000000000000, 0.0000000000000000000, 0.0000000000000000000, 0.0000000000000000000, 0.0000000000000000000, 0.0000000000000000000, 0.0000000000000000000 ) ;
#78 = PRODUCT_DEFINITION ( 'UNKNOWN', '', #16, #98 ) ;
#79 = FACE_OUTER_BOUND ( 'NONE', #117, .T. ) ;
#80 = VERTEX_POINT ( 'NONE', #76 ) ;
#81 = FACE_OUTER_BOUND ( 'NONE', #121, .T. ) ;
#82 = ORIENTED_EDGE ( 'NONE', *, *, #57, .F. ) ;
#83 = FACE_OUTER_BOUND ( 'NONE', #118, .T. ) ;
#84 = ADVANCED_FACE ( 'NONE', ( #81 ), #112, .T. ) ;
#85 = CARTESIAN_POINT ( 'NONE',  ( 0.004000000000000000083, 0.0000000000000000000, 0.0000000000000000000 ) ) ;
#86 = VECTOR ( 'NONE', #88, 39.37007874015748143 ) ;
#87 = AXIS2_PLACEMENT_3D ( 'NONE', #167, #246, #189 ) ;
#88 = DIRECTION ( 'NONE',  ( 0.7071067811865490160, 0.0000000000000000000, -0.7071067811865460184 ) ) ;
#89 = FACE_OUTER_BOUND ( 'NONE', #63, .T. ) ;
#90 = DIRECTION ( 'NONE',  ( 0.0000000000000000000, 0.0000000000000000000, -1.000000000000000000 ) ) ;
#91 =( CONVERSION_BASED_UNIT ( 'INCH', #132 ) LENGTH_UNIT ( ) NAMED_UNIT ( #55 ) );
#92 = CARTESIAN_POINT ( 'NONE',  ( 0.0000000000000000000, 0.0000000000000000000, 0.0000000000000000000 ) ) ;
#93 = COLOUR_RGB ( '',0.7921568627450980005, 0.8196078431372548767, 0.9333333333333333481 ) ;
#94 = APPLICATION_PROTOCOL_DEFINITION ( 'draft international standard', 'automotive_design', 1998, #239 ) ;
#95 = DIMENSIONAL_EXPONENTS ( 1.000000000000000000, 0.0000000000000000000, 0.0000000000000000000, 0.0000000000000000000, 0.0000000000000000000, 0.0000000000000000000, 0.0000000000000000000 ) ;
#96 = CARTESIAN_POINT ( 'NONE',  ( -0.004000000000000000083, 4.898587196589413537E-19, 0.0000000000000000000 ) ) ;
#97 = LENGTH_MEASURE_WITH_UNIT ( LENGTH_MEASURE( 0.02539999999999999897 ), #20 );
#98 = PRODUCT_DEFINITION_CONTEXT ( 'detailed design', #239, 'design' ) ;
#99 = ORIENTED_EDGE ( 'NONE', *, *, #41, .F. ) ;
#100 = CIRCLE ( 'NONE', #248, 0.004000000000000000083 ) ;
#101 = ORIENTED_EDGE ( 'NONE', *, *, #219, .F. ) ;
#102 = DIRECTION ( 'NONE',  ( -1.000000000000000000, 0.0000000000000000000, 0.0000000000000000000 ) ) ;
#103 = EDGE_CURVE ( 'NONE', #65, #42, #64, .T. ) ;
#104 = LINE ( 'NONE', #85, #62 ) ;
#105 = DIRECTION ( 'NONE',  ( 1.000000000000000000, 0.0000000000000000000, 0.0000000000000000000 ) ) ;
#106 = CIRCLE ( 'NONE', #50, 0.09375000000000001388 ) ;
#107 = DIRECTION ( 'NONE',  ( -0.7071067811865490160, -8.659560562354951347E-17, -0.7071067811865460184 ) ) ;
#108 = CARTESIAN_POINT ( 'NONE',  ( 0.0000000000000000000, 0.0000000000000000000, 0.0000000000000000000 ) ) ;
#109 = MANIFOLD_SOLID_BREP ( 'Mirror1', #194 ) ;
#110 = PRESENTATION_LAYER_ASSIGNMENT (  '', '', ( #185 ) ) ;
#111 = CONICAL_SURFACE ( 'NONE', #23, 0.004000000000000000083, 0.7853981633974503884 ) ;
#112 = CYLINDRICAL_SURFACE ( 'NONE', #71, 0.09375000000000001388 ) ;
#113 = VERTEX_POINT ( 'NONE', #205 ) ;
#114 = ORIENTED_EDGE ( 'NONE', *, *, #41, .T. ) ;
#115 = CARTESIAN_POINT ( 'NONE',  ( -0.004000000000000000083, 5.985461230832689413E-18, 0.0000000000000000000 ) ) ;
#116 = ORIENTED_EDGE ( 'NONE', *, *, #169, .F. ) ;
#117 = EDGE_LOOP ( 'NONE', ( #220, #142, #127, #116 ) ) ;
#118 = EDGE_LOOP ( 'NONE', ( #174, #217, #144, #35 ) ) ;
#119 = MECHANICAL_DESIGN_GEOMETRIC_PRESENTATION_REPRESENTATION (  '', ( #181 ), #130 ) ;
#120 = EDGE_CURVE ( 'NONE', #113, #218, #161, .T. ) ;
#121 = EDGE_LOOP ( 'NONE', ( #182, #4, #216, #101 ) ) ;
#122 = CARTESIAN_POINT ( 'NONE',  ( 0.0000000000000000000, 0.0000000000000000000, 2.000000000000000000 ) ) ;
#123 = CARTESIAN_POINT ( 'NONE',  ( 0.0000000000000000000, 0.0000000000000000000, 0.0000000000000000000 ) ) ;
#124 = DIRECTION ( 'NONE',  ( -0.0000000000000000000, -0.0000000000000000000, -1.000000000000000000 ) ) ;
#125 = CIRCLE ( 'NONE', #32, 0.09375000000000001388 ) ;
#126 = CARTESIAN_POINT ( 'NONE',  ( 0.004000000000000000083, 0.0000000000000000000, 0.0000000000000000000 ) ) ;
#127 = ORIENTED_EDGE ( 'NONE', *, *, #179, .T. ) ;
#128 = CARTESIAN_POINT ( 'NONE',  ( 0.0000000000000000000, 0.0000000000000000000, 2.000000000000000000 ) ) ;
#129 = VECTOR ( 'NONE', #107, 39.37007874015748143 ) ;
#130 =( GEOMETRIC_REPRESENTATION_CONTEXT ( 3 ) GLOBAL_UNCERTAINTY_ASSIGNED_CONTEXT ( ( #178 ) ) GLOBAL_UNIT_ASSIGNED_CONTEXT ( ( #158, #175, #19 ) ) REPRESENTATION_CONTEXT ( 'NONE', 'WORKASPACE' ) );
#131 = ADVANCED_FACE ( 'NONE', ( #89 ), #193, .T. ) ;
#132 = LENGTH_MEASURE_WITH_UNIT ( LENGTH_MEASURE( 0.02539999999999999897 ), #170 );
#133 = EDGE_CURVE ( 'NONE', #187, #42, #104, .T. ) ;
#134 = DIRECTION ( 'NONE',  ( 0.0000000000000000000, 0.0000000000000000000, -1.000000000000000000 ) ) ;
#135 = APPLICATION_CONTEXT ( 'automotive_design' ) ;
#136 = EDGE_CURVE ( 'NONE', #65, #218, #125, .T. ) ;
#137 = EDGE_LOOP ( 'NONE', ( #82, #6, #156, #165 ) ) ;
#138 = CARTESIAN_POINT ( 'NONE',  ( 0.004000000000000000083, 0.0000000000000000000, 2.000000000000000000 ) ) ;
#139 = AXIS2_PLACEMENT_3D ( 'NONE', #128, #199, #163 ) ;
#140 = SURFACE_STYLE_FILL_AREA ( #242 ) ;
#141 =( GEOMETRIC_REPRESENTATION_CONTEXT ( 3 ) GLOBAL_UNCERTAINTY_ASSIGNED_CONTEXT ( ( #60 ) ) GLOBAL_UNIT_ASSIGNED_CONTEXT ( ( #150, #152, #192 ) ) REPRESENTATION_CONTEXT ( 'NONE', 'WORKASPACE' ) );
#142 = ORIENTED_EDGE ( 'NONE', *, *, #229, .T. ) ;
#143 = DIRECTION ( 'NONE',  ( -0.0000000000000000000, -0.0000000000000000000, -1.000000000000000000 ) ) ;
#144 = ORIENTED_EDGE ( 'NONE', *, *, #219, .T. ) ;
#145 = FACE_OUTER_BOUND ( 'NONE', #39, .T. ) ;
#146 = DIRECTION ( 'NONE',  ( 0.0000000000000000000, 0.0000000000000000000, 1.000000000000000000 ) ) ;
#147 = CYLINDRICAL_SURFACE ( 'NONE', #87, 0.09375000000000001388 ) ;
#148 = DIRECTION ( 'NONE',  ( 0.0000000000000000000, 0.0000000000000000000, -1.000000000000000000 ) ) ;
#149 = DIRECTION ( 'NONE',  ( -1.000000000000000000, 0.0000000000000000000, 0.0000000000000000000 ) ) ;
#150 =( CONVERSION_BASED_UNIT ( 'INCH', #30 ) LENGTH_UNIT ( ) NAMED_UNIT ( #77 ) );
#151 = ADVANCED_FACE ( 'NONE', ( #27 ), #153, .T. ) ;
#152 =( NAMED_UNIT ( * ) PLANE_ANGLE_UNIT ( ) SI_UNIT ( $, .RADIAN. ) );
#153 = CONICAL_SURFACE ( 'NONE', #204, 0.004000000000000000083, 0.7853981633974503884 ) ;
#154 = SURFACE_STYLE_USAGE ( .BOTH. , #180 ) ;
#155 = EDGE_CURVE ( 'NONE', #187, #58, #69, .T. ) ;
#156 = ORIENTED_EDGE ( 'NONE', *, *, #133, .T. ) ;
#157 = MECHANICAL_DESIGN_GEOMETRIC_PRESENTATION_REPRESENTATION (  '', ( #185 ), #141 ) ;
#158 =( CONVERSION_BASED_UNIT ( 'INCH', #97 ) LENGTH_UNIT ( ) NAMED_UNIT ( #95 ) );
#159 = CIRCLE ( 'NONE', #11, 0.004000000000000000083 ) ;
#160 = ORIENTED_EDGE ( 'NONE', *, *, #229, .F. ) ;
#161 = LINE ( 'NONE', #70, #129 ) ;
#162 = DIRECTION ( 'NONE',  ( -1.000000000000000000, 0.0000000000000000000, 0.0000000000000000000 ) ) ;
#163 = DIRECTION ( 'NONE',  ( 1.000000000000000000, 0.0000000000000000000, -0.0000000000000000000 ) ) ;
#164 = CONICAL_SURFACE ( 'NONE', #22, 0.004000000000000000083, 0.7853981633974503884 ) ;
#165 = ORIENTED_EDGE ( 'NONE', *, *, #75, .T. ) ;
#166 = CARTESIAN_POINT ( 'NONE',  ( 0.0000000000000000000, 0.0000000000000000000, 0.0000000000000000000 ) ) ;
#167 = CARTESIAN_POINT ( 'NONE',  ( 0.0000000000000000000, 0.0000000000000000000, 2.000000000000000000 ) ) ;
#168 = DIRECTION ( 'NONE',  ( 0.0000000000000000000, 0.0000000000000000000, -1.000000000000000000 ) ) ;
#169 = EDGE_CURVE ( 'NONE', #218, #65, #106, .T. ) ;
#170 =( LENGTH_UNIT ( ) NAMED_UNIT ( * ) SI_UNIT ( $, .METRE. ) );
#171 = ADVANCED_FACE ( 'NONE', ( #10 ), #164, .T. ) ;
#172 = AXIS2_PLACEMENT_3D ( 'NONE', #68, #227, #46 ) ;
#173 = DIRECTION ( 'NONE',  ( -0.7071067811865490160, 8.659560562354951347E-17, 0.7071067811865460184 ) ) ;
#174 = ORIENTED_EDGE ( 'NONE', *, *, #103, .F. ) ;
#175 =( NAMED_UNIT ( * ) PLANE_ANGLE_UNIT ( ) SI_UNIT ( $, .RADIAN. ) );
#176 = CIRCLE ( 'NONE', #53, 0.09375000000000001388 ) ;
#177 = CARTESIAN_POINT ( 'NONE',  ( 0.09375000000000001388, 1.148106374200643863E-17, 1.910250000000000226 ) ) ;
#178 = UNCERTAINTY_MEASURE_WITH_UNIT (LENGTH_MEASURE( 1.000000000000000082E-05 ), #158, 'distance_accuracy_value', 'NONE');
#179 = EDGE_CURVE ( 'NONE', #51, #65, #247, .T. ) ;
#180 = SURFACE_SIDE_STYLE ('',( #140 ) ) ;
#181 = STYLED_ITEM ( 'NONE', ( #211 ), #109 ) ;
#182 = ORIENTED_EDGE ( 'NONE', *, *, #169, .T. ) ;
#183 = DIRECTION ( 'NONE',  ( -0.0000000000000000000, -0.0000000000000000000, -1.000000000000000000 ) ) ;
#184 = DIRECTION ( 'NONE',  ( 1.000000000000000000, 0.0000000000000000000, 0.0000000000000000000 ) ) ;
#185 = STYLED_ITEM ( 'NONE', ( #31 ), #3 ) ;
#186 = EDGE_CURVE ( 'NONE', #58, #187, #100, .T. ) ;
#187 = VERTEX_POINT ( 'NONE', #126 ) ;
#188 = DIRECTION ( 'NONE',  ( -1.000000000000000000, 0.0000000000000000000, 0.0000000000000000000 ) ) ;
#189 = DIRECTION ( 'NONE',  ( -1.000000000000000000, 0.0000000000000000000, 0.0000000000000000000 ) ) ;
#190 = SURFACE_STYLE_FILL_AREA ( #29 ) ;
#191 =( LENGTH_UNIT ( ) NAMED_UNIT ( * ) SI_UNIT ( $, .METRE. ) );
#192 =( NAMED_UNIT ( * ) SI_UNIT ( $, .STERADIAN. ) SOLID_ANGLE_UNIT ( ) );
#193 = CONICAL_SURFACE ( 'NONE', #38, 0.004000000000000000083, 0.7853981633974503884 ) ;
#194 = CLOSED_SHELL ( 'NONE', ( #151, #131, #84, #222, #171, #225, #73, #249 ) ) ;
#195 = ORIENTED_EDGE ( 'NONE', *, *, #155, .T. ) ;
#196 = DIRECTION ( 'NONE',  ( -0.0000000000000000000, -0.0000000000000000000, -1.000000000000000000 ) ) ;
#197 = DIRECTION ( 'NONE',  ( 1.000000000000000000, 0.0000000000000000000, 0.0000000000000000000 ) ) ;
#198 = EDGE_LOOP ( 'NONE', ( #114, #18, #241, #43 ) ) ;
#199 = DIRECTION ( 'NONE',  ( 0.0000000000000000000, 0.0000000000000000000, 1.000000000000000000 ) ) ;
#200 = DIRECTION ( 'NONE',  ( 0.7071067811865490160, 0.0000000000000000000, 0.7071067811865460184 ) ) ;
#201 = EDGE_CURVE ( 'NONE', #80, #42, #213, .T. ) ;
#202 = CARTESIAN_POINT ( 'NONE',  ( -0.09375000000000001388, 0.0000000000000000000, 2.000000000000000000 ) ) ;
#203 = VECTOR ( 'NONE', #143, 39.37007874015748143 ) ;
#204 = AXIS2_PLACEMENT_3D ( 'NONE', #206, #168, #105 ) ;
#205 = CARTESIAN_POINT ( 'NONE',  ( -0.004000000000000000083, -5.985461230832689413E-18, 2.000000000000000000 ) ) ;
#206 = CARTESIAN_POINT ( 'NONE',  ( 0.0000000000000000000, 0.0000000000000000000, 2.000000000000000000 ) ) ;
#207 = SURFACE_STYLE_USAGE ( .BOTH. , #1 ) ;
#208 = AXIS2_PLACEMENT_3D ( 'NONE', #122, #148, #52 ) ;
#209 = PRESENTATION_LAYER_ASSIGNMENT (  '', '', ( #181 ) ) ;
#210 = ORIENTED_EDGE ( 'NONE', *, *, #133, .F. ) ;
#211 = PRESENTATION_STYLE_ASSIGNMENT (( #154 ) ) ;
#212 = PRODUCT_DEFINITION_SHAPE ( 'NONE', 'NONE',  #78 ) ;
#213 = CIRCLE ( 'NONE', #37, 0.09375000000000001388 ) ;
#214 = ORIENTED_EDGE ( 'NONE', *, *, #201, .T. ) ;
#215 = CARTESIAN_POINT ( 'NONE',  ( 0.09375000000000001388, 1.148106374200643863E-17, 0.08974999999999963562 ) ) ;
#216 = ORIENTED_EDGE ( 'NONE', *, *, #201, .F. ) ;
#217 = ORIENTED_EDGE ( 'NONE', *, *, #136, .T. ) ;
#218 = VERTEX_POINT ( 'NONE', #7 ) ;
#219 = EDGE_CURVE ( 'NONE', #218, #80, #66, .T. ) ;
#220 = ORIENTED_EDGE ( 'NONE', *, *, #120, .F. ) ;
#221 = DIRECTION ( 'NONE',  ( -0.0000000000000000000, -0.0000000000000000000, -1.000000000000000000 ) ) ;
#222 = ADVANCED_FACE ( 'NONE', ( #83 ), #147, .T. ) ;
#223 = CARTESIAN_POINT ( 'NONE',  ( 0.0000000000000000000, 0.0000000000000000000, 1.910250000000000226 ) ) ;
#224 = DIRECTION ( 'NONE',  ( 0.0000000000000000000, 0.0000000000000000000, -1.000000000000000000 ) ) ;
#225 = ADVANCED_FACE ( 'NONE', ( #145 ), #9, .F. ) ;
#226 = DIRECTION ( 'NONE',  ( 1.000000000000000000, 0.0000000000000000000, 0.0000000000000000000 ) ) ;
#227 = DIRECTION ( 'NONE',  ( 0.0000000000000000000, 0.0000000000000000000, 1.000000000000000000 ) ) ;
#228 = DIRECTION ( 'NONE',  ( 0.0000000000000000000, 0.0000000000000000000, 1.000000000000000000 ) ) ;
#229 = EDGE_CURVE ( 'NONE', #113, #51, #244, .T. ) ;
#230 =( NAMED_UNIT ( * ) SI_UNIT ( $, .STERADIAN. ) SOLID_ANGLE_UNIT ( ) );
#231 = AXIS2_PLACEMENT_3D ( 'NONE', #92, #228, #232 ) ;
#232 = DIRECTION ( 'NONE',  ( 1.000000000000000000, 0.0000000000000000000, 0.0000000000000000000 ) ) ;
#233 = PRODUCT ( 'Micro_RNC-187-2', 'Micro_RNC-187-2', '', ( #74 ) ) ;
#234 = COLOUR_RGB ( '',0.7921568627450980005, 0.8196078431372548767, 0.9333333333333333481 ) ;
#235 = EDGE_LOOP ( 'NONE', ( #99, #160 ) ) ;
#236 = DIRECTION ( 'NONE',  ( 0.0000000000000000000, 0.0000000000000000000, -1.000000000000000000 ) ) ;
#237 = ORIENTED_EDGE ( 'NONE', *, *, #186, .F. ) ;
#238 = CARTESIAN_POINT ( 'NONE',  ( 0.0000000000000000000, 0.0000000000000000000, 2.000000000000000000 ) ) ;
#239 = APPLICATION_CONTEXT ( 'automotive_design' ) ;
#240 = CARTESIAN_POINT ( 'NONE',  ( 0.0000000000000000000, 0.0000000000000000000, 2.000000000000000000 ) ) ;
#241 = ORIENTED_EDGE ( 'NONE', *, *, #136, .F. ) ;
#242 = FILL_AREA_STYLE ('',( #24 ) ) ;
#243 = ORIENTED_EDGE ( 'NONE', *, *, #57, .T. ) ;
#244 = CIRCLE ( 'NONE', #208, 0.004000000000000000083 ) ;
#245 = CARTESIAN_POINT ( 'NONE',  ( 0.0000000000000000000, 0.0000000000000000000, 0.08974999999999963562 ) ) ;
#246 = DIRECTION ( 'NONE',  ( -0.0000000000000000000, -0.0000000000000000000, -1.000000000000000000 ) ) ;
#247 = LINE ( 'NONE', #48, #86 ) ;
#248 = AXIS2_PLACEMENT_3D ( 'NONE', #166, #124, #149 ) ;
#249 = ADVANCED_FACE ( 'NONE', ( #54 ), #13, .T. ) ;
ENDSEC;
END-ISO-10303-21;
