ISO-10303-21;
HEADER;
FILE_DESCRIPTION (( 'STEP AP214' ),
    '1' );
FILE_NAME ('Micro_EMS-187-4.STEP',
    '2021-09-01T17:46:24',
    ( '' ),
    ( '' ),
    'SwSTEP 2.0',
    'SolidWorks 2020',
    '' );
FILE_SCHEMA (( 'AUTOMOTIVE_DESIGN' ));
ENDSEC;

DATA;
#1 = ORIENTED_EDGE ( 'NONE', *, *, #115, .T. ) ;
#2 = ORIENTED_EDGE ( 'NONE', *, *, #158, .F. ) ;
#3 = EDGE_CURVE ( 'NONE', #29, #139, #64, .T. ) ;
#4 = ADVANCED_FACE ( 'NONE', ( #142 ), #192, .F. ) ;
#5 = CARTESIAN_POINT ( 'NONE',  ( 7.654042494670957853E-17, 0.0000000000000000000, 0.6250000000000000000 ) ) ;
#6 = CONICAL_SURFACE ( 'NONE', #277, 0.07874999999999980627, 0.7853981633974466137 ) ;
#7 = CARTESIAN_POINT ( 'NONE',  ( 0.09375000000000001388, 1.148106374200643863E-17, 1.984999999999999654 ) ) ;
#8 = DIRECTION ( 'NONE',  ( 1.000000000000000000, 0.0000000000000000000, -0.0000000000000000000 ) ) ;
#9 = CARTESIAN_POINT ( 'NONE',  ( -0.09375000000000001388, 0.0000000000000000000, 2.000000000000000000 ) ) ;
#10 = PRODUCT_DEFINITION_SHAPE ( 'NONE', 'NONE',  #134 ) ;
#11 = CARTESIAN_POINT ( 'NONE',  ( 7.654042494670957853E-17, 0.0000000000000000000, 0.6250000000000000000 ) ) ;
#12 = SURFACE_STYLE_USAGE ( .BOTH. , #152 ) ;
#13 = FACE_OUTER_BOUND ( 'NONE', #111, .T. ) ;
#14 = CIRCLE ( 'NONE', #132, 0.07874999999999980627 ) ;
#15 = PRESENTATION_LAYER_ASSIGNMENT (  '', '', ( #74 ) ) ;
#16 = DIRECTION ( 'NONE',  ( -1.224646799147353207E-16, -0.0000000000000000000, -1.000000000000000000 ) ) ;
#17 = AXIS2_PLACEMENT_3D ( 'NONE', #54, #85, #218 ) ;
#18 = DIMENSIONAL_EXPONENTS ( 1.000000000000000000, 0.0000000000000000000, 0.0000000000000000000, 0.0000000000000000000, 0.0000000000000000000, 0.0000000000000000000, 0.0000000000000000000 ) ;
#19 = SURFACE_STYLE_FILL_AREA ( #292 ) ;
#20 = EDGE_CURVE ( 'NONE', #139, #29, #73, .T. ) ;
#21 = ORIENTED_EDGE ( 'NONE', *, *, #191, .F. ) ;
#22 = SURFACE_STYLE_FILL_AREA ( #163 ) ;
#23 = AXIS2_PLACEMENT_3D ( 'NONE', #244, #81, #83 ) ;
#24 = ORIENTED_EDGE ( 'NONE', *, *, #66, .T. ) ;
#25 = EDGE_LOOP ( 'NONE', ( #297, #280, #75, #274 ) ) ;
#26 = LINE ( 'NONE', #270, #193 ) ;
#27 = ORIENTED_EDGE ( 'NONE', *, *, #271, .T. ) ;
#28 = STYLED_ITEM ( 'NONE', ( #201 ), #251 ) ;
#29 = VERTEX_POINT ( 'NONE', #7 ) ;
#30 = EDGE_CURVE ( 'NONE', #161, #260, #102, .T. ) ;
#31 = SHAPE_DEFINITION_REPRESENTATION ( #10, #148 ) ;
#32 = CARTESIAN_POINT ( 'NONE',  ( 0.0000000000000000000, 0.0000000000000000000, 2.000000000000000000 ) ) ;
#33 = CARTESIAN_POINT ( 'NONE',  ( 0.0000000000000000000, 0.0000000000000000000, 0.0000000000000000000 ) ) ;
#34 = COLOUR_RGB ( '',0.7921568627450980005, 0.8196078431372548767, 0.9333333333333333481 ) ;
#35 = FACE_OUTER_BOUND ( 'NONE', #190, .T. ) ;
#36 = CARTESIAN_POINT ( 'NONE',  ( -0.09375000000000001388, 0.0000000000000000000, 1.984999999999999654 ) ) ;
#37 = CARTESIAN_POINT ( 'NONE',  ( -0.09365624999999992706, 1.147532321013543253E-17, 0.6250000000000000000 ) ) ;
#38 = AXIS2_PLACEMENT_3D ( 'NONE', #151, #246, #129 ) ;
#39 = DIRECTION ( 'NONE',  ( 0.0000000000000000000, 0.0000000000000000000, -1.000000000000000000 ) ) ;
#40 = EDGE_CURVE ( 'NONE', #161, #189, #101, .T. ) ;
#41 =( LENGTH_UNIT ( ) NAMED_UNIT ( * ) SI_UNIT ( $, .METRE. ) );
#42 = DIRECTION ( 'NONE',  ( -1.000000000000000000, 0.0000000000000000000, 0.0000000000000000000 ) ) ;
#43 = CIRCLE ( 'NONE', #206, 0.09365624999999999645 ) ;
#44 = DIRECTION ( 'NONE',  ( -1.000000000000000000, 0.0000000000000000000, 0.0000000000000000000 ) ) ;
#45 = EDGE_CURVE ( 'NONE', #165, #29, #243, .T. ) ;
#46 =( LENGTH_UNIT ( ) NAMED_UNIT ( * ) SI_UNIT ( $, .METRE. ) );
#47 = ORIENTED_EDGE ( 'NONE', *, *, #223, .T. ) ;
#48 = FACE_OUTER_BOUND ( 'NONE', #236, .T. ) ;
#49 = AXIS2_PLACEMENT_3D ( 'NONE', #171, #259, #144 ) ;
#50 = UNCERTAINTY_MEASURE_WITH_UNIT (LENGTH_MEASURE( 1.000000000000000082E-05 ), #178, 'distance_accuracy_value', 'NONE');
#51 = ORIENTED_EDGE ( 'NONE', *, *, #213, .T. ) ;
#52 = DIRECTION ( 'NONE',  ( 0.0000000000000000000, 0.0000000000000000000, -1.000000000000000000 ) ) ;
#53 = APPLICATION_PROTOCOL_DEFINITION ( 'draft international standard', 'automotive_design', 1998, #241 ) ;
#54 = CARTESIAN_POINT ( 'NONE',  ( 0.0000000000000000000, 0.0000000000000000000, 1.984999999999999654 ) ) ;
#55 = AXIS2_PLACEMENT_3D ( 'NONE', #176, #247, #265 ) ;
#56 = EDGE_CURVE ( 'NONE', #235, #165, #276, .T. ) ;
#57 = DIRECTION ( 'NONE',  ( -0.1736481776669311639, 2.126576849575783008E-17, 0.9848077530122080203 ) ) ;
#58 = ORIENTED_EDGE ( 'NONE', *, *, #191, .T. ) ;
#59 = ORIENTED_EDGE ( 'NONE', *, *, #56, .T. ) ;
#60 = AXIS2_PLACEMENT_3D ( 'NONE', #220, #239, #240 ) ;
#61 = AXIS2_PLACEMENT_3D ( 'NONE', #238, #216, #98 ) ;
#62 = DIRECTION ( 'NONE',  ( 1.000000000000000000, 0.0000000000000000000, 0.0000000000000000000 ) ) ;
#63 = DIRECTION ( 'NONE',  ( -1.224646799147353207E-16, -0.0000000000000000000, -1.000000000000000000 ) ) ;
#64 = CIRCLE ( 'NONE', #17, 0.09375000000000001388 ) ;
#65 = CARTESIAN_POINT ( 'NONE',  ( -0.07874999999999980627, 0.0000000000000000000, 2.000000000000000000 ) ) ;
#66 = EDGE_CURVE ( 'NONE', #165, #235, #14, .T. ) ;
#67 = AXIS2_PLACEMENT_3D ( 'NONE', #5, #284, #256 ) ;
#68 = FACE_OUTER_BOUND ( 'NONE', #208, .T. ) ;
#69 =( NAMED_UNIT ( * ) SI_UNIT ( $, .STERADIAN. ) SOLID_ANGLE_UNIT ( ) );
#70 = DIMENSIONAL_EXPONENTS ( 1.000000000000000000, 0.0000000000000000000, 0.0000000000000000000, 0.0000000000000000000, 0.0000000000000000000, 0.0000000000000000000, 0.0000000000000000000 ) ;
#71 = LINE ( 'NONE', #205, #79 ) ;
#72 =( NAMED_UNIT ( * ) SI_UNIT ( $, .STERADIAN. ) SOLID_ANGLE_UNIT ( ) );
#73 = CIRCLE ( 'NONE', #23, 0.09375000000000001388 ) ;
#74 = STYLED_ITEM ( 'NONE', ( #228 ), #148 ) ;
#75 = ORIENTED_EDGE ( 'NONE', *, *, #20, .F. ) ;
#76 = ADVANCED_FACE ( 'NONE', ( #35 ), #210, .T. ) ;
#77 = ORIENTED_EDGE ( 'NONE', *, *, #272, .F. ) ;
#78 = CARTESIAN_POINT ( 'NONE',  ( 0.0000000000000000000, 0.0000000000000000000, 0.0000000000000000000 ) ) ;
#79 = VECTOR ( 'NONE', #232, 39.37007874015748143 ) ;
#80 = PRODUCT_CONTEXT ( 'NONE', #188, 'mechanical' ) ;
#81 = DIRECTION ( 'NONE',  ( 0.0000000000000000000, 0.0000000000000000000, -1.000000000000000000 ) ) ;
#82 = DIRECTION ( 'NONE',  ( 1.000000000000000000, 0.0000000000000000000, 0.0000000000000000000 ) ) ;
#83 = DIRECTION ( 'NONE',  ( 1.000000000000000000, 0.0000000000000000000, 0.0000000000000000000 ) ) ;
#84 = AXIS2_PLACEMENT_3D ( 'NONE', #127, #86, #42 ) ;
#85 = DIRECTION ( 'NONE',  ( 0.0000000000000000000, 0.0000000000000000000, -1.000000000000000000 ) ) ;
#86 = DIRECTION ( 'NONE',  ( -0.0000000000000000000, -0.0000000000000000000, -1.000000000000000000 ) ) ;
#87 = CARTESIAN_POINT ( 'NONE',  ( 0.0000000000000000000, 0.0000000000000000000, 0.0000000000000000000 ) ) ;
#88 = DIRECTION ( 'NONE',  ( 1.000000000000000000, 0.0000000000000000000, -0.0000000000000000000 ) ) ;
#89 = LENGTH_MEASURE_WITH_UNIT ( LENGTH_MEASURE( 0.02539999999999999897 ), #41 );
#90 = CARTESIAN_POINT ( 'NONE',  ( 0.09365625000000006584, 0.0000000000000000000, 0.6250000000000000000 ) ) ;
#91 = ORIENTED_EDGE ( 'NONE', *, *, #264, .T. ) ;
#92 = ADVANCED_FACE ( 'NONE', ( #285 ), #100, .T. ) ;
#93 = CLOSED_SHELL ( 'NONE', ( #169, #76, #200, #92, #181, #233, #252, #170, #112, #4 ) ) ;
#94 = EDGE_LOOP ( 'NONE', ( #119, #47 ) ) ;
#95 = LENGTH_MEASURE_WITH_UNIT ( LENGTH_MEASURE( 0.02539999999999999897 ), #46 );
#96 = ORIENTED_EDGE ( 'NONE', *, *, #271, .F. ) ;
#97 = ORIENTED_EDGE ( 'NONE', *, *, #30, .T. ) ;
#98 = DIRECTION ( 'NONE',  ( 1.000000000000000000, 0.0000000000000000000, 0.0000000000000000000 ) ) ;
#99 = ORIENTED_EDGE ( 'NONE', *, *, #231, .F. ) ;
#100 = CYLINDRICAL_SURFACE ( 'NONE', #49, 0.09375000000000001388 ) ;
#101 = LINE ( 'NONE', #197, #147 ) ;
#102 = LINE ( 'NONE', #145, #278 ) ;
#103 = DIRECTION ( 'NONE',  ( -0.0000000000000000000, -0.0000000000000000000, -1.000000000000000000 ) ) ;
#104 = PRODUCT_RELATED_PRODUCT_CATEGORY ( 'part', '', ( #290 ) ) ;
#105 = CARTESIAN_POINT ( 'NONE',  ( 0.07874999999999980627, 1.056257864264590573E-17, 2.000000000000000000 ) ) ;
#106 = DIRECTION ( 'NONE',  ( 0.0000000000000000000, 0.0000000000000000000, 1.000000000000000000 ) ) ;
#107 = DIRECTION ( 'NONE',  ( -1.000000000000000000, 0.0000000000000000000, 1.224646799147352961E-16 ) ) ;
#108 = CARTESIAN_POINT ( 'NONE',  ( 0.09375000000000006939, 1.148106374200644633E-17, 0.6255316826705892286 ) ) ;
#109 = CARTESIAN_POINT ( 'NONE',  ( 1.404618771449245766E-33, 0.0000000000000000000, 1.146958267826442798E-17 ) ) ;
#110 = LINE ( 'NONE', #157, #167 ) ;
#111 = EDGE_LOOP ( 'NONE', ( #59, #24 ) ) ;
#112 = ADVANCED_FACE ( 'NONE', ( #174 ), #194, .T. ) ;
#113 =( GEOMETRIC_REPRESENTATION_CONTEXT ( 3 ) GLOBAL_UNCERTAINTY_ASSIGNED_CONTEXT ( ( #159 ) ) GLOBAL_UNIT_ASSIGNED_CONTEXT ( ( #160, #114, #117 ) ) REPRESENTATION_CONTEXT ( 'NONE', 'WORKASPACE' ) );
#114 =( NAMED_UNIT ( * ) PLANE_ANGLE_UNIT ( ) SI_UNIT ( $, .RADIAN. ) );
#115 = EDGE_CURVE ( 'NONE', #164, #189, #211, .T. ) ;
#116 = VERTEX_POINT ( 'NONE', #150 ) ;
#117 =( NAMED_UNIT ( * ) SI_UNIT ( $, .STERADIAN. ) SOLID_ANGLE_UNIT ( ) );
#118 = UNCERTAINTY_MEASURE_WITH_UNIT (LENGTH_MEASURE( 1.000000000000000082E-05 ), #135, 'distance_accuracy_value', 'NONE');
#119 = ORIENTED_EDGE ( 'NONE', *, *, #158, .T. ) ;
#120 = LENGTH_MEASURE_WITH_UNIT ( LENGTH_MEASURE( 0.02539999999999999897 ), #273 );
#121 = PRESENTATION_LAYER_ASSIGNMENT (  '', '', ( #28 ) ) ;
#122 = ORIENTED_EDGE ( 'NONE', *, *, #272, .T. ) ;
#123 = EDGE_LOOP ( 'NONE', ( #27, #51, #2, #281 ) ) ;
#124 = DIRECTION ( 'NONE',  ( -1.224646799147353207E-16, -0.0000000000000000000, -1.000000000000000000 ) ) ;
#125 = EDGE_LOOP ( 'NONE', ( #214, #58, #97, #282 ) ) ;
#126 = LINE ( 'NONE', #9, #128 ) ;
#127 = CARTESIAN_POINT ( 'NONE',  ( 0.0000000000000000000, 0.0000000000000000000, 2.000000000000000000 ) ) ;
#128 = VECTOR ( 'NONE', #103, 39.37007874015748143 ) ;
#129 = DIRECTION ( 'NONE',  ( 1.000000000000000000, 0.0000000000000000000, 0.0000000000000000000 ) ) ;
#130 = DIMENSIONAL_EXPONENTS ( 1.000000000000000000, 0.0000000000000000000, 0.0000000000000000000, 0.0000000000000000000, 0.0000000000000000000, 0.0000000000000000000, 0.0000000000000000000 ) ;
#131 = DIRECTION ( 'NONE',  ( -1.000000000000000000, 0.0000000000000000000, 1.224646799147352961E-16 ) ) ;
#132 = AXIS2_PLACEMENT_3D ( 'NONE', #32, #215, #82 ) ;
#133 = FACE_OUTER_BOUND ( 'NONE', #219, .T. ) ;
#134 = PRODUCT_DEFINITION ( 'UNKNOWN', '', #153, #295 ) ;
#135 =( CONVERSION_BASED_UNIT ( 'INCH', #120 ) LENGTH_UNIT ( ) NAMED_UNIT ( #70 ) );
#136 = ORIENTED_EDGE ( 'NONE', *, *, #20, .T. ) ;
#137 = CARTESIAN_POINT ( 'NONE',  ( -0.09365624999999999645, 0.0000000000000000000, 2.293916535652885596E-17 ) ) ;
#138 = ORIENTED_EDGE ( 'NONE', *, *, #56, .F. ) ;
#139 = VERTEX_POINT ( 'NONE', #36 ) ;
#140 = DIRECTION ( 'NONE',  ( -1.224646799147353207E-16, -0.0000000000000000000, -1.000000000000000000 ) ) ;
#141 = CIRCLE ( 'NONE', #182, 0.09365624999999999645 ) ;
#142 = FACE_OUTER_BOUND ( 'NONE', #94, .T. ) ;
#143 = CARTESIAN_POINT ( 'NONE',  ( 0.07874999999999980627, 9.644093543285380530E-18, 2.000000000000000000 ) ) ;
#144 = DIRECTION ( 'NONE',  ( -1.000000000000000000, 0.0000000000000000000, 0.0000000000000000000 ) ) ;
#145 = CARTESIAN_POINT ( 'NONE',  ( -0.09365624999999999645, 0.0000000000000000000, 1.146958267826442798E-17 ) ) ;
#146 = AXIS2_PLACEMENT_3D ( 'NONE', #184, #140, #268 ) ;
#147 = VECTOR ( 'NONE', #57, 39.37007874015747433 ) ;
#148 = ADVANCED_BREP_SHAPE_REPRESENTATION ( 'Micro_EMS-187-4', ( #251, #61 ), #113 ) ;
#149 = EDGE_CURVE ( 'NONE', #139, #189, #126, .T. ) ;
#150 = CARTESIAN_POINT ( 'NONE',  ( 0.09365624999999999645, 1.146958267826442798E-17, 0.0000000000000000000 ) ) ;
#151 = CARTESIAN_POINT ( 'NONE',  ( 7.654042494670957853E-17, 0.0000000000000000000, 0.6250000000000000000 ) ) ;
#152 = SURFACE_SIDE_STYLE ('',( #19 ) ) ;
#153 = PRODUCT_DEFINITION_FORMATION_WITH_SPECIFIED_SOURCE ( 'ANY', '', #290, .NOT_KNOWN. ) ;
#154 = DIRECTION ( 'NONE',  ( -1.224646799147353207E-16, -0.0000000000000000000, -1.000000000000000000 ) ) ;
#155 = FACE_OUTER_BOUND ( 'NONE', #123, .T. ) ;
#156 =( GEOMETRIC_REPRESENTATION_CONTEXT ( 3 ) GLOBAL_UNCERTAINTY_ASSIGNED_CONTEXT ( ( #50 ) ) GLOBAL_UNIT_ASSIGNED_CONTEXT ( ( #178, #267, #69 ) ) REPRESENTATION_CONTEXT ( 'NONE', 'WORKASPACE' ) );
#157 = CARTESIAN_POINT ( 'NONE',  ( 0.09375000000000001388, 1.148106374200643863E-17, 2.000000000000000000 ) ) ;
#158 = EDGE_CURVE ( 'NONE', #260, #116, #269, .T. ) ;
#159 = UNCERTAINTY_MEASURE_WITH_UNIT (LENGTH_MEASURE( 1.000000000000000082E-05 ), #160, 'distance_accuracy_value', 'NONE');
#160 =( CONVERSION_BASED_UNIT ( 'INCH', #95 ) LENGTH_UNIT ( ) NAMED_UNIT ( #130 ) );
#161 = VERTEX_POINT ( 'NONE', #37 ) ;
#162 = AXIS2_PLACEMENT_3D ( 'NONE', #199, #39, #177 ) ;
#163 = FILL_AREA_STYLE ('',( #207 ) ) ;
#164 = VERTEX_POINT ( 'NONE', #108 ) ;
#165 = VERTEX_POINT ( 'NONE', #105 ) ;
#166 = ORIENTED_EDGE ( 'NONE', *, *, #3, .F. ) ;
#167 = VECTOR ( 'NONE', #250, 39.37007874015748143 ) ;
#168 = ORIENTED_EDGE ( 'NONE', *, *, #149, .F. ) ;
#169 = ADVANCED_FACE ( 'NONE', ( #155 ), #289, .T. ) ;
#170 = ADVANCED_FACE ( 'NONE', ( #68 ), #257, .T. ) ;
#171 = CARTESIAN_POINT ( 'NONE',  ( 0.0000000000000000000, 0.0000000000000000000, 2.000000000000000000 ) ) ;
#172 = DIRECTION ( 'NONE',  ( -1.224646799147353207E-16, -0.0000000000000000000, -1.000000000000000000 ) ) ;
#173 = AXIS2_PLACEMENT_3D ( 'NONE', #78, #258, #8 ) ;
#174 = FACE_OUTER_BOUND ( 'NONE', #125, .T. ) ;
#175 = AXIS2_PLACEMENT_3D ( 'NONE', #291, #106, #88 ) ;
#176 = CARTESIAN_POINT ( 'NONE',  ( 7.660553729477949085E-17, 0.0000000000000000000, 0.6255316826705892286 ) ) ;
#177 = DIRECTION ( 'NONE',  ( -1.000000000000000000, 0.0000000000000000000, 0.0000000000000000000 ) ) ;
#178 =( CONVERSION_BASED_UNIT ( 'INCH', #89 ) LENGTH_UNIT ( ) NAMED_UNIT ( #18 ) );
#179 = CARTESIAN_POINT ( 'NONE',  ( 0.09365624999999999645, 1.146958267826442798E-17, -1.146958267826442798E-17 ) ) ;
#180 = DIRECTION ( 'NONE',  ( -1.000000000000000000, 0.0000000000000000000, 0.0000000000000000000 ) ) ;
#181 = ADVANCED_FACE ( 'NONE', ( #133 ), #222, .T. ) ;
#182 = AXIS2_PLACEMENT_3D ( 'NONE', #11, #204, #44 ) ;
#183 = ORIENTED_EDGE ( 'NONE', *, *, #293, .T. ) ;
#184 = CARTESIAN_POINT ( 'NONE',  ( 7.654042494670957853E-17, 0.0000000000000000000, 0.6250000000000000000 ) ) ;
#185 = APPLICATION_PROTOCOL_DEFINITION ( 'draft international standard', 'automotive_design', 1998, #188 ) ;
#186 = ORIENTED_EDGE ( 'NONE', *, *, #40, .T. ) ;
#187 =( GEOMETRIC_REPRESENTATION_CONTEXT ( 3 ) GLOBAL_UNCERTAINTY_ASSIGNED_CONTEXT ( ( #118 ) ) GLOBAL_UNIT_ASSIGNED_CONTEXT ( ( #135, #279, #72 ) ) REPRESENTATION_CONTEXT ( 'NONE', 'WORKASPACE' ) );
#188 = APPLICATION_CONTEXT ( 'automotive_design' ) ;
#189 = VERTEX_POINT ( 'NONE', #263 ) ;
#190 = EDGE_LOOP ( 'NONE', ( #96, #186, #255, #262 ) ) ;
#191 = EDGE_CURVE ( 'NONE', #287, #161, #141, .T. ) ;
#192 = PLANE ( 'NONE',  #173 ) ;
#193 = VECTOR ( 'NONE', #212, 39.37007874015748143 ) ;
#194 = CYLINDRICAL_SURFACE ( 'NONE', #202, 0.09365624999999999645 ) ;
#195 = CARTESIAN_POINT ( 'NONE',  ( 7.660553729477949085E-17, 0.0000000000000000000, 0.6255316826705892286 ) ) ;
#196 = DIRECTION ( 'NONE',  ( 0.7071067811865463515, 8.659560562354916834E-17, -0.7071067811865486830 ) ) ;
#197 = CARTESIAN_POINT ( 'NONE',  ( -0.09365624999999992706, 1.146958267826442798E-17, 0.6250000000000000000 ) ) ;
#198 = AXIS2_PLACEMENT_3D ( 'NONE', #87, #16, #131 ) ;
#199 = CARTESIAN_POINT ( 'NONE',  ( 0.0000000000000000000, 0.0000000000000000000, 2.000000000000000000 ) ) ;
#200 = ADVANCED_FACE ( 'NONE', ( #226 ), #221, .T. ) ;
#201 = PRESENTATION_STYLE_ASSIGNMENT (( #12 ) ) ;
#202 = AXIS2_PLACEMENT_3D ( 'NONE', #33, #124, #237 ) ;
#203 = PLANE ( 'NONE',  #175 ) ;
#204 = DIRECTION ( 'NONE',  ( -1.224646799147353207E-16, -0.0000000000000000000, -1.000000000000000000 ) ) ;
#205 = CARTESIAN_POINT ( 'NONE',  ( -0.07874999999999980627, 0.0000000000000000000, 2.000000000000000000 ) ) ;
#206 = AXIS2_PLACEMENT_3D ( 'NONE', #288, #63, #224 ) ;
#207 = FILL_AREA_STYLE_COLOUR ( '', #34 ) ;
#208 = EDGE_LOOP ( 'NONE', ( #275, #21, #91, #1 ) ) ;
#209 = SURFACE_SIDE_STYLE ('',( #22 ) ) ;
#210 = CONICAL_SURFACE ( 'NONE', #67, 0.09365624999999999645, 0.1745329251994338637 ) ;
#211 = CIRCLE ( 'NONE', #261, 0.09375000000000001388 ) ;
#212 = DIRECTION ( 'NONE',  ( 0.1736481776669313581, 0.0000000000000000000, 0.9848077530122077983 ) ) ;
#213 = EDGE_CURVE ( 'NONE', #287, #116, #227, .T. ) ;
#214 = ORIENTED_EDGE ( 'NONE', *, *, #213, .F. ) ;
#215 = DIRECTION ( 'NONE',  ( 0.0000000000000000000, 0.0000000000000000000, 1.000000000000000000 ) ) ;
#216 = DIRECTION ( 'NONE',  ( 0.0000000000000000000, 0.0000000000000000000, 1.000000000000000000 ) ) ;
#217 = AXIS2_PLACEMENT_3D ( 'NONE', #109, #245, #107 ) ;
#218 = DIRECTION ( 'NONE',  ( 1.000000000000000000, 0.0000000000000000000, 0.0000000000000000000 ) ) ;
#219 = EDGE_LOOP ( 'NONE', ( #77, #229, #234, #254 ) ) ;
#220 = CARTESIAN_POINT ( 'NONE',  ( 0.0000000000000000000, 0.0000000000000000000, 2.000000000000000000 ) ) ;
#221 = CONICAL_SURFACE ( 'NONE', #162, 0.07874999999999980627, 0.7853981633974466137 ) ;
#222 = CYLINDRICAL_SURFACE ( 'NONE', #84, 0.09375000000000001388 ) ;
#223 = EDGE_CURVE ( 'NONE', #116, #260, #43, .T. ) ;
#224 = DIRECTION ( 'NONE',  ( -1.000000000000000000, 0.0000000000000000000, 1.224646799147352961E-16 ) ) ;
#225 = FILL_AREA_STYLE_COLOUR ( '', #230 ) ;
#226 = FACE_OUTER_BOUND ( 'NONE', #25, .T. ) ;
#227 = LINE ( 'NONE', #179, #286 ) ;
#228 = PRESENTATION_STYLE_ASSIGNMENT (( #296 ) ) ;
#229 = ORIENTED_EDGE ( 'NONE', *, *, #3, .T. ) ;
#230 = COLOUR_RGB ( '',0.7921568627450980005, 0.8196078431372548767, 0.9333333333333333481 ) ;
#231 = EDGE_CURVE ( 'NONE', #189, #164, #249, .T. ) ;
#232 = DIRECTION ( 'NONE',  ( -0.7071067811865463515, 0.0000000000000000000, -0.7071067811865486830 ) ) ;
#233 = ADVANCED_FACE ( 'NONE', ( #13 ), #203, .T. ) ;
#234 = ORIENTED_EDGE ( 'NONE', *, *, #149, .T. ) ;
#235 = VERTEX_POINT ( 'NONE', #65 ) ;
#236 = EDGE_LOOP ( 'NONE', ( #298, #138, #183, #166 ) ) ;
#237 = DIRECTION ( 'NONE',  ( -1.000000000000000000, 0.0000000000000000000, 1.224646799147352961E-16 ) ) ;
#238 = CARTESIAN_POINT ( 'NONE',  ( 0.0000000000000000000, 0.0000000000000000000, 0.0000000000000000000 ) ) ;
#239 = DIRECTION ( 'NONE',  ( 0.0000000000000000000, 0.0000000000000000000, 1.000000000000000000 ) ) ;
#240 = DIRECTION ( 'NONE',  ( 1.000000000000000000, 0.0000000000000000000, 0.0000000000000000000 ) ) ;
#241 = APPLICATION_CONTEXT ( 'automotive_design' ) ;
#242 = VECTOR ( 'NONE', #196, 39.37007874015748143 ) ;
#243 = LINE ( 'NONE', #143, #242 ) ;
#244 = CARTESIAN_POINT ( 'NONE',  ( 0.0000000000000000000, 0.0000000000000000000, 1.984999999999999654 ) ) ;
#245 = DIRECTION ( 'NONE',  ( -1.224646799147353207E-16, -0.0000000000000000000, -1.000000000000000000 ) ) ;
#246 = DIRECTION ( 'NONE',  ( 1.224646799147353207E-16, 0.0000000000000000000, 1.000000000000000000 ) ) ;
#247 = DIRECTION ( 'NONE',  ( -1.224646799147353207E-16, -0.0000000000000000000, -1.000000000000000000 ) ) ;
#248 = CARTESIAN_POINT ( 'NONE',  ( 0.0000000000000000000, 0.0000000000000000000, 2.000000000000000000 ) ) ;
#249 = CIRCLE ( 'NONE', #55, 0.09375000000000001388 ) ;
#250 = DIRECTION ( 'NONE',  ( -0.0000000000000000000, -0.0000000000000000000, -1.000000000000000000 ) ) ;
#251 = MANIFOLD_SOLID_BREP ( 'Cut-Revolve1', #93 ) ;
#252 = ADVANCED_FACE ( 'NONE', ( #48 ), #6, .T. ) ;
#253 = CIRCLE ( 'NONE', #146, 0.09365624999999999645 ) ;
#254 = ORIENTED_EDGE ( 'NONE', *, *, #115, .F. ) ;
#255 = ORIENTED_EDGE ( 'NONE', *, *, #231, .T. ) ;
#256 = DIRECTION ( 'NONE',  ( 1.000000000000000000, 0.0000000000000000000, 0.0000000000000000000 ) ) ;
#257 = CONICAL_SURFACE ( 'NONE', #38, 0.09365624999999999645, 0.1745329251994338637 ) ;
#258 = DIRECTION ( 'NONE',  ( 0.0000000000000000000, 0.0000000000000000000, 1.000000000000000000 ) ) ;
#259 = DIRECTION ( 'NONE',  ( -0.0000000000000000000, -0.0000000000000000000, -1.000000000000000000 ) ) ;
#260 = VERTEX_POINT ( 'NONE', #137 ) ;
#261 = AXIS2_PLACEMENT_3D ( 'NONE', #195, #172, #62 ) ;
#262 = ORIENTED_EDGE ( 'NONE', *, *, #264, .F. ) ;
#263 = CARTESIAN_POINT ( 'NONE',  ( -0.09374999999999994449, 0.0000000000000000000, 0.6255316826705892286 ) ) ;
#264 = EDGE_CURVE ( 'NONE', #287, #164, #26, .T. ) ;
#265 = DIRECTION ( 'NONE',  ( 1.000000000000000000, 0.0000000000000000000, 0.0000000000000000000 ) ) ;
#266 = MECHANICAL_DESIGN_GEOMETRIC_PRESENTATION_REPRESENTATION (  '', ( #28 ), #156 ) ;
#267 =( NAMED_UNIT ( * ) PLANE_ANGLE_UNIT ( ) SI_UNIT ( $, .RADIAN. ) );
#268 = DIRECTION ( 'NONE',  ( -1.000000000000000000, 0.0000000000000000000, 0.0000000000000000000 ) ) ;
#269 = CIRCLE ( 'NONE', #217, 0.09365624999999999645 ) ;
#270 = CARTESIAN_POINT ( 'NONE',  ( 0.09365625000000006584, 0.0000000000000000000, 0.6250000000000000000 ) ) ;
#271 = EDGE_CURVE ( 'NONE', #161, #287, #253, .T. ) ;
#272 = EDGE_CURVE ( 'NONE', #29, #164, #110, .T. ) ;
#273 =( LENGTH_UNIT ( ) NAMED_UNIT ( * ) SI_UNIT ( $, .METRE. ) );
#274 = ORIENTED_EDGE ( 'NONE', *, *, #293, .F. ) ;
#275 = ORIENTED_EDGE ( 'NONE', *, *, #40, .F. ) ;
#276 = CIRCLE ( 'NONE', #60, 0.07874999999999980627 ) ;
#277 = AXIS2_PLACEMENT_3D ( 'NONE', #248, #52, #180 ) ;
#278 = VECTOR ( 'NONE', #283, 39.37007874015748143 ) ;
#279 =( NAMED_UNIT ( * ) PLANE_ANGLE_UNIT ( ) SI_UNIT ( $, .RADIAN. ) );
#280 = ORIENTED_EDGE ( 'NONE', *, *, #45, .T. ) ;
#281 = ORIENTED_EDGE ( 'NONE', *, *, #30, .F. ) ;
#282 = ORIENTED_EDGE ( 'NONE', *, *, #223, .F. ) ;
#283 = DIRECTION ( 'NONE',  ( -1.224646799147353207E-16, -0.0000000000000000000, -1.000000000000000000 ) ) ;
#284 = DIRECTION ( 'NONE',  ( 1.224646799147353207E-16, 0.0000000000000000000, 1.000000000000000000 ) ) ;
#285 = FACE_OUTER_BOUND ( 'NONE', #299, .T. ) ;
#286 = VECTOR ( 'NONE', #154, 39.37007874015748143 ) ;
#287 = VERTEX_POINT ( 'NONE', #90 ) ;
#288 = CARTESIAN_POINT ( 'NONE',  ( 1.404618771449245766E-33, 0.0000000000000000000, 1.146958267826442798E-17 ) ) ;
#289 = CYLINDRICAL_SURFACE ( 'NONE', #198, 0.09365624999999999645 ) ;
#290 = PRODUCT ( 'Micro_EMS-187-4', 'Micro_EMS-187-4', '', ( #80 ) ) ;
#291 = CARTESIAN_POINT ( 'NONE',  ( 0.0000000000000000000, 0.0000000000000000000, 2.000000000000000000 ) ) ;
#292 = FILL_AREA_STYLE ('',( #225 ) ) ;
#293 = EDGE_CURVE ( 'NONE', #235, #139, #71, .T. ) ;
#294 = MECHANICAL_DESIGN_GEOMETRIC_PRESENTATION_REPRESENTATION (  '', ( #74 ), #187 ) ;
#295 = PRODUCT_DEFINITION_CONTEXT ( 'detailed design', #241, 'design' ) ;
#296 = SURFACE_STYLE_USAGE ( .BOTH. , #209 ) ;
#297 = ORIENTED_EDGE ( 'NONE', *, *, #66, .F. ) ;
#298 = ORIENTED_EDGE ( 'NONE', *, *, #45, .F. ) ;
#299 = EDGE_LOOP ( 'NONE', ( #136, #122, #99, #168 ) ) ;
ENDSEC;
END-ISO-10303-21;
